Oops, an error
Loading. Please wait.

Lonely Tab

12,231 views 3 this week
7 commentsread comments
1 2 3 4 5
excellent!
x 6
Autoscroll
+/-
esc
set tempo
stop
Contributor
Tabbers playing skills
advanced ++
WARNING: You are trying to view
                                    content from Ultimate-Guitar.com
                                    in an unauthorized application,
                                    which is prohibited.

                                    Please use an official Ultimate
                                    Guitar Tabs application for iPhone,
                                    iPad or Android to access legitimate
                                    chords, guitar, bass, and drum tabs
                                    from Ultimate-Guitar.com database.

                                    Type "ultimate guitar tabs" in Apple
                                    App Store's or Android Market's
                                    search to find the application.
------------------------*Lonely - Atreyu*----------------------------------

Tabbed by: CJ Wilcox                     
           
Check out: www.myspace.com/7cj7rocks7
      www.myspace.com/twilightbeforesunrise

--- Lining everything up was problem. But with an anonymous 
tip, I fixed it the best I could.

For a look at this, I did a video for this song. To see that, go to...
http://www.youtube.com/user/TwilightB4Sunrise

Tuning: Drop C (CGCFAD) 

INTRO-

Guitar 1:
D|--------------------------------------------------------------|
A|--------------------------------------------------------------|
F|----/6-----2-----4--------2---4---6------2-----4--------------|
C|--------------------------------------------------------------|
G|--------------------------------------------------------------|
C|--------------------------------------------------------------|

Guitar 2:
D|--------------------------------------------------------------|
A|----/10----7-----9-------7---9---10------7-----9--------------|
F|--------------------------------------------------------------|
C|--------------------------------------------------------------|
G|--------------------------------------------------------------|
C|--------------------------------------------------------------|

.............................................................................

Guitar 1:
D|---/5--7--9----5----7-5-7-9-7-5----7---4---5----4--5----------|
A|--------------------------------------------------------------|
F|--------------------------------------------------------------|
C|--------------------------------------------------------------|
G|--------------------------------------------------------------|
C|--------------------------------------------------------------|

Guitar 2:
D|--------------------------------------------------------------|
A|---/7--9--10---7----9-7-9--10-9-7-9---5---7----5--7-----------|
F|--------------------------------------------------------------|
C|--------------------------------------------------------------|
G|--------------------------------------------------------------|
C|--------------------------------------------------------------|

Guitar 3:
D|--------------------------------------------------------------|
A|--------------------------------------------------------------|
F|--------------------6---------6------------------------4--4---|
C|---------4--4-------6---------6-------------2---2------4--4---|    
G|---------4--4-------4---------4-------------2---2------2--2---|
C|---------4--4-------------------------------2---2-------------|
                 (All Whole Note Durations)

VERSE 1-
(play twice) 

Guitar 3
D|--------------------------------------------------------------|
A|--------------------------------------------------------------|
F|------------------6--6--6-------------------------4--4--4-----|            
C|--4--4--4---------6--6--6--------2--2--2----------4--4--4-----|   
G|--4--4--4---------4--4--4--------2--2--2----------2--2--2-----|
C|--4--4--4------------------------2--2--2----------------------|

Guitar 1:
D|--------------------------------------------------------------|
A|--------------------------------------------------------------|
F|------------------------6-------------------------------4-----|            
C|--------4------------6-----------------2-------------4--------|   
G|-----4------------4-----------------2-------------2-----------|
C|--4------------------------------2----------------------------|

PRECHORUS-

Guitar 3:
D|-------------------------------------------------------------------|
A|-------------------------------------------------------------------|
F|---------------------------7----------------7-----------6----------|
C|---------------------------7----------------7-----------6----------|
G|---------------------------5----------------5-----------4----------|
C|---------------------------0---------------------------------------|

Guitar 1:
D|-------------------------------------------------------------------|
A|-------------------------------------------------------------------|
F|--------------------7-9----11-------7-------11----14----6----------|
C|----------7--9--11----------x-------x--------x-----x----x----------|
G|----9-11--------------------9-------5--------9----12----4----------|
C|-------------------------------------------------------------------|

Guitar 2:
D|-------------------------------------------------------------------|
A|-------------------------------------------------------------------|
F|-------------------11-13--14---18---11------14---18----11----------|
C|----------11-12-14---------x----x----x-------x----x----x-----------|
G|---12-14------------------12---16---9-------12---16----9-----------|
C|-------------------------------------------------------------------|

.............................................................................

Guitar 3:
D|-------------------------------------------------------------|
A|-------------------------------------------------------------|
F|---------7-----------7-------9-------------------------------|
C|---------7-----------7-------9-------------------------------|
G|---------5-----------5-------7-------------------------------|
C|---------0---------------------------------------------------|

Guitar 1:
D|-------------------------------------------------------------|
A|-------------------------------------------------------------|
F|---------11----------7------11---13---14-14----16-16---------|
C|---------x-----------x-------x----x----x--x-----x--x---------|
G|---------9-----------5-------9---11---12-12----14-14---------|
C|-------------------------------------------------------------|

Guitar 2:
D|-------------------------------------------------------------|
A|-------------------------------------------------------------|
F|---------14----18----11-----14---16---14-14----16-16---------|
C|---------x-----x-----x-------x----x----x--x-----x--x---------|
G|---------12----16----9------12---14---12-12---14-14----------|
C|-------------------------------------------------------------|

.............................................................................

CHORUS-
Guitar 3:
D|---------------------------------------------------------|
A|---------------------------------------------------------|
F|---------------------------------------------------------|
C|--7--7--7--7--7--7--7--7--7--7--7--7--7--7--7--7---------|
G|--7--7--7--7--7--7--7--7--7--7--7--7--7--7--7--7---------|
C|--7--7--7--7--7--7--7--7--7--7--7--7--7--7--7--7---------|

Guitar 1:
D|---------------------------------------------------------|
A|---------------------------------------------------------|
F|---14-14-14-14-14-14-14-14--6-6-6-6-6-6-6-6--------------|
C|---x--x--x--x--x--x--x--x---x-x-x-x-x-x-x-x--------------|
G|---12-12-12-12-12-12-12-12--4-4-4-4-4-4-4-4--------------|
C|---------------------------------------------------------|

.............................................................................

Guitar 3:
D|---------------------------------------------------------|
A|---------------------------------------------------------|
F|---------------------------------------------------------|
C|---6--6--6--6--6--6--6--6--6--6--6--6--6--6--6--6--------|
G|---7--7--7--7--7--7--7--7--7--7--7--7--7--7--7--7--------|
C|---6--6--6--6--6--6--6--6--6--6--6--6--6--6--6--6--------|

Guitar 1:
D|---------------------------------------------------------|
A|---------------------------------------------------------|
F|---13-13-13-13-13-13-13-13-13-13-13-13-13-13-13-13-------|
C|---x--x--x--x--x--x--x--x--x--x--x--x--x--x--x--x--------|
G|---11-11-11-11-11-11-11-11-11-11-11-11-11-11-11-11-------|
C|---------------------------------------------------------|

.............................................................................

Guitar 3: 
D|---------------------------------------------------------|
A|---------------------------------------------------------|
F|---------------------------------------------------------|
C|--4--4--4--4--4--4--4--4--4--4--4--4--4--4--4--4---------|
G|--4--4--4--4--4--4--4--4--4--4--4--4--4--4--4--4---------|
C|--4--4--4--4--4--4--4--4--4--4--4--4--4--4--4--4---------|

Guitar 1:
D|---------------------------------------------------------|
A|---------------------------------------------------------|
F|--11-11-11-11-11-11-11--11-6--6--6--6--6--6--6--6--------|
C|--x--x--x--x--x--x--x---x--x--x--x--x--x--x--x--x--------|
G|--9--9--9--9--9--9--9---9--4--4--4--4--4--4--4--4--------|
C|---------------------------------------------------------|

.............................................................................

Guitar 3: 
D|---------------------------------------------------------|
A|---------------------------------------------------------|
F|---------------------------------------------------------|
C|---0--0--0--0--0--0--0--0--0--0--0--0--0--0--0--0--------|
G|---0--0--0--0--0--0--0--0--0--0--0--0--0--0--0--0--------|
C|---0--0--0--0--0--0--0--0--0--0--0--0--0--0--0--0--------|

Guitar 1:
D|---------------------------------------------------------|
A|---------------------------------------------------------|
F|---7--7--7--7--7--7--7--7--7--7--7--7--7--7--7--7--------|
C|---x--x--x--x--x--x--x--x--x--x--x--x--x--x--x--x--------|
G|---5--5--5--5--5--5--5--5--5--5--5--5--5--5--5--5--------|
C|---------------------------------------------------------|

.............................................................................

Guitar 3:
D|---------------------------------------------------------|
A|---------------------------------------------------------|
F|---------------------------------------------------------|
C|--7--7--7--7--7--7--7--7--7--7--7--7--7--7--7--7---------|
G|--7--7--7--7--7--7--7--7--7--7--7--7--7--7--7--7---------|
C|--7--7--7--7--7--7--7--7--7--7--7--7--7--7--7--7---------|

Guitar 1:
D|---------------------------------------------------------|
A|---------------------------------------------------------|
F|--9--9--9--9--9--9--9--9--6--6--6--6--6--6--6--6---------|
C|--x--x--x--x--x--x--x--x--x--x--x--x--x--x--x--x---------|
G|--7--7--7--7--7--7--7--7--4--4--4--4--4--4--4--4---------|
C|---------------------------------------------------------|

.............................................................................

Guitar 3:
D|---------------------------------------------------------|
A|---------------------------------------------------------|
F|---------------------------------------------------------|
C|---6--6--6--6--6--6--6--6--6--6--6--6--6--6--6--6--------|
G|---7--7--7--7--7--7--7--7--7--7--7--7--7--7--7--7--------|
C|---6--6--6--6--6--6--6--6--6--6--6--6--6--6--6--6--------|

Guitar 1:
D|---------------------------------------------------------|
A|---------------------------------------------------------|
F|---13-13-13-13-13-13-13-13-13-13-13-13-13-13-13-13-------|
C|----x--x-x--x--x--x--x--x--x--x--x--x--x--x--x---x-------|
G|---11-11-11-11-11-11-11-11-11-11-11-11-11-11-11-11-------|
C|---------------------------------------------------------|

.............................................................................

Guitar 3: 
D|---------------------------------------------------------|
A|---------------------------------------------------------|
F|---------------------------------------------------------|
C|--4--4--4--4--4--4--4--4--4--4--4--4--4--4--4--4---------|
G|--4--4--4--4--4--4--4--4--4--4--4--4--4--4--4--4---------|
C|--4--4--4--4--4--4--4--4--4--4--4--4--4--4--4--4---------|

Guitar 1:
D|---------------------------------------------------------|
A|---------------------------------------------------------|
F|--11-11-11-11-11-11-11-11-6--6--6--6--6--6--6--6---------|
C|--x--x--x--x--x--x--x--x--x--x--x--x--x--x--x--x---------|
G|--9--9--9--9--9--9--9--9--4--4--4--4--4--4--4--4---------|
C|---------------------------------------------------------|

.............................................................................

Guitar 3: 
D|-----------------------------|
A|-----------------------------|
F|-----------------------------|
C|---0-0-0----0-0-0----0-0-----|
G|---0-0-0----0-0-0----0-0-----|
C|---0-0-0----0-0-0----0-0-----|

Guitar 1:
D|-----------------------------|
A|-----------------------------|
F|---7---7----7---7----7-7-----|
C|---x---x----x---x----x-x-----|
G|---5---5----5---5----5-5-----|
C|-----------------------------|


SOLO 1-
Guitar 2:
D|-----------------------12-11--------------7-------------------------------|
A|------------------------------9-------7-7-----9----------9-9--11--8-------|
F|------13-----13-----------------------------------------------------------|
C|--11-----11---------------------------------------------------------------|
G|--------------------------------------------------------------------------|
C|--------------------------------------------------------------------------|

Guitar 3
D|--------------------------------------------------------------------------|
A|--------------------------------------------------------------------------|
F|----------------------6---6---6---------------------------4---4---4-------|
C|---4---4---4----------6---6---6--------2---2---2----------4---4---4-------|
G|---4---4---4----------4---4---4--------2---2---2----------2---2---2-------|
C|---4---4---4---------------------------2---2---2--------------------------|

.............................................................................

Guitar 2:
D|---------------------12-11-9-----------16-16-19-14-----12-12-14-11--------|
A|--------------------------------------------------------------------------|
F|-----13----13-------------------------------------------------------------|
C|--11----11----------------------------------------------------------------|
G|--------------------------------------------------------------------------|
C|--------------------------------------------------------------------------|

Guitar 3
D|--------------------------------------------------------------------------|
A|--------------------------------------------------------------------------|
F|----------------------6---6---6---------------------------4---4---4-------|
C|---4---4---4----------6---6---6--------2---2---2----------4---4---4-------|
G|---4---4---4----------4---4---4--------2---2---2----------2---2---2-------|
C|---4---4---4---------------------------2---2---2--------------------------|

VERSE 2:
Guitar 3
D|--------------------------------------------------------------------------|
A|--------------------------------------------------------------------------|
F|----------------------6---6---6---------------------------4---4---4-------|
C|---4---4---4----------6---6---6--------2---2---2----------4---4---4-------|
G|---4---4---4----------4---4---4--------2---2---2----------2---2---2-------|
C|---4---4---4---------------------------2---2---2--------------------------|

Guitar 1:
D|--------------------------------------------------------------------------|
A|--------------------------------------------------------------------------|
F|-----------------------------6------------------------------------4-------|
C|-----------4--------------6--------------------2--------------4-----------|
G|-------4--------------4--------------------2--------------2---------------|
C|---4-----------------------------------2----------------------------------|

.............................................................................

Guitar 3:
D|----------------------------------------------|
A|----------------------------------------------|
F|----------------------------------------------|
C|---4--4-4-4--4-4-4--4-4-4--4-4-4--4-4---------|
G|---4--4-4-4--4-4-4--4-4-4--4-4-4--4-4---------|
C|---4--4-4-4--4-4-4--4-4-4--4-4-4--4-4---------|
        = =    = =    = =    = =    =         

D|----------------------------------------------|
A|----------------------------------------------|
F|----6--6-6-6--6-6-6--6-6-6--6-6-6--6-6--------|
C|----6--6-6-6--6-6-6--6-6-6--6-6-6--6-6--------|
G|----4--4-4-4--4-4-4--4-4-4--4-4-4--4-4--------|
C|----------------------------------------------|
         = =    = =    = =    = =    =             

D|----------------------------------------------|
A|----------------------------------------------|
F|----------------------------------------------|
C|---2--2-2-2--2-2-2--2-2-2--2-2-2--2-2---------|
G|---2--2-2-2--2-2-2--2-2-2--2-2-2--2-2---------|
C|---2--2-2-2--2-2-2--2-2-2--2-2-2--2-2---------|
        = =    = =    = =    = =      =           

D|----------------------------------------------|
A|----------------------------------------------|
F|----4--4-4-4--4-4-4--4-4-4--4-4-4--4-4--------|
C|----4--4-4-4--4-4-4--4-4-4--4-4-4--4-4--------|
G|----2--2-2-2--2-2-2--2-2-2--2-2-2--2-2--------|
C|----------------------------------------------|
         = =    = =    = =    = =    =             

PRECHORUS -

CHORUS-

CHORUS ENDING-

Guitar 3:
D|--------------------------------------------|
A|--------------------------------------------|
F|--------------------------------------------|
C|----0-----0-----2-----7---------------------|
G|----0-----0-----2-----7---------------------|
C|----0-----0-----2-----7---------------------|

Guitar 1:
D|--------------------------------------------|
A|--------------------------------------------|
F|----7-----7-----9-----14--------------------|
C|----x-----x-----x------x--------------------|
G|----5-----5-----7-----12--------------------|
C|--------------------------------------------|

Guitar 2:
D|--------------------------------------------|
A|----3-----5-----7------9--------------------|
F|----5b----7b----9b----11b-------------------|
C|--------------------------------------------|
G|--------------------------------------------|
C|--------------------------------------------|

SOLO 2:

Guitar 2:
D|--------------------------------------------------------------------------|
A|--------------------------------------------------------------------------|
F|-13b13b-11---14-13--------13-11-------------------------------------------|
C|-------------------14-11----------------------------7---7h9\11-9/7--------|
G|-----------------------------------14-14-14\12--9-9--9-------------9-7-7h9|
C|--------------------------------------------------------------------------|
                                                                       
Guitar 3:
D|--------------------------------------------------------------------------|
A|--------------------------------------------------------------------------|
F|---------------------6---6---6---------------------------4-----4-----4----|
C|--4---4---4----------6---6---6--------2---2---2----------4-----4-----4----|
G|--4---4---4----------4---4---4--------2---2---2----------2-----2-----2----|
C|--4---4---4---------------------------2---2---2---------------------------|

.............................................................................

Guitar 2:
D|---17---------17--------17\19-------------16---------------16-------------|
A|---------14--------14--------------------------------14-------------------|
F|--------------------------------------------------------------------------|
C|--------------------------------------------------------------------------|
G|--------------------------------------------------------------------------|
C|--------------------------------------------------------------------------|

Guitar 1:
D|--------------------------------------------------------------------------|
A|---10---------10-------10---12-------------9----------------9-------------|
F|--------------------------------------------------------------------------|
C|---------11--------11--------------------------------11-------------------|
G|--------------------------------------------------------------------------|
C|--------------------------------------------------------------------------|

Guitar 3:
D|--------------------------------------------------------------------------|
A|--------------------------------------------------------------------------|
F|----------------------------------------6--6-6-6--6-6-6--6-6-6--6-6-6--6-6|
C|---4--4-4-4--4-4-4--4-4-4--4-4-4--4-4---6--6-6-6--6-6-6--6-6-6--6-6-6--6-6|
G|---4--4-4-4--4-4-4--4-4-4--4-4-4--4-4---4--4-4-4--4-4-4--4-4-4--4-4-4--4-4|
C|---4--4-4-4--4-4-4--4-4-4--4-4-4--4-4-------------------------------------|
 
.............................................................................

Guitar 2:
D|16---16--16------17-----16-----14--14-16-17-19-17-16-17-16-14-16-14-12-14-12-14-|
A|--12---12---12-12--12-12--12-12-------------------------------------------------|
F|--------------------------------------------------------------------------------|
C|--------------------------------------------------------------------------------|
G|--------------------------------------------------------------------------------|
C|--------------------------------------------------------------------------------|


Guitar 1
D|--------------------------------------------------------------------------------|
A|9-------9---------9----------10--------9---------7------------------------------|
F|--------------------------------------------------------------------------------|
C|-----9-------9--------9--9------9--9------9--9----------------------------------|
G|--------------------------------------------------------------------------------|
C|--------------------------------------------------------------------------------|
                                       
Guitar 3:
D|--------------------------------------------------------------------------------|
A|--------------------------------------------------------------------------------|
F|--------------------------------------4--4-4-4--4-4-4--4-4-4--4-4-4--4-4--------|
C|-2--2-2-2--2-2-2--2-2-2--2-2-2--2-2---4--4-4-4--4-4-4--4-4-4--4-4-4--4-4--------|
G|-2--2-2-2--2-2-2--2-2-2--2-2-2--2-2---2--2-2-2--2-2-2--2-2-2--2-2-2--2-2--------|
C|-2--2-2-2--2-2-2--2-2-2--2-2-2--2-2---------------------------------------------|

PRECHORUS-

Guitar 3:
D|--------------------------------------------|
A|--------------------------------------------|
F|----7----------------7-----------6----------|
C|----7----------------7-----------6----------|
G|----5----------------5-----------4----------|
C|----0---------------------------------------|

Guitar 1:
D|--------------------------------------------|
A|--------------------------------------------|
F|---11--------7-------11----14----6----------|
C|---x---------x--------x-----x----x----------|
G|---9---------5--------9----12----4----------|
C|--------------------------------------------|

Guitar 2:
D|--------------------------------------------|
A|--------------------------------------------|
F|---14---18---11------14----18---11----------|
C|---x----x----x-------x------x----x----------|
G|---12---16---9-------12----16----9----------|
C|--------------------------------------------|

.......................................................

Guitar 1:
D|-------------------------------------------|
A|-------------------------------------------|
F|----------------------------------7---7--9-|
C|-------7----7--9--7--9--11--9--11---11-----|
G|--9--11--11--------------------------------|
C|-------------------------------------------|

Guitar 2:
D|-------------------------------------------|
A|-------------------------------------------|
F|-------------------------------11--11-13---|
C|-------11--11-12-11-12-14-12-14--14--------|
G|--12-14--14--------------------------------|
C|-------------------------------------------|

CHORUS-

CHORUS ENDING-
Guitar 3:
D|--------------------------------------------------|
A|--------------------------------------------------|
F|--------------------------------------------------|
C|---0------2-------4---------6---------------------|
G|---0------2-------4---------6---------------------|
C|---0------2-------4---------6---------------------|

Guitar 1:
D|--------------------------------------------------|
A|--------------------------------------------------|
F|---7-------9------11-------13---------------------|
C|---x-------x-------x--------x---------------------|
G|---5-------7-------9-------11---------------------|
C|--------------------------------------------------|

Guitar 2:
D|--------------------------------------------------|
A|--------------------------------------------------|
F|-------------------------------------------11-----|
C|---------------------------------11-12-14---------|
G|---------------------------12-14------------------|
C|--------------------------------------------------|


CHORUS/OUTRO-
Guitar 2:
D|--------------------------------------------------|
A|--------------------------------------------------|
F|--14b----------------14---------------------------|
C|--------------------------------------------------|
G|--------------------------------------------------|
C|--------------------------------------------------|

Guitar 3:
D|--------------------------------------------------|
A|--------------------------------------------------|
F|--------------------------------------------------|
C|--7--7--7--7--7--7--7--7--7--7--7--7--7--7--7--7--|
G|--7--7--7--7--7--7--7--7--7--7--7--7--7--7--7--7--|
C|--7--7--7--7--7--7--7--7--7--7--7--7--7--7--7--7--|

..................................................................................................

Guitar 2:
D|--------------------------------------------------|
A|--------------------------------------------------|
F|--16b--------------------16------------------14---|
C|--------------------------------------------------|
G|--------------------------------------------------|
C|--------------------------------------------------|

Guitar 3:
D|--------------------------------------------------|
A|--------------------------------------------------|
F|--------------------------------------------------|
C|--6--6--6--6--6--6--6--6--6--6--6--6--6--6--6--6--|
G|--7--7--7--7--7--7--7--7--7--7--7--7--7--7--7--7--|
C|--6--6--6--6--6--6--6--6--6--6--6--6--6--6--6--6--|

.............................................................................

Guitar 2:
D|--------------------------------------------------|
A|--------------------------------------------------|
F|---14b-----------------14-------------------------|
C|--------------------------------------------------|
G|--------------------------------------------------|
C|--------------------------------------------------|
                                                                                              
Guitar 3: 
D|--------------------------------------------------|
A|--------------------------------------------------|
F|--------------------------------------------------|
C|--4--4--4--4--4--4--4--4--4--4--4--4--4--4--4--4--|
G|--4--4--4--4--4--4--4--4--4--4--4--4--4--4--4--4--|
C|--4--4--4--4--4--4--4--4--4--4--4--4--4--4--4--4--|

.............................................................................

Guitar 2:
D|--------------------------------------------------|
A|--------------------------------------------------|
F|-----------------16b-16-14-16b-16-14--16b---------|
C|---16---------------------------------------------|
G|--------------------------------------------------|
C|--------------------------------------------------|
                             bending and releasing
Guitar 3: 
D|--------------------------------------------------|
A|--------------------------------------------------|
F|--------------------------------------------------|
C|--0--0--0--0--0--0--0--0--0--0--0--0--0--0--0--0--|
G|--0--0--0--0--0--0--0--0--0--0--0--0--0--0--0--0--|
C|--0--0--0--0--0--0--0--0--0--0--0--0--0--0--0--0--|

.............................................................................

Guitar 2:
D|--------------------------------------------------|
A|--------------------------------------------------|
F|---14b-----------------14-------------------------|
C|--------------------------------------------------|
G|--------------------------------------------------|
C|--------------------------------------------------|
                                                                                              
Guitar 3:
D|---------------------------------------------------|
A|---------------------------------------------------|
F|---------------------------------------------------|
C|--7--7--7--7--7--7--7--7--7--7--7--7--7--7--7--7---|
G|--7--7--7--7--7--7--7--7--7--7--7--7--7--7--7--7---|
C|--7--7--7--7--7--7--7--7--7--7--7--7--7--7--7--7---|

................................................................................................

Guitar 2:
D|---------------------------------------------------|
A|----------------17---------------------------------|
F|---16b---------------------16-------------14-------|
C|---------------------------------------------------|
G|---------------------------------------------------|
C|---------------------------------------------------|
           bend, hold, then release
Guitar 3:
D|---------------------------------------------------|
A|---------------------------------------------------|
F|---------------------------------------------------|
C|--6--6--6--6--6--6--6--6--6--6--6--6--6--6--6--6---|
G|--7--7--7--7--7--7--7--7--7--7--7--7--7--7--7--7---|
C|--6--6--6--6--6--6--6--6--6--6--6--6--6--6--6--6---|

.............................................................................

Guitar 2:
D|---------------------------------------------------|
A|---------------------------------------------------|
F|---14b--------------------14-----------------------|
C|---------------------------------------------------|
G|---------------------------------------------------|
C|---------------------------------------------------|

Guitar 3: 
D|----------------------------------------------------|
A|----------------------------------------------------|
F|----------------------------------------------------|
C|--4--4--4--4--4--4--4--4--4--4--4--4--4--4--4--4----|
G|--4--4--4--4--4--4--4--4--4--4--4--4--4--4--4--4----|
C|--4--4--4--4--4--4--4--4--4--4--4--4--4--4--4--4----|

.............................................................................

Guitar 2:
D|------------------------------------------------------------|
A|------------------------------------------------------------|
F|---11--------------------------------------------11-13-14\--|
C|------------------------------------------------------------|
G|------------------------------------------------------------|
C|------------------------------------------------------------|

Guitar 3: 
D|------------------------------------------------------------|
A|------------------------------------------------------------|
F|------------------------------------------------------------|
C|--0-0-0----0-0-0----0-0-0--0-0-0----0-0-0----0--2--4\-------|
G|--0-0-0----0-0-0----0-0-0--0-0-0----0-0-0----0--2--4\-------|
C|--0-0-0----0-0-0----0-0-0--0-0-0----0-0-0----0--2--4\-------|



COMMENT AND RATE!!!



| /  slide up
| \  slide down
| b  bend
| h  hammer-on
| p  pull-off
| = palm mute
| ~  vibrato
| +  harmonic
| x  mute note
7 comments total. Showing first comments.
0 reply
MattCiessan wrote on January 11 2010, 11:05 pm

This is the link to the video cover:

http://www.youtube.com/watch?v=x_8gao4rRxc

0 reply
boredomisakille wrote on February 6 2010, 09:12 pm

why cant they ever do something in regular tuning. I hate tuning everything down

0 reply
Fcuktard93 wrote on February 19 2010, 09:28 pm

Bout Time Someone Tabbed This Song, Good Job Bro

I want to post or [tab]
guest
You may want to rate the tab now too:
select rating
Please do not post tabs as comments. Select "correction" instead!