Oops, an error
Loading. Please wait.

Bro Ashleys Here Tab

ver1
ver1

Whole song

Interactive

More versions @911Tabs.com
38,929 views 21 this week
11 commentsread comments
1 2 3 4 5
excellent!
x 12
Autoscroll
+/-
esc
set tempo
stop
Contributor
WARNING: You are trying to view
                                    content from Ultimate-Guitar.com
                                    in an unauthorized application,
                                    which is prohibited.

                                    Please use an official Ultimate
                                    Guitar Tabs application for iPhone,
                                    iPad or Android to access legitimate
                                    chords, guitar, bass, and drum tabs
                                    from Ultimate-Guitar.com database.

                                    Type "ultimate guitar tabs" in Apple
                                    App Store's or Android Market's
                                    search to find the application.
Artist - Attack Attack! ( www.myspace.com/attackattack )

Song - Bro, Ashley's Here

Album - Someday Came Suddenly (2008)


Tabbed by : Jon

The tuning is (C# G# C# F# A# D#) which is half a step down from drop d (D A D G B E)

If you have any questions feel free to e-mail me at jon_boy_3007@hotmail.com

There is also a video of me playing this here : http://www.youtube.com/watch?v=8-UQrmerOZ8

Tablature Legend
----------------
 h   - hammer-on
 p   - pull-off
 b   - bend
 pb  - pre-bend
 r   - bend release (if no number after the r, then release immediately)
 /\  - slide into or out of (from/to "nowhere")
 s   - legato slide
 S   - shift slide
<n>  - natural harmonic
[n]  - artificial harmonic
n(n) - tapped harmonic
 ~   - vibrato
 tr  - trill
 T   - tap
 TP  - trem. picking
 PM  - palm muting
\n/  - tremolo bar dip; n = amount to dip
 \n  - tremolo bar down
 n/  - tremolo bar up
/n\  - tremolo bar inverted dip
 =   - hold bend; also acts as connecting device for hammers/pulls
 <>  - volume swell (louder/softer)
 x   - on rhythm slash represents muted slash
 o   - on rhythm slash represents single note slash

Misc Legend
-----------
 |  - bar
||  - double bar
||o - repeat start
o|| - repeat end
*|  - double bar (ending)
 :  - bar (freetime)
 $  - Segno
 &  - Coda
Tempo markers - <E/E./Q/Q./H/H.> = BPM(8/16=s8/s16), where s8 = swing 8ths, s16 = swing 16ths

Gtr I (C# G# C# F# A# D#) - 'Guitar 1'
Gtr II (C# G# C# F# A# D#) - 'Guitar 2'

  Q=190
  Gtr I
  PM|                                             PM|                             PM
  E E  E  E  E  E  E  E  E  E  E  E  E  E  E  E   E E  E  E  E  E  E  E   E E E E E Q.
|-----------------------------------------------|-----------------------|------------------|
|-----------------------------------------------|-----------------------|-----------6------|
|-----10-10-10-10-10-10-10-10-10-10-10-10-10-10-|-----10-10-10-10-10-10-|-----------9b10---|
|-----12-12-12-12-12-12-12-12-12-12-12-12-12-12-|-----12-12-12-12-12-12-|------------------|
|-0-0-------------------------------------------|-0-0-------------------|---------0--------|
|-0-0-------------------------------------------|-0-0-------------------|-0-3h5p0-0--------|


  PM|                                               PM|                             PM      PM|
  E E  E  E  E  E  E  E    E  E  E  E  E  E  E  E   E E  E  E  E  E  E  E   E E E E E Q.    E E
|-----------------------|-------------------------|-----------------------|---------------------|
|-----------------------|-------------------------|-----------------------|-----------6---------|
|-----10-10-10-10-10-10-|-10-10-10-10-10-10-10-10-|-----10-10-10-10-10-10-|-----------9b10------|
|-----12-12-12-12-12-12-|-12-12-12-12-12-12-12-12-|-----12-12-12-12-12-12-|---------------------|
|-0-0-------------------|-------------------------|-0-0-------------------|---------0-------0-0-|
|-0-0-------------------|-------------------------|-0-0-------------------|-0-3h5p0-0-------0-0-|


              PM|               PM|             PM|       PM|
   E  E  E  E E E  E  E    E  E E E  E  E  E  E E E  E  E E E  E  E  E  E  E  E  E  E E E
|-----------------------|-----------------------------------------------------------------|
|-----------------------|-----------------------------------------------------------------|
|-----------------------|-----------------------------------------------------------------|
|--3--3--3--3------3--3-|--3--3------3--3--3--3------3--3------3--3--3--3--3--3--3--3-----|
|--7--7--7--7-0-0--7--7-|--7--7-0-0--7--7--7--7-0-0--7--7-0-0--5--5--5--5--5--5--5--5-0-0-|
|-------------0-0-------|-------0-0-------------0-0-------0-0-------------------------0-0-|
|
| Gtr II
|             PM|               PM|             PM|       PM|                         PM|
|  E  E  E  E E E  E  E    E  E E E  E  E  E  E E E  E  E E E  E  E  E  E  E  E  E  E E E
|-----------------------|-----------------------------------------------------------------|
|-11-11-11-11-----11-11-|-11-11-----11-11-11-11-----11-11-----11-11-11-11-11-11-11-11-----|
|-14-14-14-14-----14-14-|-14-14-----14-14-14-14-----14-14-----14-14-14-14-14-14-14-14-----|
|-----------------------|-----------------------------------------------------------------|
|-------------0-0-------|-------0-0-------------0-0-------0-0-------------------------0-0-|
|-------------0-0-------|-------0-0-------------0-0-------0-0-------------------------0-0-|


              PM|               PM|               PM|       PM|                            PM|
   E  E  E  E E E  E  E    E  E E E  E  E  E  E   E E  E  E E E  E  E    E  E  E  E  E  E  E E W..
|-----------------------|-----------------------|---------------------|--------------------------|
|-----------------------|-----------------------|---------------------|--------------------------|
|-----------------------|-----------------------|---------------------|--------------------------|
|--3--3--3--3------3--3-|--3--3------3--3--3--3-|------3--3------3--3-|--3--3--3--3--3--3------10|
|--7--7--7--7-0-0--7--7-|--7--7-0-0--7--7--7--7-|-0-0--7--7-0-0--5--5-|--5--5--5--5--5--5--8-8--8|
|-------------0-0-------|-------0-0-------------|-0-0-------0-0-------|--------------------8-8--8|
|
|             PM|               PM|               PM|       PM|
|  E  E  E  E E E  E  E    E  E E E  E  E  E  E   E E  E  E E E  E  E    E  E  E  E  E  E
|-----------------------|-----------------------|---------------------|----------------------|
|-11-11-11-11-----11-11-|-11-11-----11-11-11-11-|-----11-11-----11-11-|-11-11-11-11-11-11----|
|-14-14-14-14-----14-14-|-14-14-----14-14-14-14-|-----14-14-----14-14-|-14-14-14-14-14-14----|
|-----------------------|-----------------------|---------------------|----------------------|
|-------------0-0-------|-------0-0-------------|-0-0-------0-0-------|----------------------|
|-------------0-0-------|-------0-0-------------|-0-0-------0-0-------|----------------------|


  Gtr I
  PM|          PM|       PM|        PM|                    PM|
  E E H.       E  E  Q   E  E  Q    E E  W..               E  E
|---------------------------------|-----------------------------|
|---------------------------------|-----------------------------|
|---------------------------------|-----------------------------|
|-----5---------------------------|-----10----------------------|
|-3-3-3-------10-10-10--10-10-10--|-8-8--8----------------10-10-|
|-3-3-3-------10-10-10--10-10-10--|-8-8--8----------------10-10-|


  Gtr I
   W..  Q  E  Q  Q  Q  Q  Q  E  E  E  Q  E  E  E  E  E  E  Q  E  E  E  E  E  E  Q
|--------------------------------------------------------------------------|
|--------------------------------------------------------------------------|
|----10-10-10-10-10-10-10-10-10-10-14-14-14-14-14-14-14-12-12-12-12-12-12--|
|-12-----------------------------------------------------------------------|
|-10--8--8--8--8--8--8--8--8--8--8-12-12-12-12-12-12-12-10-10-10-10-10-10--|
|-10-----------------------------------------------------------------------|
|
E  Q  Q  Q  Q  Q  E  E  E
----------------------------------|
----------------------------------|
12-10-10-10-10-10-10-10-10-10-10--|
----------------------------------|
10--8--8--8--8--8--8--8--8--8--8--|
----------------------------------|

| Gtr II
|  W..  Q  E  Q  Q  Q  Q  Q  E  E  E  Q  E  E  E  E  E  E  Q  E  E  E  E  E  E  Q
|---------------------------------------------------------------------------------|
|---------------------------------------------------------------------------------|
|---------------------------------------------------------------------------------|
|-12-10-10-10-10-10-10-10-10-10-10--3--3--3--3--3--3--3-10-10-10-10-10-10-10-10---|
|-10--8--8--8--8--8--8--8--8--8--8--3--3--3--3--3--3--3-10-10-10-10-10-10-10--8---|
|-10--8--8--8--8--8--8--8--8--8--8--3--3--3--3--3--3--3-10-10-10-10-10-10-10--8---|

E  Q  Q  Q  Q  Q  E  E  E
------------------------------|
------------------------------|
------------------------------|
10-10-10-10-10-10-10-10-10----|
-8--8--8--8--8--8--8--8--8----|
-8--8--8--8--8--8--8--8--8----|

  Gtr I
   E  E  E  E  E  E  E  E  E  E    E  E  E  E  E  E  E
|-------------------------------|-----------------------|
|-------------------------------|-----------------------|
|-12-12-12-12-12-12-12-12-12-12-|-12-12-12-12-12-12-12--|
|-------------------------------|-----------------------|
|-10-10-10-10-10-10-10-10-10-10-|-10-10-10-10-10-10-10--|
|-------------------------------|-----------------------|
|
| Gtr II
|  E  E  E  E  E  E  E  E  E  E    E  E  E  E  E  E  E
|-------------------------------|-----------------------|
|-------------------------------|-----------------------|
|-------------------------------|-----------------------|
|-10-10-10-10-10-10-10-10-10-10-|-10-10-10-10-10-10-10--|
|-10-10-10-10-10-10-10-10-10-10-|-10-10-10-10-10-10-10--|
|-10-10-10-10-10-10-10-10-10-10-|-10-10-10-10-10-10-10--|


   E  E  E  E  E  E  E  E  E  E  E  E  H
|------------------------------------------|
|------------------------------------------|
|-14-14-14-14-14-14-14-14-14-14-14-14-14---|
|------------------------------------------|
|-12-12-12-12-12-12-12-12-12-12-12-12-12---|
|------------------------------------------|
|
|------------------------------------------|
|------------------------------------------|
|------------------------------------------|
|------------------------------------------|
|------------------------------------------|
|------------------------------------------|


  Gtr I
  E Q  E E Q  E   E Q  E E Q   E    E  Q   E  E  Q   E
|---------------|----------------|---------------------|
|---------------|----------------|---------------------|
|-7-7--7-7-7--7-|-7-7--7-7-7--14-|-14-14--14-14-14--14-|
|---------------|----------------|---------------------|
|-5-5--5-5-5--5-|-5-5--5-5-5--12-|-12-12--12-12-12--12-|
|---------------|----------------|---------------------|


   E  Q   E  E   E  E  E    E  Q   E  E  Q   E    E  Q   E
|------------------------|---------------------|------------|
|------------------------|---------------------|------------|
|-14-14--14-14--12-12-10-|-10-10--10-10-10--10-|-10-10--10--|
|------------------------|---------------------|------------|
|-12-12--12-12-\10-10-\8-|--8--8---8--8--8---8-|--8--8---8--|
|------------------------|---------------------|------------|


   E  E E  E E Q E E Q E  E E E E E E E E
|--------------------------------------------|
|--------------------------------------------|
|-10--9-9--7-7-7-7-7-7-7--5-5-5-5-5-5-5-5----|
|--------------------------------------------|
|--8-\7-7-\5-5-5-5-5-5-5-\3-3-3-3-3-3-3-3----|
|--------------------------------------------|


  E Q  E E Q  E   E Q  E E Q   E    E  Q   E  E  Q   E
|---------------|----------------|---------------------|
|---------------|----------------|---------------------|
|-7-7--7-7-7--7-|-7-7--7-7-7--14-|-14-14--14-14-14--14-|
|---------------|----------------|---------------------|
|-5-5--5-5-5--5-|-5-5--5-5-5--12-|-12-12--12-12-12--12-|
|---------------|----------------|---------------------|


   E  Q   E  E   E  E  E    E  Q   E  E  Q   E    E  Q   E
|------------------------|---------------------|------------|
|------------------------|---------------------|------------|
|-14-14--14-14--12-12-10-|-10-10--10-10-10--10-|-10-10--10--|
|------------------------|---------------------|------------|
|-12-12--12-12-\10-10-\8-|--8--8---8--8--8---8-|--8--8---8--|
|------------------------|---------------------|------------|


   E  E E  E E Q  E   E Q  E  E E E E   E E E E
|-------------------|-----------------|------------|
|-------------------|-----------------|------------|
|-10--9-9--7-7-7--7-|-7-7--7--5-5-5-5-|-5-7-7-7----|
|-------------------|-----------------|------------|
|--8-\7-7-\5-5-5--5-|-5-5--5-\3-3-3-3-|-3-5-5-5----|
|-------------------|-----------------|------------|


  Gtr I
  PM-------------|     PM|   PM|   PM|    PM-------|     PM-------------|
  S. S. S. S. S. S. E. S S E S S E S S E. S. S. S. S. E. S. S. S. S. S. S. E.
|--------------------------------------------------------------------------------|
|--------------------------------------------------------------------------------|
|--------------------------------------------------------------------------------|
|--------------------------------------------------------------------------------|
|-0--0--0--0--0--0-----0-0---0-0---0-0----0--0--0--0-----0--0--0--0--0--0--------|
|-0--0--0--0--0--0-----0-0---0-0---0-0----0--0--0--0-----0--0--0--0--0--0--------|


  PM-------------|     PM|
  S. S. S. S. S. S. E. S S E
|----------------------------|
|----------------------------|
|----------------------------|
|----------------------------|
|-0--0--0--0--0--0-----0-0---|
|-0--0--0--0--0--0-----0-0---|


  PM|   PM|    PM-------|       PM-------|    ~~~~
  S S E S S E. S. S. S. S. E.   S. S. S. S.   Q..
|-----------------------------|----------------------|
|-----------------------------|----------------------|
|-----------------------------|----------------------|
|-----------------------------|----------------------|
|-0-0---0-0----0--0--0--0-----|-0--0--0--0---[7]-----|
|-0-0---0-0----0--0--0--0-----|-0--0--0--0-----------|


  PM-------------|     PM|
  S. S. S. S. S. S. E. S S E
|----------------------------|
|----------------------------|
|----------------------------|
|----------------------------|
|-0--0--0--0--0--0-----0-0---|
|-0--0--0--0--0--0-----0-0---|


  PM|   PM|    PM-------|       PM-------------|
  S S E S S E. S. S. S. S. E.   S. S. S. S. S. S. E.
|-----------------------------|-------------------------|
|-----------------------------|-------------------------|
|-----------------------------|-------------------------|
|-----------------------------|-------------------------|
|-0-0---0-0----0--0--0--0-----|-0--0--0--0--0--0--------|
|-0-0---0-0----0--0--0--0-----|-0--0--0--0--0--0--------|


  PM-------------|     PM|
  S. S. S. S. S. S. E. S S E
|----------------------------|
|----------------------------|
|----------------------------|
|----------------------------|
|-0--0--0--0--0--0-----0-0---|
|-0--0--0--0--0--0-----0-0---|


  PM|   PM|    PM-------|       PM----------|
  S S E S S E. S. S. S. S. E.   S. S. S. S. S. Q
|-----------------------------|---------------------|
|-----------------------------|---------------------|
|-----------------------------|---------------------|
|-----------------------------|---------------------|
|-0-0---0-0----0--0--0--0-----|-0--0--0--0--0-------|
|-0-0---0-0----0--0--0--0-----|-0--0--0--0--0-------|


  TP TP TP TP TP TP TP TP TP TP
  Q. Q. H. H. H. Q. Q. H. H. H.  W..
|---------------------------------------|
|---------------------------------------|
|---------------------------------------|
|---------------------------------------|
|-------5-----5--------5-----5---0------|
|-1--0-----1-----1--0-----1------0------|


  Wx8
|--------|
|--------|
|--------|
|--------|
|--------|
|--------|


    Q=140
    Gtr I
     E  E  E  E  E  E  E  E    E  E  E  E  E  E  E  E  E  E  E  E
||--------------------------|-------------------------------------|
||o-------------------------|-------------------------------------|
||--10-10-10-10-10-10-10-10-|-10-10-10-10-10-10-10-10-14-14-14-14-|
||--------------------------|-------------------------------------|
||o--8--8--8--8--8--8--8--8-|--8--8--8--8--8--8--8--8-12-12-12-12-|
||--------------------------|-------------------------------------|
|
|   Gtr II
|    E  E  E  E  E  E  E  E    E  E  E  E  E  E  E  E  E  E  E  E
||--------------------------|-------------------------------------|
||o-------------------------|-------------------------------------|
||--------------------------|-------------------------------------|
||---0--0--0--0--0--0--0--0-|--0--0--0--0--0--0--0--0--3--3--3--3-|
||o--0--0--0--0--0--0--0--0-|--0--0--0--0--0--0--0--0--3--3--3--3-|
||---0--0--0--0--0--0--0--0-|--0--0--0--0--0--0--0--0--3--3--3--3-|


   E  E  E  E  E  E  E  E  E  E  E  E
|-------------------------------------|
|-------------------------------------|
|-14-14-14-14-14-14-14-14-14-14-14-14-|
|-------------------------------------|
|-12-12-12-12-12-12-12-12-12-12-12-12-|
|-------------------------------------|
|
|  E  E  E  E  E  E  E  E  E  E  E  E
|-------------------------------------|
|-------------------------------------|
|-------------------------------------|
|--3--3--3--3--3--3--3--3--3--3--3--3-|
|--3--3--3--3--3--3--3--3--3--3--3--3-|
|--3--3--3--3--3--3--3--3--3--3--3--3-|


   E  E  E  E  E  E  E  E
|-------------------------|
|-------------------------|
|-12-12-12-12-12-12-12-12-|
|-------------------------|
|-10-10-10-10-10-10-10-10-|
|-------------------------|
|
|  E  E  E  E  E  E  E  E
|-------------------------|
|-------------------------|
|-------------------------|
|--8--8--8--8--8--8--8--8-|
|--8--8--8--8--8--8--8--8-|
|--8--8--8--8--8--8--8--8-|


   E  E  E  E  E  E  E  E E E E E E E E E E E E E E E E E
|----------------------------------------------------------||--|
|---------------------------------------------------------o||--|
|-12-12-12-12-12-12-12-12-9-9-9-9-9-9-9-9-9-9-9-9-9-9-9-9--||--|
|----------------------------------------------------------||--|
|-10-10-10-10-10-10-10-10-7-7-7-7-7-7-7-7-7-7-7-7-7-7-7-7-o||--|
|----------------------------------------------------------||--|
|
|  E  E  E  E  E  E  E  E E E E E E E E E E E E E E E E E
|----------------------------------------------------------||--|
|---------------------------------------------------------o||--|
|----------------------------------------------------------||--|
|--8--8--8--8--8--8--8--8-5-5-5-5-5-5-5-5-5-5-5-5-5-5-5-5--||--|
|--8--8--8--8--8--8--8--8-5-5-5-5-5-5-5-5-5-5-5-5-5-5-5-5-o||--|
|--8--8--8--8--8--8--8--8-5-5-5-5-5-5-5-5-5-5-5-5-5-5-5-5--||--|


  Q=190
   W..              E
|---------------------|----------|----------|
|---------------------|----------|----------|
|-10------------------|----------|----------|
|---------------------|----------|----------|
|--8------------------|----------|----------|
|---------------------|----------|----------|
|
|  W..
|---------------------|----------|----------|
|---------------------|----------|----------|
|---------------------|----------|----------|
|--0------------------|----------|----------|
|--0------------------|----------|----------|
|--0------------------|----------|----------|


|---------|---------|----------|----|
|---------|---------|----------|----|
|---------|---------|----------|----|
|---------|---------|----------|----|
|---------|---------|----------|----|
|---------|---------|----------|----|
|
|---------|---------|----------|----|
|---------|---------|----------|----|
|---------|---------|----------|----|
|---------|---------|----------|----|
|---------|---------|----------|----|
|---------|---------|----------|----|


  Gtr I
   Q   E  Q   Q   Q     Q   Q   E  E  E  Q     E  E  E  E  E  E  Q
|--------------------|----------------------|-----------------------|
|--------------------|----------------------|-----------------------|
|-10--10-10--10--10--|-10--10--10-10-10-14--|-14-14-14-14-14-14-12--|
|--------------------|----------------------|-----------------------|
|--8---8--8---8---8--|--8---8---8--8--8-12--|-12-12-12-12-12-12-10--|
|--------------------|----------------------|-----------------------|
|
| Gtr II
|  Q   E  Q   Q   Q     Q   Q   E  E  E  Q     E  E  E  E  E  E  Q
|--------------------|----------------------|-----------------------|
|--------------------|----------------------|-----------------------|
|--------------------|----------------------|-----------------------|
|-10--10-10--10--10--|-10--10--10-10-10--3--|--3--3--3--3--3--3-10--|
|--8---8--8---8---8--|--8---8---8--8--8--3--|--3--3--3--3--3--3-10--|
|--8---8--8---8---8--|--8---8---8--8--8--3--|--3--3--3--3--3--3-10--|


   E  E  E  E  E  E  Q     E  Q   Q   Q   Q     Q   E  E  E
|-----------------------|--------------------|---------------|
|-----------------------|--------------------|---------------|
|-12-12-12-12-12-12-10--|-10-10--10--10--10--|-10--10-10-10--|
|-----------------------|--------------------|---------------|
|-10-10-10-10-10-10--8--|--8--8---8---8---8--|--8---8--8--8--|
|-----------------------|--------------------|---------------|
|
|  E  E  E  E  E  E  Q     E  Q   Q   Q   Q     Q   E  E  E
|-----------------------|--------------------|---------------|
|-----------------------|--------------------|---------------|
|-----------------------|--------------------|---------------|
|-10-10-10-10-10-10-10--|-10-10--10--10--10--|-10--10-10-10--|
|-10-10-10-10-10-10--8--|--8--8---8---8---8--|--8---8--8--8--|
|-10-10-10-10-10-10--8--|--8--8---8---8---8--|--8---8--8--8--|


  Gtr I
   Q  E  E  E  E  E  E  E    E  E  E  E  E  E  E
|-------------------------|-----------------------|----|
|-------------------------|-----------------------|----|
|-12-12-12-12-12-12-12-12-|-12-12-12-12-12-12-12--|----|
|-------------------------|-----------------------|----|
|-10-10-10-10-10-10-10-10-|-10-10-10-10-10-10-10--|----|
|-------------------------|-----------------------|----|
|
| Gtr II
|  Q  E  E  E  E  E  E  E    E  E  E  E  E  E  E
|-------------------------|-----------------------|----|
|-------------------------|-----------------------|----|
|-------------------------|-----------------------|----|
|-10-10-10-10-10-10-10-10-|-10-10-10-10-10-10-10--|----|
|-10-10-10-10-10-10-10-10-|-10-10-10-10-10-10-10--|----|
|-10-10-10-10-10-10-10-10-|-10-10-10-10-10-10-10--|----|


  Gtr I
   Q   E  Q   Q   Q     Q   Q   E  E  E  Q     E  E  E  E  E  E  Q
|--------------------|----------------------|-----------------------|
|--------------------|----------------------|-----------------------|
|-10--10-10--10--10--|-10--10--10-10-10-14--|-14-14-14-14-14-14-12--|
|--------------------|----------------------|-----------------------|
|--8---8--8---8---8--|--8---8---8--8--8-12--|-12-12-12-12-12-12-10--|
|--------------------|----------------------|-----------------------|
|
| Gtr II
|  Q   E  Q   Q   Q     Q   Q   E  E  E  Q     E  E  E  E  E  E  Q
|--------------------|----------------------|-----------------------|
|--------------------|----------------------|-----------------------|
|--------------------|----------------------|-----------------------|
|-10--10-10--10--10--|-10--10--10-10-10--3--|--3--3--3--3--3--3-10--|
|--8---8--8---8---8--|--8---8---8--8--8--3--|--3--3--3--3--3--3-10--|
|--8---8--8---8---8--|--8---8---8--8--8--3--|--3--3--3--3--3--3-10--|


   E  E  E  E  E  E  Q     E  Q   Q   Q   Q     Q   E  E  E
|-----------------------|--------------------|---------------|
|-----------------------|--------------------|---------------|
|-12-12-12-12-12-12-10--|-10-10--10--10--10--|-10--10-10-10--|
|-----------------------|--------------------|---------------|
|-10-10-10-10-10-10--8--|--8--8---8---8---8--|--8---8--8--8--|
|-----------------------|--------------------|---------------|
|
|  E  E  E  E  E  E  Q     E  Q   Q   Q   Q     Q   E  E  E
|-----------------------|--------------------|---------------|
|-----------------------|--------------------|---------------|
|-----------------------|--------------------|---------------|
|-10-10-10-10-10-10-10--|-10-10--10--10--10--|-10--10-10-10--|
|-10-10-10-10-10-10--8--|--8--8---8---8---8--|--8---8--8--8--|
|-10-10-10-10-10-10--8--|--8--8---8---8---8--|--8---8--8--8--|


  Gtr I
   Q   E  E  E  E  E  E    E  E  E  E  E  E  E  E  E
|-----------------------|-------------------------------|
|-----------------------|-------------------------------|
|-12--12-12-12-12-12-12-|-12-12-12-12-12-12-12-12-12----|
|-----------------------|-------------------------------|
|-10--10-10-10-10-10-10-|-10-10-10-10-10-10-10-10-10----|
|-----------------------|-------------------------------|
|
| Gtr II
|  Q   E  E  E  E  E  E    E  E  E  E  E  E  E  E  E
|-----------------------|-------------------------------|
|-----------------------|-------------------------------|
|-----------------------|-------------------------------|
|-10--10-10-10-10-10-10-|-10-10-10-10-10-10-10-10-10----|
|-10--10-10-10-10-10-10-|-10-10-10-10-10-10-10-10-10----|
|-10--10-10-10-10-10-10-|-10-10-10-10-10-10-10-10-10----|


  PM|                       PM    PM|
  E E E E E E E E E E E E E E E.. E E E E E E E E Q  Q   Q Q
|---------------------------------------------------------------|
|-----4-4-4-4-4-4-4-4-4-4-4-----------4-4-4-4-4-4---------------|
|-----7-7-7-7-7-7-7-7-7-7-7-----------7-7-7-7-7-7---------------|
|---------------------------------------------------------------|
|-0-0-----------------------0-----0-0-------------3-12--12\3----|
|-0-0-----------------------0-----0-0-------------3s12--12s3----|


  PM|                       PM    PM|
  E E E E E E E E E E E E E E E.. E E E E E E E E E E E E E Q.
|-----------------------------------------------------------------|
|-----4-4-4-4-4-4-4-4-4-4-4-----------4-4-4-4-4-4-4-4-4-4-4-------|
|-----7-7-7-7-7-7-7-7-7-7-7-----------7-7-7-7-7-7-7-7-7-7-7-------|
|-----------------------------------------------------------------|
|-0-0-----------------------0-----0-0-----------------------------|
|-0-0-----------------------0-----0-0-----------------------------|


    PM|                                  PM    PM|
    E E  E  E  E  E  E  E  E  E  E  E  E E E.. E E  E  E  E  E  E  E Q  Q   Q Q
||-------------------------------------------------------------------------------||
||o-----16-16-16-16-16-16-16-16-16-16-16-----------16-16-16-16-16-16------------o||
||------19-19-19-19-19-19-19-19-19-19-19-----------19-19-19-19-19-19-------------||
||-------------------------------------------------------------------------------||
||o-0-0----------------------------------0-----0-0-------------------3-12--12-3-o||
||--0-0----------------------------------0-----0-0-------------------3s12--12s3--||


|----|
|----|
|----|
|----|
|----|
|----|


Duration Legend
---------------
W - whole; H - half; Q - quarter; E - 8th; S - 16th; T - 32nd; X - 64th; a - acciaccatura
+ - note tied to previous; . - note dotted; .. - note double dotted
Uncapitalized letters represent notes that are staccato (1/2 duration)
Irregular groupings are notated above the duration line
Duration letters will always appear directly above the note/fret number it represents the
duration for.  Duration letters with no fret number below them represent rests.  Multi-
bar rests are notated in the form Wxn, where n is the number of bars to rest for.  Low
melody durations appear below the staff


***************************************************************************************
* Generated using Power Tab Editor by Brad Larsen - http://powertab.guitarnetwork.org *
***************************************************************************************
comments
print report bad tab
11 comments total. Showing first comments.
+3 reply
4YSftwATLftw wrote on December 3 2008, 09:56 pm

Ooooooooooooooooooooooooooooooooooooooooooooooooooooooooooh.

When I saw this tab I thought it was going to be a not-so-great guitarist that happened to be an Attack Attack junkie making it. But this is pro, wow I love it. Thanks!

+2 reply
Dark_Raven10 wrote on December 6 2008, 02:52 pm

Dude you have GOT to do more of these. This is so freakin GREAT!!!!

+2 reply
PersonIsTommy wrote on January 4 2009, 05:01 pm

very nice tab..

if you know of the band for all we know..you should see if u can tabs ome of their songs that would be great.

5 stars.

I want to post or [tab]
guest
You may want to rate the tab now too:
select rating
Please do not post tabs as comments. Select "correction" instead!