Oops, an error
Loading. Please wait.

The Motivation Tab

4,144 views 12 this week
no commentswrite comment
1 2 3 4 5
excellent!
x 2
Autoscroll
+/-
esc
set tempo
stop
Contributor
Difficulty
intermediate
WARNING: You are trying to view
                                    content from Ultimate-Guitar.com
                                    in an unauthorized application,
                                    which is prohibited.

                                    Please use an official Ultimate
                                    Guitar Tabs application for iPhone,
                                    iPad or Android to access legitimate
                                    chords, guitar, bass, and drum tabs
                                    from Ultimate-Guitar.com database.

                                    Type "ultimate guitar tabs" in Apple
                                    App Store's or Android Market's
                                    search to find the application.
                                The Motivation
                                Attack Attack!
                                This Means War



Tuning: Drop G (GDGCEA)

Intro/Refrain

  S S S S S S S S  E  E   E  E
A|---------------------------------|
E|---------------------------------|
C|---------------------------------|
G|------------------12-------------|
D|-------------------------13--9b--|
G|--0-0---0-0-0-0-0-----0----------|


  E  S S S S S S S S S S S S S S
---------------------------------|
---------------------------------|
---------------------------------|
---------------------------------|
--L------------------------------|
-----0-0-0---0---0-0-0-0-0---0---|


  S S S S S S S S  E  E  E  E
--------------------------------|
--------------------------------|
--------------------------------|
--------------------------------|
--------------------------------|
--0-0---0-0-0-0-0-10--0--9--3b--|


  E  S S S S S S S S S S  E   E
---------------------------------|
---------------------------------|
---------------------------------|
---------------------------------|
---------------------------------|
--L--0-0-0---0---0-0-0-0-12~--0--|


  S S S S S S S S  E  E   E  E
---------------------------------|
---------------------------------|
---------------------------------|
------------------12-------------|
-------------------------13--9b--|
--0-0---0-0-0-0-0-----0----------|


  E  S S S S S S S S S S S S S S
---------------------------------|
---------------------------------|
---------------------------------|
---------------------------------|
--L------------------------------|
-----0-0-0---0---0-0-0-0-0---0---|


  S S S S S S S S  E  E  E  E
--------------------------------|
--------------------------------|
--------------------------------|
--------------------------------|
--------------------------------|
--0-0---0-0-0-0-0-10--0--9--3b--|


  E  S S S S S S S S S S  Q
--------------------------------|
--------------------------------|
--------------------------------|
--------------------------------|
--------------------------------|
--L--0-0-0---0---0-0-0-0-12~----|

Verse 1

  E  S E  S Q    S S S S S S
-----------------------------|
-----------------------------|
-----------------------------|
--5--5-5--5-5----5-5-5-5-5-5-|
--5--5-5--5-5----5-5-5-5-5-5-|
--5--5-5--5-5----5-5-5-5-5-5-|


  E  S E  S Q    S S S S S S
-----------------------------|
-----------------------------|
-----------------------------|
--8--8-8--8-8----8-8-8-8-8-8-|
--8--8-8--8-8----8-8-8-8-8-8-|
--8--8-8--8-8----8-8-8-8-8-8-|


  E  S E  S Q    S S S S S S
-----------------------------|
-----------------------------|
-----------------------------|
--3--3-3--3-3----3-3-3-3-3-3-|
--3--3-3--3-3----3-3-3-3-3-3-|
--3--3-3--3-3----3-3-3-3-3-3-|


  E  S E  S Q    S S S S S S
-----------------------------|
-----------------------------|
-----------------------------|
--2--2-2--2-2----2-2-2-2-2-2-|
--3--3-3--3-3----3-3-3-3-3-3-|
--2--2-2--2-2----2-2-2-2-2-2-|


  E  S E  S Q    S S S S S S
-----------------------------|
-----------------------------|
-----------------------------|
--5--5-5--5-5----5-5-5-5-5-5-|
--5--5-5--5-5----5-5-5-5-5-5-|
--5--5-5--5-5----5-5-5-5-5-5-|


  E  S E  S Q    S S S S S S
-----------------------------|
-----------------------------|
-----------------------------|
--8--8-8--8-8----8-8-8-8-8-8-|
--8--8-8--8-8----8-8-8-8-8-8-|
--8--8-8--8-8----8-8-8-8-8-8-|


  E  S E  S Q    S S S S S S
-----------------------------|
-----------------------------|
-----------------------------|
--0--0-0--0-0----0-0-0-0-0-0-|
--0--0-0--0-0----0-0-0-0-0-0-|
--0--0-0--0-0----0-0-0-0-0-0-|


  E  S E  S Q    S S S S S S
-----------------------------|
-----------------------------|
-----------------------------|
--0--0-0--0-0----0-0-0-0-0-0-|
--0--0-0--0-0----0-0-0-0-0-0-|
--0--0-0--0-0----0-0-0-0-0-0-|


  E.  E.  Q    E  E  E
------------------------|
------------------------|
------------------------|
--5---5---5----5--5--5--|
--5---5---5----5--5--5--|
--5---5---5----5--5--5--|


  E.  E.  Q    E  E  E
------------------------|
------------------------|
------------------------|
--8---8---8----8--8--8--|
--8---8---8----8--8--8--|
--8---8---8----8--8--8--|


  E.  E.  Q    E  E  E
------------------------|
------------------------|
------------------------|
--3---3---3----3--3--3--|
--3---3---3----3--3--3--|
--3---3---3----3--3--3--|


  E.  E.  Q    E  E  E
------------------------|
------------------------|
------------------------|
--2---2---2----2--2--2--|
--3---3---3----3--3--3--|
--2---2---2----2--2--2--|


  E.  E.  Q    E  E  E
------------------------|
------------------------|
------------------------|
--5---5---5----5--5--5--|
--5---5---5----5--5--5--|
--5---5---5----5--5--5--|


  E.  E.  Q    E  E  E
------------------------|
------------------------|
------------------------|
--8---8---8----8--8--8--|
--8---8---8----8--8--8--|
--8---8---8----8--8--8--|


  E.  E.  Q    E  E  E
------------------------|
------------------------|
------------------------|
--0---0---0----0--0--0--|
--0---0---0----0--0--0--|
--0---0---0----0--0--0--|


  E.  E.  Q    E  E  E
------------------------|
------------------------|
------------------------|
--0---0---0----0--0--0--|
--0---0---0----0--0--0--|
--0---0---0----0--0--0--|

Bridge (No guitars)

Chorus


  E  E  E  E  E  E  E  E
--------------------------|
--------------------------|
--7--7--7--7--7--7--7--7--|
--7--7--7--7--7--7--7--7--|
--5--5--5--5--5--5--5--5--|
--------------------------|


  E  E  E  E  E  E  E  E
--------------------------|
--------------------------|
--------------------------|
--5--5--5--5--5--5--5--5--|
--5--5--5--5--5--5--5--5--|
--5--5--5--5--5--5--5--3--|


  E  E  E  E  E  E  E  E
--------------------------|
--------------------------|
--------------------------|
--8--8--8--8--8--8--8--8--|
--8--8--8--8--8--8--8--8--|
--8--8--8--8--8--8--8--8--|


  E  E  E  E  E  E  E  E
--------------------------|
--------------------------|
--------------------------|
--8--8--8--8--8--8--8--8--|
--8--8--8--8--8--8--8--8--|
--8--8--8--8--8--8--8--8--|


  E  E  E  E  E  E  E  E
--------------------------|
--------------------------|
--7--7--7--7--7--7--7--7--|
--7--7--7--7--7--7--7--7--|
--5--5--5--5--5--5--5--5--|
--------------------------|


  E  E  E  E  E  E  E  E
--------------------------|
--------------------------|
--------------------------|
--5--5--5--5--5--5--5--5--|
--5--5--5--5--5--5--5--5--|
--5--5--5--5--5--5--5--5--|


  E  E  E  E  E  E  E  E
--------------------------|
--------------------------|
--------------------------|
--3--3--3--3--3--3--3--3--|
--3--3--3--3--3--3--3--3--|
--3--3--3--3--3--3--3--3--|


  E  E  E  E  E  E  E  E
--------------------------|
--------------------------|
--------------------------|
--3--3--3--3--3--3--3--3--|
--3--3--3--3--3--3--3--3--|
--3--3--3--3--3--3--3--3--|


Refrain

  S S S S S S S S  E   E   E  E
----------------------------------|
----------------------------------|
----------------------------------|
------------------12b-------------|
--------------------------13--9b--|
--0-0---0-0-0-0-0------0----------|


  E  S S S S S S S S S S S S S S
---------------------------------|
---------------------------------|
---------------------------------|
---------------------------------|
--L------------------------------|
-----0-0-0---0---0-0-0-0-0---0---|


                              PH
  S S S S S S S S  E  E  E    E
----------------------------------|
----------------------------------|
----------------------------------|
----------------------------------|
----------------------------------|
--0-0---0-0-0-0-0-10--0--9--<>3b--|


  E  S S S S S S S S S S   S   S  S  S
---------------------------------------|
---------------------------------------|
---------------------------------------|
---------------------------------------|
---------------------------------------|
--L--0-0-0---0---0-0-0-0h-12~-12-12-12-|

Verse 2

  E.  E  S H        E
-----------------------|
-----------8--------L--|
-----------7--------L--|
-----------------------|
--5---5--5-------------|
--5---5--5-------------|


  E.  E  S H        E
-----------------------|
-----------8--------L--|
-----------7--------L--|
-----------------------|
--8---8--8-------------|
--8---8--8-------------|


  E.  E  S H        E
-----------------------|
-----------8--------L--|
-----------7--------L--|
-----------------------|
--3---3--3-------------|
--3---3--3-------------|


  E.  E  S H        E
-----------------------|
-----------8--------L--|
-----------7--------L--|
-----------------------|
--3---3--3-------------|
--2---2--2-------------|


  E.  E  S H        E
-----------------------|
-----------8--------L--|
-----------7--------L--|
-----------------------|
--5---5--5-------------|
--5---5--5-------------|


  E.  E  S H        E
-----------------------|
-----------8--------L--|
-----------7--------L--|
-----------------------|
--8---8--8-------------|
--8---8--8-------------|


  E.  E  S H        E
-----------------------|
-----------8--------L--|
-----------7--------L--|
-----------------------|
--0---0--0-------------|
--0---0--0-------------|


  E.  E  S H        E
-----------------------|
-----------8--------L--|
-----------7--------L--|
-----------------------|
--0---0--0-------------|
--0---0--0-------------|


  E.  E.  Q    E  E  E
------------------------|
------------------------|
------------------------|
--5---5---5----5--5--5--|
--5---5---5----5--5--5--|
--5---5---5----5--5--5--|


  E.  E.  Q    E  E  E
------------------------|
------------------------|
------------------------|
--8---8---8----8--8--8--|
--8---8---8----8--8--8--|
--8---8---8----8--8--8--|


  E.  E.  Q    E  E  E
------------------------|
------------------------|
------------------------|
--3---3---3----3--3--3--|
--3---3---3----3--3--3--|
--3---3---3----3--3--3--|


  E.  E.  Q    E  E  E
------------------------|
------------------------|
------------------------|
--5---5---5----5--5--5--|
--3---3---3----3--3--3--|
--2---2---2----2--2--2--|


  E.  E.  Q    E  E  E
------------------------|
------------------------|
------------------------|
--5---5---5----5--5--5--|
--5---5---5----5--5--5--|
--5---5---5----5--5--5--|


  E.  E.  Q    E  E  E
------------------------|
------------------------|
------------------------|
--8---8---8----8--8--8--|
--8---8---8----8--8--8--|
--8---8---8----8--8--8--|


  E.  E.  Q    E  E  E
------------------------|
------------------------|
------------------------|
--0---0---0----0--0--0--|
--0---0---0----0--0--0--|
--0---0---0----0--0--0--|


  E.  E.  Q    E  E  E
------------------------|
------------------------|
------------------------|
--0---0---0----0--0--0--|
--0---0---0----0--0--0--|
--0---0---0----0--0--0--|

Bridge (no guitars)

Chorus

  E  E  E  E  E  E  E  E
--------------------------|
--------------------------|
--7--7--7--7--7--7--7--7--|
--7--7--7--7--7--7--7--7--|
--5--5--5--5--5--5--5--5--|
--------------------------|


  E  E  E  E  E  E  E  E
--------------------------|
--------------------------|
--------------------------|
--5--5--5--5--5--5--5--5--|
--5--5--5--5--5--5--5--5--|
--5--5--5--5--5--5--5--5--|


  E  E  E  E  E  E  E  E
--------------------------|
--------------------------|
--------------------------|
--8--8--8--8--8--8--8--8--|
--8--8--8--8--8--8--8--8--|
--8--8--8--8--8--8--8--8--|


  E  E  E  E  E  E  E  E
--------------------------|
--------------------------|
--------------------------|
--8--8--8--8--8--8--8--8--|
--8--8--8--8--8--8--8--8--|
--8--8--8--8--8--8--8--8--|


  E  E  E  E  E  E  E  E
--------------------------|
--------------------------|
--7--7--7--7--7--7--7--7--|
--7--7--7--7--7--7--7--7--|
--5--5--5--5--5--5--5--5--|
--------------------------|


  E  E  E  E  E  E  E  E
--------------------------|
--------------------------|
--------------------------|
--5--5--5--5--5--5--5--5--|
--5--5--5--5--5--5--5--5--|
--5--5--5--5--5--5--5--5--|


  E  E  E  E  E  E  E  E
--------------------------|
--------------------------|
--------------------------|
--3--3--3--3--3--3--3--3--|
--3--3--3--3--3--3--3--3--|
--3--3--3--3--3--3--3--3--|


  E  E  E  E  E  E  E  E
--------------------------|
--------------------------|
--------------------------|
--5--5--5--5--5--5--5--5--|
--5--5--5--5--5--5--5--5--|
--5--5--5--5--5--5--5--5--|


  E  E  E  E  E  E  E  E
--------------------------|
--------------------------|
--7--7--7--7--7--7--7--7--|
--7--7--7--7--7--7--7--7--|
--5--5--5--5--5--5--5--5--|
--------------------------|


  E  E  E  E  E  E  E  E
--------------------------|
--------------------------|
--------------------------|
--5--5--5--5--5--5--5--5--|
--5--5--5--5--5--5--5--5--|
--5--5--5--5--5--5--5--5--|


  E  E  E  E  E  E  E  E
--------------------------|
--------------------------|
--------------------------|
--8--8--8--8--8--8--8--8--|
--8--8--8--8--8--8--8--8--|
--8--8--8--8--8--8--8--8--|


  E  E  E  E  E  E  E  E
--------------------------|
--------------------------|
--------------------------|
--8--8--8--8--8--8--8--8--|
--8--8--8--8--8--8--8--8--|
--8--8--8--8--8--8--8--8--|


  E  E  E  E  E  E  E  E
--------------------------|
--------------------------|
--7--7--7--7--7--7--7--7--|
--7--7--7--7--7--7--7--7--|
--5--5--5--5--5--5--5--5--|
--------------------------|


  E  E  E  E  E  E  E  E
--------------------------|
--------------------------|
--------------------------|
--5--5--5--5--5--5--5--5--|
--5--5--5--5--5--5--5--5--|
--5--5--5--5--5--5--5--5--|


  E  E  E  E  E  E  E  E
--------------------------|
--------------------------|
--------------------------|
--3--3--3--3--3--3--3--3--|
--3--3--3--3--3--3--3--3--|
--3--3--3--3--3--3--3--3--|


  E  E  E  E  E  E  E  E
--------------------------|
--------------------------|
--------------------------|
--5--5--5--5--5--5--5--5--|
--5--5--5--5--5--5--5--5--|
--5--5--5--5--5--5--5--5--|

Breakdown

  PM PM PM PM    PM PM PM PM
  T  T  T  T  E  T  T  T  T  Q    Q.
----------------------------------------|
----------------------------------------|
----------------------------------------|
--0--0--0--0-----0--0--0--0-------------|
--0--0--0--0-----0--0--0--0-------------|
--0--0--0--0-----0--0--0--0-------------|


  W
-------------------|
-------------------|
-------------------|
-------------------|
-------------------|
-------------------|


  PM PM PM PM    PM PM PM PM
  T  T  T  T  E  T  T  T  T  Q    Q.
----------------------------------------|
----------------------------------------|
----------------------------------------|
--0--0--0--0-----0--0--0--0-------------|
--0--0--0--0-----0--0--0--0-------------|
--0--0--0--0-----0--0--0--0-------------|


  W
-------------------|
-------------------|
-------------------|
-------------------|
-------------------|
-------------------|


  T T T T E  T T T T E  H
---------------------------------|
---------------------------------|
---------------------------------|
--0-0-0-0----0-0-0-0----0--------|
--0-0-0-0----0-0-0-0----0--------|
--0-0-0-0----0-0-0-0----0--------|


  W
-------------------|
-------------------|
-------------------|
--L----------------|
--L----------------|
--L----------------|


  PM PM PM PM    PM PM PM PM    PM PM PM
  T  T  T  T  E  T  T  T  T  E  T  T  T
----------------------------------------|
----------------------------------------|
----------------------------------------|
--0--0--0--0-----0--0--0--0-----0--0--0-|
--0--0--0--0-----0--0--0--0-----0--0--0-|
--0--0--0--0-----0--0--0--0-----0--0--0-|


  PM
  E  H        Q.
---------------------|
---------------------|
---------------------|
--0------------------|
--0------------------|
--0------------------|


                        PM PM PM
  T T T T E  T T T T E  S  S  S  E  E  S
-----------------------------------------|
-----------------------------------------|
-----------------------------------------|
--0-0-0-0----0-0-0-0---------------------|
--0-0-0-0----0-0-0-0---------------------|
--0-0-0-0----0-0-0-0----0--0--0--0--0--0-|


    PM                       PM
  S S   S  S  S   S   S   S  S   S  S  S
-----------------------------------------|
-----------------------------------------|
-----------------------------------------|
-----------------------------------------|
-----------------------------------------|
--L-0--12-12-12b-12b-12b-12b-0--12-12-12-|


                        PM PM PM
  T T T T E  T T T T E  S  S  S  E  E  S
-----------------------------------------|
-----------------------------------------|
-----------------------------------------|
--0-0-0-0----0-0-0-0---------------------|
--0-0-0-0----0-0-0-0---------------------|
--0-0-0-0----0-0-0-0----0--0--0--0--0--0-|


  S S S S S  S  S  S  S S S S  S  S  S
----------------------------------------|
----------------------------------------|
----------------------------------------|
----------------------------------------|
----------------------------------------|
--L-0-1-1-1b-1b-1b-1b-0-1-1-1b-1b-1b-1b-|


                        PM PM PM PM PM P
  T T T T E  T T T T E  S  S  S  E  E  S
-----------------------------------------|
-----------------------------------------|
-----------------------------------------|
--0-0-0-0----0-0-0-0----0--0--0--0--0--0-|
--0-0-0-0----0-0-0-0----0--0--0--0--0--0-|
--0-0-0-0----0-0-0-0----0--0--0--0--0--0-|


  W
-------------------|
-------------------|
-------------------|
-------------------|
-------------------|
-------------------|


                        PM PM PM PM PM P
  T T T T E  T T T T E  S  S  S  E  E  S
-----------------------------------------|
-----------------------------------------|
-----------------------------------------|
--0-0-0-0----0-0-0-0----0--0--0--0--0--0-|
--0-0-0-0----0-0-0-0----0--0--0--0--0--0-|
--0-0-0-0----0-0-0-0----0--0--0--0--0--0-|


  W
-------------------|
-------------------|
-------------------|
-------------------|
-------------------|
-------------------|


                        PM PM PM
  T T T T E  T T T T E  S  S  S  E  E  S
-----------------------------------------|
-----------------------------------------|
-----------------------------------------|
--0-0-0-0----0-0-0-0---------------------|
--0-0-0-0----0-0-0-0---------------------|
--0-0-0-0----0-0-0-0----0--0--0--0--0--0-|


    PM                       PM
  S S   S  S  S   S   S   S  S   S  S  S
-----------------------------------------|
-----------------------------------------|
-----------------------------------------|
-----------------------------------------|
-----------------------------------------|
--L-0--12-12-12b-12b-12b-12b-0--12-12-12-|


                        PM PM PM
  T T T T E  T T T T E  S  S  S  E  E  S
-----------------------------------------|
-----------------------------------------|
-----------------------------------------|
--0-0-0-0----0-0-0-0---------------------|
--0-0-0-0----0-0-0-0---------------------|
--0-0-0-0----0-0-0-0----0--0--0--0--0--0-|


  S S S S S  S  S  S  S S S S  S  S  S
----------------------------------------|
----------------------------------------|
----------------------------------------|
----------------------------------------|
----------------------------------------|
--L-0-1-1-1b-1b-1b-1b-0-1-1-1b-1b-1b-1b-|


                        PM PM PM PM PM P
  T T T T E  T T T T E  S  S  S  E  E  S
-----------------------------------------|
-----------------------------------------|
-----------------------------------------|
--0-0-0-0----0-0-0-0----0--0--0--0--0--0-|
--0-0-0-0----0-0-0-0----0--0--0--0--0--0-|
--0-0-0-0----0-0-0-0----0--0--0--0--0--0-|


  W
-------------------|
-------------------|
-------------------|
-------------------|
-------------------|
-------------------|


                        PM PM PM PM PM P
  T T T T E  T T T T E  S  S  S  E  E  S
-----------------------------------------|
-----------------------------------------|
-----------------------------------------|
--0-0-0-0----0-0-0-0----0--0--0--0--0--0-|
--0-0-0-0----0-0-0-0----0--0--0--0--0--0-|
--0-0-0-0----0-0-0-0----0--0--0--0--0--0-|





Duration Legend
---------------
W - whole
H - half
Q - quarter
E - 8th
S - 16th
T - 32nd
X - 64th
. - note dotted
|-n-|  - n-tuplets


Tablature Legend
----------------
L - tied note
x - dead note
g - grace note
(n) - ghost note
> - accentuded note
NH - natural harmonic
AH - artificial harmonic
TH - tapped harmonic
SH - semi harmonic
PH - pitch harmonic
h - hammer on
p - pull off
b - bend
br - bendRelease
pb - preBend
pbr - preBendRelease
brb - bendReleaseBend
\n/ - tremolo bar dip
\n - tremolo bar dive
-/n - tremolo bar Release up
/n\ - tremolo bar inverted dip
/n - tremolo bar return
-\n - tremolo bar Release down
S - shift slide
s - legato slide
/ -  slide into from below or out of upwards
\ -  slide into from above or out of downwards
~ - vibrato
W - wide vibrato
tr - trill
TP - tremolo picking
T - tapping
S - slap
P - pop
< - fade in
^ - brush up
v - brush down
comments
We did not receive enough feedback on this tab! Please rate:
print report bad tab
1 2 3 4 5
I want to post or [tab]
guest
You may want to rate the tab now too:
select rating
Please do not post tabs as comments. Select "correction" instead!