Oops, an error
Loading. Please wait.

Nasty Mouth Tab

5,490 views 30 this week
no commentswrite comment
1 2 3 4 5
excellent!
x 3
Autoscroll
+/-
esc
set tempo
stop
Contributor
Difficulty
Tuning
intermediate
B F# B E G# C#
WARNING: You are trying to view
                                    content from Ultimate-Guitar.com
                                    in an unauthorized application,
                                    which is prohibited.

                                    Please use an official Ultimate
                                    Guitar Tabs application for iPhone,
                                    iPad or Android to access legitimate
                                    chords, guitar, bass, and drum tabs
                                    from Ultimate-Guitar.com database.

                                    Type "ultimate guitar tabs" in Apple
                                    App Store's or Android Market's
                                    search to find the application.
 So glad to say that I had figured this song out. It's such a sick song! I'm
pretty sure this tab should be pretty accurate. I really hope you enjoy it :)

  Intro/Verse:
Db|-----------------------------------------------------------------------|
G#|-----------------------------------------------------------------------|
 E|------7h8p7\5/7--------------------------------------------------------|
 B|------------------------7h8p7\5/7---6-----------7--------------------5-|
F#|-0000--------------0000-----------8---5----3333-5--6--5--3--5--6-5-3-3-|
 B|-0000------------0-0000-----------------6--3333----6--5--3--5--6-5-3---|
    ....              ....                    ....                . . .
   -----------------------------------------------------------------------|
   -----------------------------------------------8-----------------------|
   -----------------7h8p7\5/7-------------------7---9---------------------|
   -----------------------------------7h8p7\5/7-------7-------7-----------|
   -5--3--0-3--0000--------------0000--------------------3333-5--6--5--3--|
   -5--3--0-3--0000------------0-0000--------------------3333----6--5--3--|
               ....              ....                    ....
   -----------------------------------------------------------------------|
   -----------------------------------------------------------------------|
   -------------------------------7-----------------8--8------------7-----|
   ---------5---------------------7--8--7--8--7--8--8--8--4------4--7--8--|
   5--6-5-3-3--5--3--0-3--1~--4---5--8--7--8--7--8--6--6--4--444-4--5--8--|
   5--6-5-3----5--3--0-3--1~--4------8--7--8--7--8--------4--444-4-----8--|
      . . .                                                  ...
   -----------------------------------------------------------------------|
   -----------------------------------------------------------------------|
   -----------------------------7-----------------8--8------------7-------|
   -7--8--7--8--1--1--4------4--7--8--7--8--7--8--x--x--4------4--7--8--7-|
   -7--8--7--8--1--1--4--444-4--5--8--7--8--7--8--6--6--4--444-4--5--8--7-|
   -7--8--7--8--1--1--4--444-4-----8--7--8--7--8--------4--444-4-----8--7-|
                         ...                               ...
   ------------------------------------------------------------------------|
   ------------------------------------------------------------------------|
   ---------------------------------------------------------------5--------|
   -8--7--8--1--1--4------4/--------------------------------7-6-5-5--5/7-7-|
   -8--7--8--1--1--4--444-4/---8-7-5-0--6-5-3-0-------------5-4-3----3/5-5-|
   -8--7--8--1--1--4--444-4/---8-7-5-0--6-5-3-0--0-0-0-0-0-----------------|
                      ...                        . . .
   -------------------------------------------------------------------------|
   -------------------------------------------------------------------------|
   ---------------7---------------------------------------------------------|
   -7-8888--------7---------------------7-6-5-------------------------------|
   -5-6666--8-7-5---6-5-3-0-------------5-4-3--8-7-6--4444--8-7---6-5-3-----|
   ---------8-7-5---6-5-3-0--0-0-0-0-0---------8-7-6--4444--8-7---6-5-3-----|
                             . . .
   ------------------------------------------------------------------------|
   ------------------------------------------------------------------------|
   ---------------------5----------------------7---------------------------|
   ---------------7-6-5-5--5/7-7-7-8888--------7--------------------7-6-5--|
   -0-------------5-4-3----3/5-5-5-6666--8-7-5---6-5-3-0------------5-4-3--|
   -0--0-0-0-0-0-------------------------8-7-5---6-5-3-0--0-0-0-0-0--------|
       . .   . .                                          . .   . .
   ------------------------------------------------------------------------|
   ------------------------------------------------------------------------|
   ------------------------------------------------------------------------|
   ------------------------------------------------------------------------|
   -8-7-6--4444--111-1-1---111-1-1-1-----1---1-1----1---111--1-1--111-111--|
   -8-7-6--4444--111-1-1---111-1-1-1---1-1---1-1--1-1---111--1-1--111-111--|
                 ... . .   ... . . .     .   . .    .   ...  . .  ... ...
   -------------------------------------------------------------------------|
   -------------------------------------------------------------------------|
   -------------------------------------------------------------------------|
   ----5-4-----------------------------3-----5--6--7-----------5-4----------|
   -0~-----5-3--3-5-3-6-3-5-3-0--3-4-5---5-4-3--4--5---000-0-0-----5-3------|
   -0~----------3-5-3-6-3-5-3-0------------------------000-0-0----------3-5-|
                                                       ... . .
   -------------------------------------------------------------------------|
   -------------------------------------------------------------------------|
   -------------------------------------------------------------------------|
   --------------------3-----5--6-------5-4-----------------------------3---|
   --------------3-4-5---5-4-3--4----0~-----5-3--3-5-3-6-3-5-3-0--3-4-5---5-|
   -3-6-3-5-3-0----------------------0~----------3-5-3-6-3-5-3-0------------|

   ------------------------------------------------------------------|
   ------------------------------------------------------------------|
   ------------------------------------------------------------------|
   ---5--6--7----------5-4----------------------------3-----5--6--7--|
   -4-3--4--5--000-000-----5-3------------------3-4-5---5-4-3--4--5--|
   ------------000-000---------3-5-3-6-3-5-3-0-----------------------|
               ... ...
   |------------------------------------------------------------|(x2)
   |------------------------------------------------------------|
   |------------------------------------------------------------|
   |------------------------------------------------------------|
   |--111-1-1---111-1-1-1-----1---1-1----1---111--1-1--111-111--|
   |--111-1-1---111-1-1-1---1-1---1-1--1-1---111--1-1--111-111--|
      ... . .   ... . . .     .   . .    .   ...  . .  ... ...
   All My Ladies!
   --------------------------------------------------------------------------|
   --------------------------------------------------------------------------|
   --------------------------------------------------------------------------|
   --------------------------------------------------------------------------|
   -000-0--0--0----0-0-0--0-6-5-3-0--0-0-0----000-000--0--0---0-0-0--0-6-5-3-|
   -000-0--0--0----0-0-0--0-6-5-3-0--0-0-0----000-000--0--0---0-0-0--0-6-5-3-|
    ... .  .  .    . . .  . . . . .  . . .    ... ...  .  .   . . .  . . . .
   --------------------------------------------------------------------------|
   --------------------------------------------------------------------------|
   --------------------------------------------------------------------------|
   --------------------------------------------------------------------------|
   -0--0-0-0---000-000--------0-0-0--0-6-5-3-0--0-0-0--------------------0-0-|
   -0--0-0-0---000-000--0-0---0-0-0--0-6-5-3-0--0-0-0---000-000---0--0---0-0-|
    .  . . .   ... ...        . . .  . . . . .  . . .                    . .
   ---------------------|
   ---------------------|
   ---------------------|
   ---------------------|
   -0--0-6-5-3-0--0-0---|
   -0--0-6-5-3-0--0-0-0-|

   (Introx1)

    Horny Chick part XP
   Db|-----------------------------------------------------------------------|
   G#|-----------------------------------------------------------------------|
    E|-----------------------------------------------------------------------|
    B|----------------------------------------0---0--00--00-0----------------|
   F#|-0000---000----0--0000----0000---000----1---1--11--11-1----0000---000--|
    B|-0000---000----0--0000----0000---000-----------------------0000---000--|
       ....   ...    .  ....    ....   ...    .   .  ..  .. .    ....   ...
  ---------------------------------------------------------------------------|
  ---------------------------------------------------------------------------|
  --------------------------------------------77--7------------------8888888-|
  --------------------------0---0--00--00-0---77--788--877--7--88--8-8888888-|
  -0--0000----0000---000----1---1--11--11-1---55--588--877--7--88--8-6666666-|
  -0--0000----0000---000---------------------------88--877--7--88--8---------|
   .  ....    ....   ...    .   .  ..  .. .
  ---------------------------------------------------------------------------|
  ---------------------------------------------------------------------------|
  ---------7777------------7/8888888--------7777-----------------------------|
  ---------77778888777788887/88888884444444477778888777788881111111144444444-|
  -44444---55558888777788885/66666664444444455558888777788881111111144444444-|
  -44444-------888877778888---------44444444----8888777788881111111144444444-|

  Solo:

 Db|--------------------------------------------10------|
 G#|--------------------------------/10-----------------|
  E|-----------------------7-9-7-6------10-9------------|
  B|---------7-6-------7-6-------------------12----11~--|
 F#|-8-5---5-------5-8----------------------------------|
  B|-----7----------------------------------------------|

   -------------------------------------------------------------------|
   -------------------------------------------------------------------|
   -7-----------------8--8------------7-------------------------------|
   -7--8--7--8--7--8--x--x--4-----4---7--8--7--8--7--8--1--1--4-----4-|
   -5--8--7--8--7--8--6--6--4--4444---5--8--7--8--7--8--1--1--4--4444-|
   ----8--7--8--7--8--------4--4444------8--7--8--7--8--1--1--4--4444-|
                               ...                               ...
   |-----------5~----0~-----|
   |-------------6~-----6---|
   |---------------7~-------|
   |----0--000--------------|
   |-0000--000--------------|
   |-0000--000--------------|



    ---------6~----0-------------------0~--------------------|(x2)
    -----------6~----------------6~--------------------------|
    -------------7~----------------7~----7-------------------|
    -------------------------000-----7~------0--0-00--00-0---|
    ----0000-----------000---000-------------1--1-11--11-1---|
    -0--0000-----------0000--000-----------------------------|
        ....           ...   ...             .  . ..  .. .

Db|--------------------------------------------------------------5~----0~---|
G#|----------------------------------------------------------------6~----6--|
 E|------------------------------------------------------------------7~-----|
 B|------------------------------------0--0-00--00-0------0--000------------|
F#|-0000--000----0-0000----0000-000----1--1-11--11-1---0000--000------------|
 B|-0000--000----0-0000----0000-000--------------------0000--000------------|
    ....  ...    . ....    .... ...    .  . ..  .. .   ...   ...

   --------6~----0--------------0~----------------------------|
   ----------6~-----------6~----------------------------------|
   ------------7~-----------7~----7---------------------------|
   ---------------------------7~-------0--0-00--00-0-0~-------|
   -0-0000----------00000--------------1--1-11--11-1-0~-------|
   -0-0000----------000000---------------------------0~-------|
    . ....          .....              .  . ..  .. .

   There you go! Nasty Mouth by Attila :] really hope you enjoyed it and got something 
out of it. Plz rate! Thx
comments
We did not receive enough feedback on this tab! Please rate:
print report bad tab
1 2 3 4 5
I want to post or [tab]
guest
You may want to rate the tab now too:
select rating
Please do not post tabs as comments. Select "correction" instead!