Oops, an error
Loading. Please wait.

Audioslave Bass Tab

ver2
ver2

Album

More versions @911Tabs.com
3,983 views 15 this week
no commentswrite comment
1 2 3 4 5
excellent!
x 2
Autoscroll
+/-
esc
set tempo
stop
Contributor
Difficulty
novice
Hey! There's an official Ultimate Guitar app which is ideal
for learning songs when you're away from computer. Get the app
WARNING: You are trying to view
                                    content from Ultimate-Guitar.com
                                    in an unauthorized application,
                                    which is prohibited.

                                    Please use an official Ultimate
                                    Guitar Tabs application for iPhone,
                                    iPad or Android to access legitimate
                                    chords, guitar, bass, and drum tabs
                                    from Ultimate-Guitar.com database.

                                    Type "ultimate guitar tabs" in Apple
                                    App Store's or Android Market's
                                    search to find the application.
Before You Read on, plz note that this is an album BASS TAB, 
not GUITAR TAB! Just warnin' ya so you don't get pissed at me.

Few things you should know:

-Not All of these tabs are mine!!! The following are not 
My own transcriptions! ( I have given credit to the original tabbers!)

BRING EM BACK ALIVE-----------------------(thedarkwin)
///////////////////
GETAWAY CAR-------------------------------(BassIsMe)
///////////////////
THE LAST REMAINING LIGHT------------------(mayhembass01)
///////////////////
SHADOW ON THE SUN-------------------------(DAN2)
/////////////////// and
WHAT YOU ARE------------------------------(Dyuha)
 
-You will need to tune your bass 4 ways if you wanna play all the 
songs on the album. Below are the songs which have the specific tuning.

-EADG
  :Cochise
  :Like A Stone
  :Hypnotize
  :Exploder
  :Set It Off
  :I Am the Highway  
  :Getaway Car
  :What You Are

-DADG
  :Show Me How To Live
  :Light My Way

-BADG
  :Gasoline
  :The Last Remaining Light
  :Bring Em Back Alive

-BEAD
  :Shadow On The Sun(He tabbed it on a 5-string format but doesn't use
the G string so just tune your bass to BEAD instead of worrying about 
getting a 5-string.
  :The Last Remaining Light

So Really, you're only changing your E-string down 2 or 3 1/2 steps.
(With the exception of Shadow on the Sun, and TLRL)
 If you wanna find out how to easily tune your bass to these tunings, scroll down
to the bottom or use CTRL + F and Type in Snorkle. Then Click Next twice.

Let's Get Started!! First Song!

///////////////////////////////////////////////////////////////////////

1.COCHISE!!!
Tuning: EADG
Equipment: Bass Wah. (You can play without it, but Timmy uses one.)
Tabbed by: AfromonkeyR0X
Tempo: 82 BPM

Intro:
Tom Morello Slap Back Echo Thingy a.k.a. "The Helicopter"

|-----------------------|
|-----------------------|
|--Don't Play Anything--| 2 measures
|-----------------------|

|-----------------------|
|-----------------------|
|-----------------------| Just Keep on hitting that E for a while.
|-0-0-0-0-0-0-0-0-0-0-0-|    I'm not quite sure if he uses the bass wah
                               in this part, many people say he does but I
Main Riff                        doubt it.

|------------------------------|
|-2--------------0/2-----------|
|---5-2-5-2----------5-2-------| w/ Bass Wah  
|-----------3-0----------3-0---|

Verse One: without bass wah
|------------------------------|    |-----------------------|
|-2--------------0h2-----------|    |-2--------------0---1--|
|---5-2-5-2----------5-2-------| x7 |---5-2-5-2-------------|
|-----------3-0----------3-0---|    |-----------3-0---------|

Chorus One:
|------------------------------|
|-0h2-0h2------------------0---|
|-----------------------2------| x4
|----------5-3-0--3--5---------|


Guitar Solo:
|------------------------------|
|-2-------------0h2------------|
|---5-2-5-2---------5-2--------| x4 w/ Bass Wah
|-----------3-0----------3-0---|


Verse Two: Same as Verse One.

Chorus Two: Same as Chorus One.

Bridge: "Drown if you want..."
|--W-BASS-WAH---------|   |---------------------|---------------|
|---------------------|   |-2---2-------2---2---|-2---2----0*---|
|-2---2-------2---2---|x2 |---------------------|---------------|
|---0----0------0---0-|   |---0----0------0---0-|---0----0------|
                                                 *Hold that open D
                                                   for as long as you 
                                                  can until the next 
                                                   Chorus. Hit it Hard.

Chorus Three: Same as Chorus One/Two

Ending: It's the same notes as usual, but I'm tabbing them a string lower
So you can emphasize the slide he does at the end. 
|---------------------|
|---------------------|
|---5h7---5h7///------|
|---------------------| 

END OF COCHISE!

><> ><> ><> ><> ><> ><> ><> ><> ><> ><> ><> ><> ><> ><> ><> ><> ><> ><> ><>

2.SHOW ME HOW TO LIVE
Equipment: None
Tuning: Drop D:DADG
Tabbed By: AfromonkeyR0X
Tempo: 91 BPM

Intro: = Easy (Don't Worry it gets harder...sorta)
|------------------------|
|------------------------|
|-5----------------------| x4
|--------0---------------|


Main Riff:
|----------------------------------------|
|-----2----------------------------------|
|----2--------------0h1-0--0-------------|
|-0-2----0-2---0-2-----------2-2--0-5-2-|

|----------------------------------------|
|-----2----------------------------------|
|----2------------------(Humming)--------| x2 2nd time no humming! ;)
|-0-2----0-2---0-2-----------------------|


Verse One: Main Riff w/o humming and play a little quieter.

Chorus One:
|-----------------------|
|----------------0h2----|
|-----------------------| x8
|-2--5--2p0h2p0------0--| 

Verse Two: Same as Verse One. Still quiet. 

Chorus Two: Same As Chorus Two:

Weird Tremolo Guitar Solo:
|------------------------|    |--------------|
|------------------------|    |--------------|
|-2s5------2-0-----2-0---| x3 |-2--0---------|
|--------0-----0-------0-|    |-------2--4---|

|------------------------|    |--------------|
|------------------------|    |--------------|
|-2s5------2-0-----2-0---| x3 |-2-----5--7---|
|--------0-----0-------0-|    |----0---------|

\\\\\\\\\\\1 Measure Break//////////

Bridge: Same As Intro
|------------------------|
|------------------------|
|--5---------------------| x8
|---------0--------------|


Chorus Three!: Same as the Other two.

The Screamy Ending:
|----------|--------|---------|-----------|------|-------|-------|
|----------|--------|---------|-----------|------|-------|-------|
|----------|--------|---------|-----------|------|-------|-------|
|-2--------|-2------|-2-------|-2---------|-2----|-2-----|-2-----|

End On D:
|-----------------------------|
|-----------------------------|
|-----------------------------|
|-0---------------------------|

~FIN!!~
><> ><> ><> ><> ><> ><> ><> ><> ><> ><> ><> ><> ><> ><> ><> ><> ><> ><> ><>
3.GASOLINE
Tuning: BADG
Equipment: None
Tabbed By: AfromonkeyR0X
Tempo: 85 BPM

Intro: Just Guitar and Bass Drum. =(

Intro Two: W/ Bass!!
|------------------------|    |-------------------|
|------------------------|    |-------------------|
|---------------0h2--2--2| x3 |-------------------|
|-0---0-3h5---0----------|    |-5-5-3-5-3-0-0-----|

Verse One: Pretty much the same as intro two.
|------------------------|
|------------------------|
|---------------0h2--2---| x8
|-0---0-3h5---0----------|

|------------------------|------------------------|
|--------------------0---|--------------------2---|
|---------------0h2------|---------------0h2------|
|-0---0-3h5---0----------|-0---0-3h5---0----------|

|------------------------|                                   
|------------------------|                                   
|---------------0h2--2---| x2                                 
|-0---0-3h5---0----------|                                   
\\\\\\\\Play all of that 2 times///////////

Chorus One:
|------------------------|
|------------------------|
|---------------0h2--2--2| x4
|-0---0-3h5---0----------|

|-------------------------------|    |--------------------|
|---------------2-0-------------|    |--------------------|
|-------------------2-0---------| x3 |--------------------|
|-0---0-3h5---0-----------3-3h5-|    |-5-5-3-5-3-0-0------|


Verse Two: Same as Verse One(If you want to be like Timmy C. You'd
sing backup vocals on this verse. Not that you have to...)

Chorus Two: Play Seven bars of Chorus One then play:
|-------------------------------|
|-------------------------------|
|-2--0--------------------------| this part was kinda hard to figure out
|--------7--5--3-3--0-----------|  so it's probably incorrect. 

Pre-Solo: Wait 4 Measures

|---------------------------------|---------------------------------|
|---------------------------------|---------------------------------|
|---------------------------------|-2-2-2-2-2-2-2-2-2-2-2-2-2-2-2-2-| x2
|-0-0-0-0-0-0-0-0-0-0-0-0-0-0-0-0-|---------------------------------|

Guitar Solo:
|----------------------|-------------------|-------------------|
|----------------------|-------------------|-------------------|
|-------------0h2--2--2|-------2h5----0h2--|-------2h5----0h2--|
|-0---0-3h5------------|-0---0------0------|-0---0-------------|

|----------------------------|
|----------------------------|
|-------2h5--5-7b-7-5-7b-7-5-|
|-0---0----------------------|

|----------------------|     |---------------------------------|
|----------------------|     |---------------------------------|
|--------------0h2--2--| x3  |-------------7b-7-5-7b-7-5-------|
|-5-5-3-5-3-0----------|     |-5-5-3-5-3-0---------------------|

Verse Three: No Bass for 8 measures

|---------|---------|
|---------|---------|
|---------|---------| x 2
|3--------|0--------|

Chorus Three: Same as Chorus Two

Chorus Three Continued:
|--------------------|-----------------------|
|--------------------|-----------------------|
|------------0h2--2--|-2--0------------------| x 2
|-0---0-3h5----------|-------7--5--3--3--0---| 

TEH 3ND!
><> ><> ><> ><> ><> ><> ><> ><> ><> ><> ><> ><> ><> ><> ><> ><> ><> ><> ><>
4.WHAT YOU ARE
Tuning: EADG
Equipment: None
Tabbed By: Dyuha
Tempo: 88 BPM

Band - Audioslave
Song - What You Are

Intro:
G|------------------------------|
D|------------------------------|
A|----------5--4----------5--4--|
E|--5-7--0--------5-7--0--------|

Verse:
G|-------------------------------------------------------------------------|
D|--------------------------------------------------------7-7-7-7-7-7-7-7--|
A|-----------------------7-7-7-7-7-7-7-7-5-5-5-5-5-5-5-5-------------------|
E|----5-7-7-7-7-7-7-7-7----------------------------------------------------|

Pre-Chorus:
G|-------------------------------------------------------------------------|
D|--9-9-9-9-9-9-9-9-9-9-9-9-9-9-9-9----------------------------------------|
A|----------------------------------10-10-10-10-10-10-10-10-9-9-9-9-9-9-9-9|
E|-------------------------------------------------------------------------|

Chorus:
G|-------------------------------------------------------------------------|
D|-------------------------------------------------------------------------|
A|-----------------------------5-5-5-5----------------------------5-5-5-5--|
E|----7-7-7-7-2-2-2-2--0-0------------------7-7-7-7-2-2-2-2--0-0-----------|

G|-------------------------------------------------------------------------|
D|-------------------------------------------------------------------------|
A|----------------------------5-5-5-5------9-9-9-9-9-9-9-9--9-9--8-7--5-4--|
E|----7-7-7-7-2-2-2-2--0-0-------------------------------------------------|

Verse:
G|-------------------------------------------------------------------------|
D|-------------------------------------------------------------------------|
A|----2-2-2-2-2-2-2-2---------------------5-5-5-5-5-5-5-5-4-4-4-4-4-4-4-4--|
E|----------------------0-0-0-0-0-0-0--------------------------------------|

G|-------------------------------------------------------------------------|
D|-------------------------------------------------------------------------|
A|--------------------------------------5-5-5-5-5-5-5-5----4-4-4-4-4-4-4-4-|
E|---5-7-7-7-7-7-7-7-7-0-0-0-0-0-0-0-0-------------------------------------|

G|-------------------------------------------------------------------------|
D|----------------------------------------------------------7-7-7-7-7-7-7-7|
A|------------------------7-7-7-7-7-7-7-7-5-5-5-5-5-5-5-5------------------|
E|----5-7-7-7-7-7-7-7-7----------------------------------------------------|

Pre-Chorus:
G|-------------------------------------------------------------------------|
D|--9-9-9-9-9-9-9-9-9-9-9-9-9-9-9-9----------------------------------------|
A|----------------------------------10-10-10-10-10-10-10-10-9-9-9-9-9-9-9-9|
E|-------------------------------------------------------------------------|

Chorus:
G|-------------------------------------------------------------------------|
D|-------------------------------------------------------------------------|
A|-----------------------------5-5-5-5----------------------------5-5-5-5--|
E|----7-7-7-7-2-2-2-2--0-0------------------7-7-7-7-2-2-2-2--0-0-----------|

G|-------------------------------------------------------------------------|
D|-------------------------------------------------------------------------|
A|----------------------------5-5-5-5------9-9-9-9-9-9-9-9--9-9--8-7--5-4--|
E|----7-7-7-7-2-2-2-2--0-0-------------------------------------------------|

Interlude:
G|---------------------------------------------------------------------7---|
D|------------------------------------------------------------9--7-979-----|
A|-----------------5---------------5-----------------5---------------------|
E|------7-7--5-757---5--7-7--5-757---7-5--7-7--5-757---5--7-7--------------|

G|---------------------------------------------------------------------7---|
D|------------------------------------------------------------9--7-979-----|
A|-----------------5---------------5-----------------5---------------------|
E|------7-7--5-757---5--7-7--5-757---7-5--7-7--5-757---5--7-7--------------|

Chorus/Outro:
G|-------------------------------------------------------------------------|
D|-------------------------------------------------------------------------|
A|----------------------------5-5-5-5-----------------------------5-5-5-5--|
E|----7-7-7-7-2-2-2-2--0-0---------------7-7-7-7-2-2-2-2--0-0--------------|

G|-------------------------------------------------------------------------|
D|-------------------------------------------------------------------------|
A|----------------------------5-5-5-5----9-9-9-9-9-9-9-9-9-9-9-9-9-9-9-9---|
E|----7-7-7-7-2-2-2-2--0-0-------------------------------------------------|

G|-------------------------------------------------------------------------|
D|-------------------------------------------------------------------------|
A|----------------------------5-5-5-5-----------------------------5-5-5-5--|
E|----7-7-7-7-2-2-2-2--0-0---------------7-7-7-7-2-2-2-2--0-0--------------|

G|-------------------------------------------------------------------------|
D|-------------------------------------------------------------------------|
A|-----------------------------5-5-5-5---9-9-9-9-9-9-9-9--9-9--8-7--5-4--2-|
E|-----7-7-7-7-2-2-2-2--0-0------------------------------------------------|

><> ><> ><> ><> ><> ><> ><> ><> ><> ><> ><> ><> ><> ><> ><> ><> ><> ><> ><>
5.LIKE A STONE
Tuning: EADG
Equipment: None
Tabbed By: AfromonkeyR0X
Tempo: 107 BPM


Before we Start, I'm gonna say If you want to get the true sound of 
this song you're gonna need to slide a lot in the verses. 

Intro:No Bass for 4 measures

Verse One:
|---------------------------------------------------|
|---------------------------------------------------|
|--------------------------------------------8------| x6
|-3----10-10s--3---10-10s--3---10-10s---3------10s--|

Chorus: The "In your house..." Part.
|---------------------|---------------------|
|-----------3---------|----------3--3s7--5--|
|--------------5------|---------------------|
|-3----5-6---------3--|-3---5--6------------|

|---------------------|---------------------|
|---------------------|-3-------------------|
|-5---6---3-----------|--------5------------|
|-----------3---------|-----------3---------|


Verse Two: Same as Verse One.

Chorus Two: Same as Chorus One. (Hit the 5 on A string about 3
times at the end)

Guitar Solo:
|--------------------|-----------------------|
|-----------3--------|-----------------------|
|--------------------|-----------8--12--10~~~|
|3---5--6------5--3--|3----5--6--------------|

High-Pitched Part:
|--------------------------------|
|--------------------------------|
|6-6-6-6-6-6-6-6-----------------|
|----------------3-3-3-3-3-3-3-3-|

|--------------------------------|
|3-3-3-3-3-3-3-3-----------------|
|--------------------------------|
|----------------3-3-3-3-3-3-3-3-|

|--------------------------------|
|--------------------------------|
|6-6-6-6-6-6-6-6-----------------|
|----------------3-3-3-3-3-3-3-3-|

|--------------------------------|
|--------------------------------|
|5-5-5-5-5-5-5-5-----------------|
|----------------3---------------|

Acoustic Part: Wait about 8 measures then:

|---------------------------------|-------------------------------|
|---------------------------------|-------------------------------|
|-------------5---5---------------|-------------------------------|
|-5---5-7---7--------5----5---7-7-|-3-3-3-3-3-3-3-3-3-3-3-3-3-3-3-|

Repeat Chorus and then end on D#

|-------|
|-------|
|-6-----|
|-------|

DA END
><> ><> ><> ><> ><> ><> ><> ><> ><> ><> ><> ><> ><> ><> ><> ><> ><> ><> ><>
6.SET IT OFF
Tuning: EADG
Equipment: Nada!
Tabbed By: AfromonkeyR0X
Tempo: 87 BPM

Wacky Effects Intro:
|-????????????-|
|-????????????-|
|-????????????-|
|-????????????-|

Real Intro/Post Chorus: 
|---------------|    |-----------------|
|-------------7-|    |-----------------|
|---------0s9---| x3 |---------0s9--7--|
|-0-2-0-2-------|    |-0-2-0-2---------|

Play All that 2 times!

Verse One:
|-----------------------|    |-------------------|
|-----------------------|    |----------2--------|
|-----------------------| x3 |--------------0----|
|-2-2--2p0h2--2p0h5p2p0-|    |-2-2--2p0----------|

Play All that 2 times as well.

Chorus:
|-----2------------|    |------------------------|
|---4----4-2---2-4-|    |----4--2----------------|
|------------4-----| x3 |-----------0------------|
|-2----------------|    |-2----------------------|

Verse Two: Play Verse One

Chorus Two: Play Chorus One

Post Chorus: The "allllllriiiight!" part. Play Real intro/Post chorus.

Bridge: don't Play anything until he's done saying "All we need is
some directioooon" Then play:
|--------------|
|--------------|
|--------------| x4 
|-22---22--22--|

|---------|----------|---------|----------|
|---------|----------|---------|----------|
|---------|----------|---------|----------|
|3--------|3---------|5--------|2---------|

|------------------------------|
|------------------------------|
|------------------------------|
|0-0-0-0-0-0-0-0-0-0-----------|

"Time Is Wasting"

Play Chorus and Post-Chorus And you're done! EL FIN!!!

><> ><> ><> ><> ><> ><> ><> ><> ><> ><> ><> ><> ><> ><> ><> ><> ><> ><> ><>
7.SHADOW ON THE SUN 
Tuning:BEAD (Ignore the G String) lol
Equipment: None
Tabbed by: DAN2
Tempo: 71 BPM

Song: Shadow on the Sun
Band: Audioslave
Album: Audioslave (2002)
Tabbed By: Dan Baker (bassplayerbaker@hotmail.com
5-String Bass

Guitar Intro- Rest for 11 ½ bars

Bass fill-
G-|---------|
D-|---------|
A-|-7h8p7-5-|
E-|---------|
B-|---------|

Verse 1- x8
G-|------------------------|
D-|-/9-9-9-9-9-------------|
A-|------------------------|
E-|------------------------|
B-|------------0---0-3-3-5-|

Chorus 1- 
G-|---------------------------------------------------------|
D-|---------------------------------------------------------|
A-|---------------------------------------------------------|
E-|------------------------------------------------------/5-|
B-|-5--3--0---0-5-3-5--3--0---0-5-3-5--3--0---0-5-3-5—-3----|

Verse 2- x4
G-|----------------|
D-|-/9-9-9-9-9-----|
A-|----------------|
E-|----------------|
B-|------------0---|

Bass Fill x1
Verse 1 x8

Chorus 2-
G-|------------------------------------------------------|
D-|------------------------------------------------------|
A-|------------------------------------------------------|
E-|------------------------------------------------------|
B-|-5--3--0---0-5-3-5--3--0---0-5-3-5--3--0---0-5-3-5—-3—|

G-|----------------|
D-|----------------|
A-|----------------|
E-|----------------|
B-|-5-7-5--3-5-3-0-|

G-|---------------------------------------------------------|
D-|---------------------------------------------------------|
A-|---------------------------------------------------------|
E-|------------------------------------------------------/5-|
B-|-5--3--0---0-5-3-5--3--0---0-5-3-5--3--0---0-5-3-5—-3----|
Guitar Solo-
G-|----------------------------------------------|
D-|----------------------------------------------|
A-|-------------------55555555-----------------5-|
E-|-77777777-55555555----------5555555-----5-7---|
B-|------------------------------------5-7-------|

G-|------------------------------------|
D-|------------------------------------|
A-|-------------------55555555-7777777-|
E-|-77777777-55555555------------------|
B-|------------------------------------|

Chorus 1 x1

Bridge- x3
G-|------------------------------------|
D-|------------------------------------|
A-|-------------------55555555---------|
E-|-77777777-55555555----------5555555-|
B-|------------------------------------|

Bridge 2-
G-|------------------------------------|
D-|------------------------------------|
A-|-------------------55555555-7777777-|
E-|-77777777-55555555------------------|
B-|------------------------------------|

Chorus 2 x1

Outro- x12
G-|-----------------------|
D-|-----------------------|
A-|-----------------------|
E-|-/7\-----x-5-7---------|
B-|-----3-5-------x-3-5-0-|

Final Riff- x8
G-|-----------------|
D-|-----------------|
A-|-----------------|
E-|-----------------|
B-|-3-0-3-0-3-0-3-0-|

><> ><> ><> ><> ><> ><> ><> ><> ><> ><> ><> ><> ><> ><> ><> ><> ><> ><> ><>
8.I AM THE HIGHWAY
Tuning: EADG
Equipment: None
Tabbed By: AfromonkeyR0X
Tempo: 87 BPM

Pretty Much this whole song is the same Chord Progression but Idc. I wanna
tab it out for you! ;)

Intro:This is the progression for the Verse and Solo.
|--------------------------------------------|
|--------------------------------------------|
|-----------3-3-33-3-3------------0-0-00-0-0-| 
|1-1-11-1-1------------3-3-33-3-3------------|

Verse One:
|--------------------------------------------|
|--------------------------------------------|
|-----------3-3-33-3-3------------0-0-00-0-0-| x2
|1-1-11-1-1------------3-3-33-3-3------------|

|--------------------------------------------|
|--------------------------------------------|
|-----------3---0--0-0--------------2--0-0-0-| x2
|1-1-11-1-1-------------3-3-33-3-3-----------|

Chorus One:
|------------------------|------------------------|
|------------------------|------------------------|
|3--------3-5---0--0-0---|3--------3-5------------|
|-----3------------------|-----3---------0--------|

Pre-Verse: Play Intro 1x

Verse Two: Play Verse One.

Chorus Two:
|------------------------|     |------------------------|--------|
|------------------------|     |------------------------|--------|
|3--------3-5---0--0-0---| x3  |3--------3-5------------|--------|
|-----3------------------|     |-----3---------0--------|0-------|

Guitar Solo: Same as Intro and Pre-Verse

Chorus Three: Play Chorus Two.

Outro: I'm Not sure if there's bass in the ending, and if there is, then
I think he just plays an A until the song ends. Do whatever you think sounds
good. 

END!

><> ><> ><> ><> ><> ><> ><> ><> ><> ><> ><> ><> ><> ><> ><> ><> ><> ><> ><> 
9.EXPLODER
Tuning: EADG
Equipment: Bass Wah
Tabbed By: AfromonkeyR0X
Tempo: 84 BPM

No Bass Until Cornell starts singing.

Verse One:
|------------------------|
|4-----------4-----------|
|------------------------| x8
|--2-0-2-0-----2-0-2-0---|

Chorus One:

|------------------------|------------------------|
|4-----------4-----------|4----------4------------|
|------------------------|------------------------| x4
|--2-0-2-0-----2-0-2-0---|--2-0-2-0----2-0-2-0-2b-|

Verse two: Play Verse One x12

Chorus Two: Same as Chorus One:

Guitar Solo: w/ Bass Wah
|------------------------|    |-------------------------|
|------------------------|    |---------------------2---|
|0----------0------------| x7 |0----------0-------------|
|--2-2-2-0----2-2-2-0-0--|    |--2-2-2-0----2-2-2-0-----|


Verse Three:
|--------------------------------|--------------------------------|
|4-4-4-4-4-4-4-4-4-4-4-4-4-4-4-4-|-2-2-2-2-2-2-2-2-2-2-2-2-2-2-2-2|
|--------------------------------|--------------------------------| x2
|--------------------------------|--------------------------------|

Chorus Three: same as the other Choruses.

Voice Solo:

Ending: All notes staccato except the last one.
|---------------------------------------|
|---------------------------------------|
|2----2----2----2----2----2-------------|
|---------------------------------------|

EEEE  NN   N  DDDDD
E     N N  N  D   D
EEEE  N  N N  D   D
E     N   NN  D   D
EEEE  N    N  DDDDD

><> ><> ><> ><> ><> ><> ><> ><> ><> ><> ><> ><> ><> ><> ><> ><> ><> ><> ><>
10.HYPNOTIZE
Tuning: EADG
Equipment: None
Tabbed By: AfrmonkeyR0X
Tempo: 118 BPM

Intro:Wait 4 measures then play
|-----------------|
|-----------------|
|------5---5------| x8  
|--0s7---7----7s0-|
 
Verse One:
|-----------------|
|-----------------|
|------5---5------| x16
|--0s7---7----7s0-|

Chorus One:
|-----------------|
|-----------------|
|------5---5------| x8
|--0s7---7----7s0-|

Verse Two: Same as Verse one

Chorus Two: Same as Chorus One

Guitar Solo: Wait about 4 measures then play:
|-----------------|
|-----------------|
|------5---5------| x8
|--0s7---7----7s0-|

Bridge: the "Yaaeeeh!" part
|--------------------------------|-------------------------------|
|--------------------------------|-------------------------------|
|2-2-2-2-2-2-2-2-2-2-2-2-2-2-2-2-|0-0-0-0-0-0-0-0-0-0-0-0-0-0-0-0| x2
|--------------------------------|-------------------------------|

Bridge 2:
|-----------------|
|-----------------|
|------5---5------| x8
|--0s7---7----7s0-|

Chorus Three: Same as Chorus One and Two!

Chorus Three Continued:
|--------------------------------|
|--------------------------------|
|-----5---5-----------5---5------|
|5h7----7---7----5h7----7---7----|

|--------------------|
|--------------------|
|-----5---5----------| x4 
|5h7----7---7s0---0--|

Ending:
|--------------------------------------|
|--------------------------------------|
|-0-0-0-0-0-0-0-0-0-0-0-0-0-0-0-0-0-0-0|
|--------------------------------------|
 On this part just keep playing that A although while playing that A, with
  your left hand, turn your A string tuner peg down. Keep turning it down 
   until all your playing is just a clicking noise. 

eND

><> ><> ><> ><> ><> ><> ><> ><> ><> ><> ><> ><> ><> ><> ><> ><> ><> ><> ><>
11.BRING EM BACK ALIVE
Tuning: BADG
Equipment:None
Tabbed By: thedarkwin
Tempo: 63 BPM

artist: audioslave
song: Bring Em Back Alive
tabbedby: thedarkwinbass@yahoo.com

4-string w/ E tunned down to B.
from low to high: B A D G

intro:
|------------------------------|
|------------------------------|
|------------------------------|
|--0--12-0-9\10-0--6-0-5--0-3--|4x

4 measure rest

|------------------|  |-------------------|
|------------------|  |-------------\9999-|
|------------------|  |-------------------|
|-5555555555555555-|3x|-555555555555------|

|-------------------------------|\
|-------------------------------| \
|-------------------------------|  \
|--0--12-0-9\10-0--6-0-5--0-3---|   \
                                   repeat 4x
|-------------------------------|   /
|-------------------------------|  /
|-------------------------------| /
|--3--10-0-9\10-3-5-6-0-5--3-5--|/

verse:
|---------------------------|
|---------------------------|
|---------1------0----------|
|--5-3-xx---5-xx---5-xxx-8--|12x

chorus:
|-------------------------------|\
|-------------------------------| \
|-------------------------------|  \
|--0--12-0-9\10-0--6-0-5--0-3---|   \
                                   repeat 4x
|-------------------------------|   /
|-------------------------------|  /
|-------------------------------| /
|--3--10-0-9\10-3-5-6-0-5--3-5--|/

verse:
|---------------------------|
|---------------------------|
|---------1------0----------|
|--5-3-xx---5-xx---5-xxx-8--|10x

chorus:
|-------------------------------|\
|-------------------------------| \
|-------------------------------|  \
|--0--12-0-9\10-0--6-0-5--0-3---|   \
                                   repeat 3x
|-------------------------------|   /
|-------------------------------|  /
|-------------------------------| /
|--3--10-0-9\10-3-5-6-0-5--3-5--|/

|-------------------------------|
|-------------------------------| 
|-------------------------------|  
|--0--12-0-9\10-0--6-0-5--0-3---|  
                                   
|-------------------------------|
|-------------------------------|
|-------------------------------|
|--3-5-6-0-5--3-5-6-0-5--3-5----|

solo:
|------------------------------14-14-14-------------|
|---------------------------------------13h14-13h14-|
|---------------------------------------------------|
|-0000000000000000000000000000----------------------|

|------------------------------14-14-14-14-14-14----|
|---------------------------------------------------|
|---------------------------------------------------|
|-0000000000000000000000000000----------------------|

|--------------------------------|
|--------------------------------|
|--2-0-2-----2-0-2-----2-0-2-----|
|---------6---------5---------3--|4x

|--------------------------------|
|--------------------------------|
|--0-2-5-----0-2-5-----0-2-5-----|
|---------6---------5---------3--|4x

rest, then 
|--------------------------|
|--------------------------|
|--------------------------|
|--5-5----5-5----55----55--|

|------------------------------------|
|-----------------------------\9999--|
|------------------------------------|
|-5555555555555555555555555555-------|

repreat chorus before solo and end with
|------------|
|------------|
|------------|
|--3-5--3-5--|

sounds close enough. enjoy it.
comments welcomed.
><> ><> ><> ><> ><> ><> ><> ><> ><> ><> ><> ><> ><> ><> ><> ><> ><> ><> ><>
12.LIGHT MY WAY
Tuning: DADG (Drop D)
Equipment: None
Tabbed By: piequat
Tempo: 83 BPM


Audioslave - Light My Way

Tabbed By Stephen Pang (piequat@hotmail.com)

*Dropped D Tuning*

Chorus
G|--------------------|--------------------|
D|--------------------|--------------------|
A|-5---------3--5--3--|-5---------------3--|
D|---0--0--0----------|---0--0--0-3--5-----|

G|--------------------|
D|--------------------|
A|-5------------------|  (last 2 chorus)
D|---0--0--0-3--5--6--|

Verse
G|-----------------------|
D|--------3--------------|
A|------5----------------|
D|-3-5-------3-7--5/7-5--|

Bridge
G|-------------------|-----------------|-----------------|
D|-------------------|-----------------|-----------------|
A|-----3-------------|-----------------|-3-3-3-3-3-3-3-3-|
D|-7-------6---5---6-|-7-7-7-7-7-7-7-7-|-----------------|

G|-----------------|-----------------|
D|-----------------|-----------------|
A|-----------------|-----------------|
D|-6-6-6-6-6-6-6-6-|-5-5-5-5-5-5-5-5-|

G|--------------|------------|
D|--------------|------------|
A|-3--5-3--5----|-3--5-3--5--|
D|-----------0--|------------|

><> ><> ><> ><> ><> ><> ><> ><> ><> ><> ><> ><> ><> ><> ><> ><> ><> ><> ><>
13. GETAWAY CAR
Tuning: EADG
Equipment: Octave Pedal
Tabbed By: BassIsMe
Tempo: 63 BPM


Song: Getaway Car
Band: Aduioslave
Album: Audioslave
Bassist: Timmy C.


	Okay so this is an awsome song, not in the key of D minor (like other tabs say) it’s in
key of A minor. Timmy uses and octave pedal for this song, because that C note of the
is sooo thick it’s awsome. If you have a 5 string bass, it would sound good if you also 
the lower octave note also.

Example:
(Playing the Low E and A by itself because you can’t go any lower)
G|----------------|---------|
D|----------------|---------|
A|--5--3-----3--5-|---------|
E|--------0-------|--5------|
B|--3--1-----1--3-|---------|

Instead of:
G|----------------|---------|
D|----------------|---------|
A|--5--3----------|---------|
E|--------0--3----|--5------|

Anyway, that sounds good, but whatever.
The actual tabs don’t exactly show rythme, but the placment of the notes in the measures 
right one.


So It goes,
Chorus and 1st ending,
Verse
Chorus and 2nd Ending (Including solo Bass Line)
Chorus and 2nd Ending, then to ending where specified (playing the Part included)

Enjoy :)


G|-----------------------------------------------------|
D|-----------------------------------------------------|
A|---------------First verse, No Bass------------------|
E|-----------------------------------------------------|
B|-----------------------------------------------------|

Chorus
G|------------------|----------------|---------------|
D|-------------5-4--|-3--------------|---------------|
A|--3---------------|------7-----7-6-|-5---------5-3-|
E|------------------|----------------|---------------|


G|------------------|------------------------|---------------|
D|------------------|-----------5--7-----5-4-|-3-------------|
A|--2-----/7--------|--------7---------------|------7----7-6-|
E|--------------3-4-|-5----------------------|---------------|
                     ___________
                    |   1.
                    |
G|------------------|----------------|-----------------|---------|
D|------------------|----------------|-----------------|---------|
A|--5-------------5-|--7---------7-6-|-5----3------3-5-|---------|
E|-------------7----|----------------|----------0------|-5-------|
                            __________ ___________
                                      |   2.     >------>--------
                                      |
G|------------------|-----------------|---------|----------------|
D|------------------|--------------7--|---------|----------------|
A|-5---3-------3-5--|-----------------|-7--------|-5---3----3--5--|
E|---------0--------|--5--------------|---------|--------0-------|

-->------>--Play 3rd Chorus-->--------->------->---|

G|------------------|------------------|-----------|-------------|
D|------------------|------------------|-----------|-------------|
A|------------------|---5--3-------2-3-|-----------|-5--3--------|
E|-5----------------|---------0--3-----|--5--------|------0--3-4-|

                                       (to ending)(Solo)
G|------------------|-------------------|---------|--------------|
D|------------------|-------------------|---------|--------------|
A|------------------|---5---3-----------|---------|-5--3------2-3|
E|---5--------------|-----------0---3---|--5------|------0-0-3---|

G|------------------5-------|-------------------|--------------|
D|--------------7-----7-5---|-------------------|--------------|
A|--------5/7-------------7-|--5--3---------2-3-|--------------|
E|--5-----------------------|--------0--0-3-----|--5-----------|

G|--------------------|------------|--------------|----------|
D|--------------------|------------|--------------|----------|
A|---5--3---------2-3-|------------|--5--3--------|----------|
E|---------0--0-3-----|--5---------|---------0--3-|--5-------|

Verse
G|----------------|---------|------|------|
D|----------------|---------|--o//-|--o//-|
A|--5--3-----3--5-|---------|--//o-|--//o-|
E|--------0-------|--5------|------|------|

G|----------------|---------|
D|----------------|---------|
A|--5--3----------|---------|
E|--------0--3----|--5------|

Ending
G|------------|
D|------------|
A|------------|
E|--5---------|

Tabbed by BassIsMe
><> ><> ><> ><> ><> ><> ><> ><> ><> ><> ><> ><> ><> ><> ><> ><> ><> ><> ><>
14.THE LAST REMAINING LIGHT
Tuning: BEAD
Equipment: Distortion Pedal?
Tabbed By: mayhembass01
Tempo: 101 BPM
 
Tabbed By :sean
e-mail: seanymo500@msn.com

Tuning:BEAD   please dont hesitate to email me and tell me if i messed up
somewhere. Note: whenever you hear B on any of timmys song(what you are,
shadow of the sun, etc)this is usually the tunning he uses


INTRO                                                              Fill
D|--12----------11---------10---------9---------------------------|-------|
A|-----12-10-12----12-10-8----10-8-10---10-8-0-1-------3-------5--|-------|
E|-----------------------------------------------3-1-3---3-1-3----|-1-----|
B|----------------------------------------------------------------|-------|

VERSE Note the fill is always before you start the verse
D|------------------------------------------------------|
A|-5---------------3------2-------5------7-----3-----2--|
E|-----3-5-0---3-1----1-3-----1------3-5---3-1---1-3----|
B|------------------------------------------------------|


after you do the first verse hit a D
D|-----|
A|-----|
E|-----|
B|--3--|


SOLO 1
D|-------------------------------------------------------|
A|-5---------------3------2-------5------7-----3---------|
E|-----3-5-0---3-1----1-3-----1------3-5---3-1---1-3-----|
B|---------------------------------------------------0---|

CHORUS(use distortion)
D|----------|
A|----------|
E|-1-0---3--|
B|-----0----|

SOLO 2
D|--12----------11---------10---------9---------------------------|
A|-----12-10-12----12-10-8----10-8-10---10-8-0-1-------3-------5--|
E|-----------------------------------------------3-1-3---3-1-3----|
B|----------------------------------------------------------------|


order:
INTRO
VERSE
VERSE
SOLO 1
CHORUS
SOLO 2
CHROUS

><> ><> ><> ><> ><> ><> ><> ><> ><> ><> ><> ><> ><> ><> ><> ><> ><> ><> ><>
[ Snorkle ]

TUNING HELP. Here's how to easily tune your bass to 1 of the 4 tunings
this album has to offer. You can use these methods, or use a tuner. =(

EADG-Most of you probably already know this, but The 5th fret on the E
string should sound the same as the open A string. Easy!

DADG-Same technique used as above, except the 7th fret on the E string 
should sound like the open A string!

BADG-Same thing, except on E string you would use the 10th fret. That's 
pretty low!

BEAD-Ok this one will take a bit longer, but use the same technique as above
and once you have your top string a B, tune the other 3 strings as if you
were tuning them standard. (by using the 5th fret)

This means the 5th fret on your B string should sound the same as your open
A string! (which will turn into an E) Do the same with the last two!!

><> ><> ><> ><> ><> ><> ><> ><> ><> ><> ><> ><> ><> ><> ><> ><> ><> ><> ><>

I hope you've enjoyed my bass album tab, please rate and comment. 
Any questions, leave a comment on my profile, 
or send to airk_cochran@yahoo.com


Bye-Bye =)
comments
We did not receive enough feedback on this tab! Please rate:
print report bad tab
1 2 3 4 5
I want to post or [tab]
guest
You may want to rate the tab now too:
select rating
Please do not post tabs as comments. Select "correction" instead!