Oops, an error
Loading. Please wait.

Broken City Tab

ver3
ver3

Whole song

More versions @911Tabs.com
499 views 1 this week
no commentswrite comment
1 2 3 4 5
please rate
Autoscroll
+/-
esc
set tempo
stop
Contributor
Difficulty
novice
WARNING: You are trying to view
                                    content from Ultimate-Guitar.com
                                    in an unauthorized application,
                                    which is prohibited.

                                    Please use an official Ultimate
                                    Guitar Tabs application for iPhone,
                                    iPad or Android to access legitimate
                                    chords, guitar, bass, and drum tabs
                                    from Ultimate-Guitar.com database.

                                    Type "ultimate guitar tabs" in Apple
                                    App Store's or Android Market's
                                    search to find the application.
                                   BROKEN CITY
                            As recorded by Audioslave
                        (From the 2006 Album REVELATIONS)

Words by Chris Cornell

Music by Audioslave

Gtr I (D A D G B E) - 'Gtr. 1 (slight. dist.)'
Gtr II (D A D G B E) - 'Gtr. 2 (slight dist.)'
Gtr III (D A D G B E) - 'Gtr. 3 (dist.)'
Gtr IV (D A D G B E) - 'Gtr. 4 (dist.)'

 Intro
  Moderately Slow Q=87(16=s16)
 4/4
  Gtr I
  PM--------------------------------------------------|
  S E   E S S E E +Q   +S  S E   E S S E E +Q   +S  S E
|-----|------------------------|------------------------|
|-----|------------------------|------------------------|
|-----|------------------------|------------------------|
|-----|------------------------|------------------------|
|-----|------------------------|------------------------|
|-0-3-|-5---5---5-(5)--(5)-0-3-|-5---5---5-(5)--(5)-0-3-|


  PM---------------------------------|
  E S S E E +Q   +S  S E   E S S E E +H
|------------------------|------------------||
|------------------------|------------------||
|------------------------|------------------||
|------------------------|------------------||
|------------------------|------------------||
|-5---5---5-(5)--(5)-0-3-|-5---5---5-(5)----||


 Verse
  PM--------------------|
  E E E E E E E e   E E H.
|-----------------|-----------|
|-----------------|-----------|
|-----------------|-----------|
|-------3-5-5-----|-----------|
|-------------3-5-|-----------|
|-3-5-5-----------|-3-5-5-----|


  PM---------------------------------|
  E E E E E E E e   E E Q  +S  S E E E
|-----------------|--------------------|
|-----------------|--------------------|
|-----------------|--------------------|
|-------3-5-5-----|--------------------|
|-------------3-5-|--------------------|
|-3-5-5-----------|-3-5-5--(5)-0-0-3-5-|


  PM-----------------------------|
  E E E E E E E e   E E Q  +E  E e E
|-----------------|------------------|
|-----------------|------------------|
|-----------------|------------------|
|-------3-5-5-----|------------------|
|-------------3-5-|------------------|
|-3-5-5-----------|-3-5-5--(5)-0-3---|


  PM---------------------------------|
  E E E E E E E e   E E Q  +S  S E E E
|-----------------|--------------------||
|-----------------|--------------------||
|-----------------|--------------------||
|-------3-5-5-----|--------------------||
|-------------3-5-|--------------------||
|-3-5-5-----------|-3-5-5--(5)-0-0-3-5-||


   Chorus
    Gtr IV
    \6/     \6/   \6/     \6/     \6/   \6/
    Q.    e E   e E   e   Q.    e E   e E   e  4x
||----------------------|----------------------||
||o---------------------|---------------------o||
||--7-----5-7---5-7---5-|-7-----5-7---5-7---5--||
||--x-----x-x---x-x---x-|-x-----x-x---x-x---x--||
||o-5-----3-5---3-5---3-|-5-----3-5---3-5---3-o||
||----------------------|----------------------||
|
|   Gtr III
|   Q.    e E   e E   e   Q.    e E   e E   e  4x
||----------------------|----------------------||
||o---------------------|---------------------o||
||--7-----5-7---5-7---5-|-7-----5-7---5-7---5--||
||--x-----x-x---x-x---x-|-x-----x-x---x-x---x--||
||o-5-----3-5---3-5---3-|-5-----3-5---3-5---3-o||
||----------------------|----------------------||


 Interlude
   W           W           W           W
|-----------|-----------|-----------|-------||
|-!6--------|-!6--------|-!6--------|-!6----||
|-!5--------|-!5--------|-!5--------|-!5----||
|-!3--------|-!3--------|-!3--------|-!3----||
|-!5--------|-!5--------|-!5--------|-!5----||
|-----------|-----------|-----------|-------||


   Verse 2
    Gtrs I, II
    PM--------------------|
    E E E E E E E e   E E H.
||------------------|-----------|
||o-----------------|-----------|
||------------------|-----------|
||--------3-5-5-----|-----------|
||o-------------3-5-|-----------|
||--3-5-5-----------|-3-5-5-----|


  PM---------------------------------|
  E E E E E E E e   E E Q  +S  S E E E
|-----------------|---------------------||
|-----------------|--------------------o||
|-----------------|---------------------||
|-------3-5-5-----|---------------------||
|-------------3-5-|--------------------o||
|-3-5-5-----------|-3-5-5--(5)-0-0-3-5--||


   Chorus
    Gtr IV
    \6/     \6/   \6/     \6/     \6/   \6/
    Q.    e E   e E   e   Q.    e E   e E   e
||----------------------|----------------------||
||o---------------------|---------------------o||
||--7-----5-7---5-7---5-|-7-----5-7---5-7---5--||
||--x-----x-x---x-x---x-|-x-----x-x---x-x---x--||
||o-5-----3-5---3-5---3-|-5-----3-5---3-5---3-o||
||----------------------|----------------------||
|
|   Gtr III
|   Q.    e E   e E   e   Q.    e E   e E   e
||----------------------|----------------------||
||o---------------------|---------------------o||
||--7-----5-7---5-7---5-|-7-----5-7---5-7---5--||
||--x-----x-x---x-x---x-|-x-----x-x---x-x---x--||
||o-5-----3-5---3-5---3-|-5-----3-5---3-5---3-o||
||----------------------|----------------------||


 Interlude
   W           W           W           W
|-----------|-----------|-----------|-------||
|-!6--------|-!6--------|-!6--------|-!6----||
|-!5--------|-!5--------|-!5--------|-!5----||
|-!3--------|-!3--------|-!3--------|-!3----||
|-!5--------|-!5--------|-!5--------|-!5----||
|-----------|-----------|-----------|-------||


 Guitar Solo
  Gtr III
   e     e     e    S  +S        e     E    E    E
|----------------------------------------------------|
|----------------------------------------------------|
|-15----------15---15-(15)b15.5----------------------|
|-------17----------------------17----15---17--------|
|----------------------------------------------------|
|----------------------------------------------------|
|
| Gtr II
|  S  S  S  S  S S  S   S        S  S  S S  S  S S S
|----------------------------------------------------|
|--8--8-----8--8----8---8-----------8--8----8--8-x-x-|
|-10-10----10-10---10--10----------10-10---10-10-x-x-|
|----------------------------------------------------|
|----------------------------------------------------|
|----------------------------------------------------|
|
| Gtr I
|  PM-------------------------------------------------
|  E     E     E    E            E     E    E    e
|----------------------------------------------------|
|----------------------------------------------------|
|----------------------------------------------------|
|-------------------3------------5-----5-------------|
|-------------------------------------------3----5---|
|--3-----5-----5-------------------------------------|


   e     S  +S        S  S  S  S     S   S       E     E    E
|---------------------------------------------------------------|
|---------------------------------------------------------------|
|-15----15-(15)b15.5----------17b19-----15pb16r(15)-------------|
|--------------------17-15----------------------------17--------|
|---------------------------------------------------------------|
|---------------------------------------------------------------|
|
|  S  S  S   S        S  S  S  S     S   S       S  S  S  S S S
|---------------------------------------------------------------|
|--8--8------8--------8-----8--8---------8-------8-----8--8-x-x-|
|-10-10-----10-------10----10-10--------10------10----10-10-x-x-|
|---------------------------------------------------------------|
|---------------------------------------------------------------|
|---------------------------------------------------------------|
|
|-----------------------------------------------------------|
|  E     E            Q             +S   S       E     E    E
|---------------------------------------------------------------|
|---------------------------------------------------------------|
|---------------------------------------------------------------|
|---------------------------------------------------------------|
|---------------------------------------------------------------|
|--3-----5------------5-------------(5)--0-------0-----3----5---|


   E     S  +S        S  S  S  S S  E.       S  S S  S
|------------------------------------------------------|
|------------------------------------------------------|
|-15----15-(15)b15.5----------15--------------------15-|
|--------------------17-15---------17-------15h17------|
|------------------------------------------------------|
|------------------------------------------------------|
|
|  S  S  S   S        S  S  S  S S  S   S S  S  S S  S
|------------------------------------------------------|
|--8--8------8--------8-----8--8----8---8----8--8-x--x-|
|-10-10-----10-------10----10-10---10--10---10-10-x--x-|
|------------------------------------------------------|
|------------------------------------------------------|
|------------------------------------------------------|
|
|  PM---------------------------------------------------
|  E     E            E     E    E      E    E    e
|------------------------------------------------------|
|------------------------------------------------------|
|------------------------------------------------------|
|---------------------------3----5------5--------------|
|--------------------------------------------3----5----|
|--3-----5------------5--------------------------------|


   +E           S  S  S    S  S       S   S   S  E       S       S   S  S
|-------------------------------------------------------------------------||
|-------------------------------------------------------------------------||
|-(15)b15.5----------17b19---15pb16r(15)--------17b19---15pb16r(15)-------||
|--------------17p15---------------------17--15---------------------17p15-||
|-------------------------------------------------------------------------||
|-------------------------------------------------------------------------||
|
|   S        S  S  S  S    S  S       S   S   S  S    S  S       S   S  S
|-------------------------------------------------------------------------||
|---8--------8-----8--8-------8-------8-------8--8-------8-------8---x--x-||
|--10-------10----10-10------10------10------10-10------10------10---x--x-||
|-------------------------------------------------------------------------||
|-------------------------------------------------------------------------||
|-------------------------------------------------------------------------||
|
|-------------------------------------------------------------------|
|   E           E     Q                  +S   S  E       E           E
|-------------------------------------------------------------------------||
|-------------------------------------------------------------------------||
|-------------------------------------------------------------------------||
|-------------------------------------------------------------------------||
|-------------------------------------------------------------------------||
|---3-----------5-----5------------------(5)--0--0-------3-----------5----||


   Verse 3
    Gtr II
     S  S S  S  S S  S  S S  S  S S  S  S S S
||--------------------------------------------|
||o--8--8----8--8----8--8----8--8----8--8-x-x-|
||--10-10---10-10---10-10---10-10---10-10-x-x-|
||--------------------------------------------|
||o-------------------------------------------|
||--------------------------------------------|
|
|   Gtr I
|    PM----------------------------------------
|    E    E     E    E    E     E    E    e
||--------------------------------------------|
||o-------------------------------------------|
||--------------------------------------------|
||-------------------3----5-----5-------------|
||o----------------------------------3----5---|
||---3----5-----5-----------------------------|


   S  S S  S  S S  S  S  S   S  S S  S  S S S  4x
|----------------------------------------------||
|--8--8----8--8----8--8------8--8----8--8-x-x-o||
|-10-10---10-10---10-10-----10-10---10-10-x-x--||
|----------------------------------------------||
|---------------------------------------------o||
|----------------------------------------------||
|
|-----------------------------------------|
|  E    E     Q         +S   S  E    E    E    4x
|----------------------------------------------||
|---------------------------------------------o||
|----------------------------------------------||
|----------------------------------------------||
|---------------------------------------------o||
|--3----5-----5---------(5)--0--0----3----5----||


   Chorus
    Gtr IV
    \6/     \6/   \6/     \6/     \6/   \6/
    Q.    e E   e E   e   Q.    e E   e E   e  4x
||----------------------|----------------------||
||o---------------------|---------------------o||
||--7-----5-7---5-7---5-|-7-----5-7---5-7---5--||
||--x-----x-x---x-x---x-|-x-----x-x---x-x---x--||
||o-5-----3-5---3-5---3-|-5-----3-5---3-5---3-o||
||----------------------|----------------------||
|
|   Gtr III
|   Q.    e E   e E   e   Q.    e E   e E   e  4x
||----------------------|----------------------||
||o---------------------|---------------------o||
||--7-----5-7---5-7---5-|-7-----5-7---5-7---5--||
||--x-----x-x---x-x---x-|-x-----x-x---x-x---x--||
||o-5-----3-5---3-5---3-|-5-----3-5---3-5---3-o||
||----------------------|----------------------||


 The Jillionth Interlude
  Gtrs III, IV
        <        <             <             <
  H     H       +W            +W            +W
|------------|-------------|-------------|---------||
|-------8----|--(8)--------|--(8)--------|--(8)----||
|------10----|-(10)--------|-(10)--------|-(10)----||
|------------|-------------|-------------|---------||
|------------|-------------|-------------|---------||
|------------|-------------|-------------|---------||


   Outro
    Gtr I
     PM----------------------------------------
     E    E     E    E    E     E    E    e
||--------------------------------------------|
||o-------------------------------------------|
||--------------------------------------------|
||-------------------3----5-----5-------------|
||o----------------------------------3----5---|
||---3----5-----5-----------------------------|
|
|   Gtr II
|    S  S S  S  S S  S  S S  S  S S  S  S S S
||--------------------------------------------|
||o--8--8----8--8----8--8----8--8----8--8-x-x-|
||--10-10---10-10---10-10---10-10---10-10-x-x-|
||--------------------------------------------|
||o-------------------------------------------|
||--------------------------------------------|


 ---------------------------------------|
   E    E     E    E    E     E    E    e
|--------------------------------------------||
|-------------------------------------------o||
|--------------------------------------------||
|------------------3----5-----5--------------||
|----------------------------------3----5---o||
|--3----5-----5------------------------------||
|
|  S  S S  S  S S  S  S S  S  S S  S  S S S
|--------------------------------------------||
|--8--8----8--8----8--8----8--8----8--8-x-x-o||
|-10-10---10-10---10-10---10-10---10-10-x-x--||
|--------------------------------------------||
|-------------------------------------------o||
|--------------------------------------------||


    Gtrs I, IV
     PM----------------------------------------
     E    E     E    E    E     E    E    e
||--------------------------------------------|
||o-------------------------------------------|
||--------------------------------------------|
||-------------------3----5-----5-------------|
||o----------------------------------3----5---|
||---3----5-----5-----------------------------|
|
|    S  S S  S  S S  S  S S  S  S S  S  S S S
||--------------------------------------------|
||o--8--8----8--8----8--8----8--8----8--8-x-x-|
||--10-10---10-10---10-10---10-10---10-10-x-x-|
||--------------------------------------------|
||o-------------------------------------------|
||--------------------------------------------|


 ---------------------------------------|
   E    E     E    E    E     E    E    e
|--------------------------------------------||
|-------------------------------------------o||
|--------------------------------------------||
|------------------3----5-----5--------------||
|----------------------------------3----5---o||
|--3----5-----5------------------------------||
|
|  S  S S  S  S S  S  S S  S  S S  S  S S S
|--------------------------------------------||
|--8--8----8--8----8--8----8--8----8--8-x-x-o||
|-10-10---10-10---10-10---10-10---10-10-x-x--||
|--------------------------------------------||
|-------------------------------------------o||
|--------------------------------------------||


  Gtrs I, IV
   PM--------------------------------------------------
   E    E     E     E            E      E    E    e
|-----------------------------------------------------|
|-----------------------------------------------------|
|-----------------------------------------------------|
|-------------------3------------5------5-------------|
|--------------------------------------------3----5---|
|--3----5-----5---------------------------------------|
|
| Gtr II
|  S  S S  S  S S   S    S       S   S  S S  S  S S S
|-----------------------------------------------------|
|--8--8----8--8-----8----8-----------8--8----8--8-x-x-|
|-10-10---10-10----10---10----------10-10---10-10-x-x-|
|-----------------------------------------------------|
|-----------------------------------------------------|
|-----------------------------------------------------|
|
| Gtr III
|  S  S S  S  E     S   +S      +Q           Q
|-----------------------------------------------------|
|-----------------------------------------------------|
|-15---------17---(17)-(17)b18r(17)-------------------|
|----17---15------------------------------------------|
|-----------------------------------------------------|
|-----------------------------------------------------|


 -----------------------------------------------|
   E    E     E     E          E      E    E     e
|-----------------------------------------------------|
|-----------------------------------------------------|
|-----------------------------------------------------|
|-------------------3----------5------5---------------|
|------------------------------------------3-----5----|
|--3----5-----5---------------------------------------|
|
|  S  S S  S  S  S  S  S       S   S  S S  S  S  S  S
|-----------------------------------------------------|
|--8--8----8--8-----8--8-----------8--8----8--8--x--x-|
|-10-10---10-10----10-10----------10-10---10-10--x--x-|
|-----------------------------------------------------|
|-----------------------------------------------------|
|-----------------------------------------------------|
|
|  Q          E.       S       S   S  S S  S  S  S  S
|-----------------------------------------------------|
|-----------------------------------------------------|
|---------------------17pb19r(17)-15------15----------|
|------------------------------------17------17-15-17-|
|-----------------------------------------------------|
|-----------------------------------------------------|


    PM------------------------------------------
    E      E     E    E    E     E    E    e
|----------------------------------------------|
|----------------------------------------------|
|----------------------------------------------|
|---------------------3----5-----5-------------|
|-------------------------------------3----5---|
|---3------5-----5-----------------------------|
|
|   S    S S  S  S S  S  S S  S  S S  S  S S S
|----------------------------------------------|
|---8----8----8--8----8--8----8--8----8--8-x-x-|
|--10---10---10-10---10-10---10-10---10-10-x-x-|
|----------------------------------------------|
|----------------------------------------------|
|----------------------------------------------|
|
|   Q            Q         H
|----------------------------------------------|
|----------------------------------------------|
|----------------------------------------------|
|-(17)\----------------------------------------|
|----------------------------------------------|
|----------------------------------------------|


 ---------------------------------------|
   E    E     E    E    E     E    E    e
|-------------------------------------------*|
|-------------------------------------------*|
|-------------------------------------------*|
|------------------3----5-----5-------------*|
|----------------------------------3----5---*|
|--3----5-----5-----------------------------*|
|
|  S  S S  S  S S  S  S S  S  S S  S  S S S
|-------------------------------------------*|
|--8--8----8--8----8--8----8--8----8--8-x-x-*|
|-10-10---10-10---10-10---10-10---10-10-x-x-*|
|-------------------------------------------*|
|-------------------------------------------*|
|-------------------------------------------*|
|
|  W
|-------------------------------------------*|
|-------------------------------------------*|
|-------------------------------------------*|
|-------------------------------------------*|
|-------------------------------------------*|
|-------------------------------------------*|


Duration Legend
---------------
W - whole; H - half; Q - quarter; E - 8th; S - 16th; T - 32nd; X - 64th; a - acciaccatura
+ - note tied to previous; . - note dotted; .. - note double dotted
Uncapitalized letters represent notes that are staccato (1/2 duration)
Irregular groupings are notated above the duration line
Duration letters will always appear directly above the note/fret number it represents the
duration for.  Duration letters with no fret number below them represent rests.  Multi-
bar rests are notated in the form Wxn, where n is the number of bars to rest for.  Low
melody durations appear below the staff

Tablature Legend
----------------
 h   - hammer-on
 p   - pull-off
 b   - bend
 pb  - pre-bend
 r   - bend release (if no number after the r, then release immediately)
 /\  - slide into or out of (from/to "nowhere")
 s   - legato slide
 S   - shift slide
  - natural harmonic
[n]  - artificial harmonic
n(n) - tapped harmonic
 ~   - vibrato
 tr  - trill
 T   - tap
 TP  - trem. picking
 PM  - palm muting
\n/  - tremolo bar dip; n = amount to dip
 \n  - tremolo bar down
 n/  - tremolo bar up
/n\  - tremolo bar inverted dip
 =   - hold bend; also acts as connecting device for hammers/pulls
 <>  - volume swell (louder/softer)
 x   - on rhythm slash represents muted slash
 o   - on rhythm slash represents single note slash

Misc Legend
-----------
 |  - bar
||  - double bar
||o - repeat start
o|| - repeat end
*|  - double bar (ending)
 :  - bar (freetime)
 $  - Segno
 &  - Coda
Tempo markers -  = BPM(8/16=s8/s16), where s8 = swing 8ths, s16 = swing 16ths


***************************************************************************************
* Generated using Power Tab Editor by Brad Larsen - http://powertab.guitarnetwork.org *
***************************************************************************************
comments
We did not receive enough feedback on this tab! Please rate:
1 2 3 4 5
I want to post or [tab]
guest
You may want to rate the tab now too:
select rating
Please do not post tabs as comments. Select "correction" instead!