Oops, an error
Loading. Please wait.

Doesnt Remind Me Tab

ver4
ver4

Solo

Whole song

More versions @911Tabs.com
2,489 views 3 this week
no commentswrite comment
1 2 3 4 5
excellent!
x 1
Autoscroll
+/-
esc
set tempo
stop
Contributor
Difficulty
intermediate
WARNING: You are trying to view
                                    content from Ultimate-Guitar.com
                                    in an unauthorized application,
                                    which is prohibited.

                                    Please use an official Ultimate
                                    Guitar Tabs application for iPhone,
                                    iPad or Android to access legitimate
                                    chords, guitar, bass, and drum tabs
                                    from Ultimate-Guitar.com database.

                                    Type "ultimate guitar tabs" in Apple
                                    App Store's or Android Market's
                                    search to find the application.
Song: Doesn't Remind Me                     
Band: Audioslave
Tabbed By: JohnnyR



     E  E  E  Q    E  E  E     E  E  E  Q    E  E  E   
E||-----------0-------------|-----0-------------------|
B||-----------0----------0--|-----2-----x-------------|
G||-----1-----1----1-----0--|-----2-----x----1-----1--|
D||-----2----------2--------|--2-----2--x----2-----2--|
A||--2-----2----------2-----|--0-----0--2-------2-----|
E||--0-----0----------0-----|-----------0-------0-----|


  E  E  E  Q    E  E  E   
-----------0-------------|
-----------0----------0--|
-----1-----1----1-----0--|
-----2----------2--------|
--2-----2----------2-----|
--0-----0----------0-----|


                I walk...        
  E  E  E  Q    E         E  E   
-----0--------------------------|
-----2-----x--------------------|
-----2-----x----1------------1--|
--2-----2--x----2------------2--|
--0-----0--2--------------2-----|
-----------0--------------0-----|


  E  E  E  Q    E  E  E     E  E  E  Q    E  E  E   
-----------0-------------|-----0-------------------|
-----------0----------0--|-----2-----x-------------|
-----1-----1----1-----0--|-----2-----x----1-----1--|
-----2----------2--------|--2-----2--x----2-----2--|
--2-----2----------2-----|--0-----0--2-------2-----|
--0-----0----------0-----|-----------0-------0-----|


  E  E  E  Q    E  E  E     E  E  E  Q    E  E  E   
-----------0-------------|-----0-------------------|
-----------0----------0--|-----2-----x-------------|
-----1-----1----1-----0--|-----2-----x----1-----1--|
-----2----------2--------|--2-----2--x----2-----2--|
--2-----2----------2-----|--0-----0--2-------2-----|
--0-----0----------0-----|-----------0-------0-----|


  E  E  E  Q    E  E  E     E  E  E  Q    E  E  E   
-----------0-------------|-----0-------------------|
-----------0----------0--|-----2-----x-------------|
-----1-----1----1-----0--|-----2-----x----1-----1--|
-----2----------2--------|--2-----2--x----2-----2--|
--2-----2----------2-----|--0-----0--2-------2-----|
--0-----0----------0-----|-----------0-------0-----|


  E  E  E  Q    E  E  E     E  E  E  Q    E  E  E   
-----------0-------------|-----0-------------------|
-----------0----------0--|-----2-----x-------------|
-----1-----1----1-----0--|-----2-----x----1-----1--|
-----2----------2--------|--2-----2--x----2-----2--|
--2-----2----------2-----|--0-----0--2-------2-----|
--0-----0----------0-----|-----------0-------0-----|


  E  E  E  Q    E  E  E     E  E  E  Q    E  E  E   
-----------0-------------|-----0-------------------|
-----------0----------0--|-----2-----x-------------|
-----1-----1----1-----0--|-----2-----x----1-----1--|
-----2----------2--------|--2-----2--x----2-----2--|
--2-----2----------2-----|--0-----0--2-------2-----|
--0-----0----------0-----|-----------0-------0-----|


  E  E  E  Q    E  E  E     E  E  E  Q    E  E  E   
-----------0-------------|-----0-------------------|
-----------0----------0--|-----2-----x-------------|
-----1-----1----1-----0--|-----2-----x----1-----1--|
-----2----------2--------|--2-----2--x----2-----2--|
--2-----2----------2-----|--0-----0--2-------2-----|
--0-----0----------0-----|-----------0-------0-----|


  E  E  E  Q    E  E  E     E  E  E  Q    E  E  E   
-----------0-------------|-----0-------------------|
-----------0----------0--|-----2-----x-------------|
-----1-----1----1-----0--|-----2-----x----1-----1--|
-----2----------2--------|--2-----2--x----2-----2--|
--2-----2----------2-----|--0-----0--2-------2-----|
--0-----0----------0-----|-----------0-------0-----|


                                          <       
  E  E  E  Q    E  E  E     E  E  E  Q    Q.      
-----------0-------------|-----0-----0----0------|
-----------0----------0--|-----2-----0----0------|
-----1-----1----1-----0--|-----2-----1----1------|
-----2----------2--------|--2-----2--2----2------|
--2-----2----------2-----|--0-----0--2----2------|
--0-----0----------0-----|-----------0----0------|


  Q    E  E  Q    E  E     E  E  E  Q    E  E  E   
------------------------|-------------------------|
------------------------|-------------------------|
--1----1--1--6----6--6--|--6--6--4--1----1--1--1--|
--2----2--2--7----7--7--|--7--7--5--2----2--2--2--|
--2----2--2--7----7--7--|--7--7--5--2----2--2--2--|
--0----0--0--5----5--5--|--5--5--3--0----0--0--0--|


  Q    E  E  Q    E  E     E  E  E  Q    E  E  E   
------------------------|-------------------------|
------------------------|-------------------------|
--1----1--1--6----6--6--|--6--6--4--1----1--1--1--|
--2----2--2--7----7--7--|--7--7--5--2----2--2--2--|
--2----2--2--7----7--7--|--7--7--5--2----2--2--2--|
--0----0--0--5----5--5--|--5--5--3--0----0--0--0--|


  Q    E  E  Q    E  E     E  E  E  Q    E  E  E   
------------------------|-------------------------|
------------------------|-------------------------|
--1----1--1--6----6--6--|--6--6--4--1----1--1--1--|
--2----2--2--7----7--7--|--7--7--5--2----2--2--2--|
--2----2--2--7----7--7--|--7--7--5--2----2--2--2--|
--0----0--0--5----5--5--|--5--5--3--0----0--0--0--|


  Q    E  E  Q    E  E     W                 
------------------------|-------------------|
-------------2----2--2--|--2----------------|
--1----1--1--2----2--2--|--2----------------|
--2----2--2--2----2--2--|--2----------------|
--2----2--2--0----0--0--|--0----------------|
--0----0--0-------------|-------------------|


  E  E  E  Q    E  E  E     E  E  E  Q    E  E  E   
-----------0-------------|-----0-------------------|
-----------0----------0--|-----2-----x-------------|
-----1-----1----1-----0--|-----2-----x----1-----1--|
-----2----------2--------|--2-----2--x----2-----2--|
--2-----2----------2-----|--0-----0--2-------2-----|
--0-----0----------0-----|-----------0-------0-----|


  E  E  E  Q    E  E  E     E  E  E  Q    E  E  E   
-----------0-------------|-----0-------------------|
-----------0----------0--|-----2-----x-------------|
-----1-----1----1-----0--|-----2-----x----1-----1--|
-----2----------2--------|--2-----2--x----2-----2--|
--2-----2----------2-----|--0-----0--2-------2-----|
--0-----0----------0-----|-----------0-------0-----|


  E  E  E  Q    E  E  E     E  E  E  Q    E  E  E   
-----------0-------------|-----0-------------------|
-----------0----------0--|-----2-----x-------------|
-----1-----1----1-----0--|-----2-----x----1-----1--|
-----2----------2--------|--2-----2--x----2-----2--|
--2-----2----------2-----|--0-----0--2-------2-----|
--0-----0----------0-----|-----------0-------0-----|


  E  E  E  Q    E  E  E     E  E  E  Q    E  E  E   
-----------0-------------|-----0-------------------|
-----------0----------0--|-----2-----x-------------|
-----1-----1----1-----0--|-----2-----x----1-----1--|
-----2----------2--------|--2-----2--x----2-----2--|
--2-----2----------2-----|--0-----0--2-------2-----|
--0-----0----------0-----|-----------0-------0-----|


  E  E  E  Q    E  E  E     E  E  E  Q    E  E  E   
-----------0-------------|-----0-------------------|
-----------0----------0--|-----2-----x-------------|
-----1-----1----1-----0--|-----2-----x----1-----1--|
-----2----------2--------|--2-----2--x----2-----2--|
--2-----2----------2-----|--0-----0--2-------2-----|
--0-----0----------0-----|-----------0-------0-----|


  E  E  E  Q    E  E  E     E  E  E  Q    E  E  E   
-----------0-------------|-----0-------------------|
-----------0----------0--|-----2-----x-------------|
-----1-----1----1-----0--|-----2-----x----1-----1--|
-----2----------2--------|--2-----2--x----2-----2--|
--2-----2----------2-----|--0-----0--2-------2-----|
--0-----0----------0-----|-----------0-------0-----|


  E  E  E  Q    E  E  E     E  E  E  Q    E  E  E   
-----------0-------------|-----0-------------------|
-----------0----------0--|-----2-----x-------------|
-----1-----1----1-----0--|-----2-----x----1-----1--|
-----2----------2--------|--2-----2--x----2-----2--|
--2-----2----------2-----|--0-----0--2-------2-----|
--0-----0----------0-----|-----------0-------0-----|


  E  E  E  Q    E  E  E     E  E  E  Q    E  E  E   
-----------0-------------|-----0-------------------|
-----------0----------0--|-----2-----x-------------|
-----1-----1----1-----0--|-----2-----x----1-----1--|
-----2----------2--------|--2-----2--x----2-----2--|
--2-----2----------2-----|--0-----0--2-------2-----|
--0-----0----------0-----|-----------0-------0-----|


  E  E  E  Q    E  E  E     E  E  E  Q    E  E  E   
-----------0-------------|-----0-------------------|
-----------0----------0--|-----2-----x-------------|
-----1-----1----1-----0--|-----2-----x----1-----1--|
-----2----------2--------|--2-----2--x----2-----2--|
--2-----2----------2-----|--0-----0--2-------2-----|
--0-----0----------0-----|-----------0-------0-----|


                                          <       
  E  E  E  Q    E  E  E     E  E  E  Q    Q.      
-----------0-------------|-----0-----0----0------|
-----------0----------0--|-----2-----0----0------|
-----1-----1----1-----0--|-----2-----1----1------|
-----2----------2--------|--2-----2--2----2------|
--2-----2----------2-----|--0-----0--2----2------|
--0-----0----------0-----|-----------0----0------|


  Q    E  E  Q    E  E     E  E  E  Q    E  E  E   
------------------------|-------------------------|
------------------------|-------------------------|
--1----1--1--6----6--6--|--6--6--4--1----1--1--1--|
--2----2--2--7----7--7--|--7--7--5--2----2--2--2--|
--2----2--2--7----7--7--|--7--7--5--2----2--2--2--|
--0----0--0--5----5--5--|--5--5--3--0----0--0--0--|


  Q    E  E  Q    E  E     E  E  E  Q    E  E  E   
------------------------|-------------------------|
------------------------|-------------------------|
--1----1--1--6----6--6--|--6--6--4--1----1--1--1--|
--2----2--2--7----7--7--|--7--7--5--2----2--2--2--|
--2----2--2--7----7--7--|--7--7--5--2----2--2--2--|
--0----0--0--5----5--5--|--5--5--3--0----0--0--0--|


  Q    E  E  Q    E  E     E  E  E  Q    E  E  E   
------------------------|-------------------------|
------------------------|-------------------------|
--1----1--1--6----6--6--|--6--6--4--1----1--1--1--|
--2----2--2--7----7--7--|--7--7--5--2----2--2--2--|
--2----2--2--7----7--7--|--7--7--5--2----2--2--2--|
--0----0--0--5----5--5--|--5--5--3--0----0--0--0--|


  Q    E  E  Q    E  E     W                 
------------------------|-------------------|
-------------2----2--2--|--2----------------|
--1----1--1--2----2--2--|--2----------------|
--2----2--2--2----2--2--|--2----------------|
--2----2--2--0----0--0--|--0----------------|
--0----0--0-------------|-------------------|


  Q.     Q    E  E  E     Q.     Q    E  E  E   
--5-----------5-----5--|--5-----------5-----5--|
--6-----------6-----6--|--6-----------6-----6--|
--7-----------7-----7--|--7-----------7-----7--|
--7------7-------7-----|--7------7-------7-----|
--5------5-------5-----|--5------5-------5-----|
-----------------------|-----------------------|


   Q.      Q     E   E   E   
----------------------------|
---8-------------8-------8--|
---9-------------9-------9--|
--10------------10------10--|
--10------10--------10------|
---8-------8---------8------|


   Q.      Q     E   E   E     Q.     Q    E  E  E   
----------------------------|-----------------------|
---8-------------8-------8--|--5-----------5-----5--|
---9-------------9-------9--|--5-----------5-----5--|
--10------------10------10--|--7-----------7-----7--|
--10------10--------10------|--7------7-------7-----|
---8-------8---------8------|--5------5-------5-----|


  Q.     Q    E  E  E     Q.     Q    E  E  E   
-----------------------|-----------------------|
--5-----------5-----5--|--3-----------3-----3--|
--5-----------5-----5--|--4-----------4-----4--|
--7-----------7-----7--|--5-----------5-----5--|
--7------7-------7-----|--5------5-------5-----|
--5------5-------5-----|--3------3-------3-----|


  Q.     Q    E  E  E     Q.     Q    E  E  E   
-----------------------|--5-----------5-----5--|
--0-----------0-----0--|--6-----------6-----6--|
--1-----------1-----1--|--7-----------7-----7--|
--2-----------2-----2--|--7------7-------7-----|
--2------2-------2-----|--5------5-------5-----|
--0------0-------0-----|-----------------------|


  Q.     Q    E  E  E      Q.      Q     E   E   E   
--5-----------5-----5--|----------------------------|
--6-----------6-----6--|---8-------------8-------8--|
--7-----------7-----7--|---9-------------9-------9--|
--7------7-------7-----|--10------------10------10--|
--5------5-------5-----|--10------10--------10------|
-----------------------|---8-------8---------8------|


   Q.      Q     E   E   E     Q.     Q    E  E  E   
----------------------------|-----------------------|
---8-------------8-------8--|--5-----------5-----5--|
---9-------------9-------9--|--5-----------5-----5--|
--10------------10------10--|--7-----------7-----7--|
--10------10--------10------|--7------7-------7-----|
---8-------8---------8------|--5------5-------5-----|


  Q.     Q    E  E  E     W                 
-----------------------|-------------------|
--5-----------5-----5--|--3----------------|
--5-----------5-----5--|--4----------------|
--7-----------7-----7--|--5----------------|
--7------7-------7-----|--5----------------|
--5------5-------5-----|--3----------------|


   No idea on the solo!!                      
   Q                     Q      Q      Q      
---------------------------------------------|
---------------------------------------------|
--14b-------------------14b----14b----14b----|
---------------------------------------------|
---------------------------------------------|
---------------------------------------------|


   E    S  S  S  S    S    S    E      S  S  E   S  S  
------------------------------------------------------|
------------------------------------------------------|
--14b--14-12-14-14pb-14pb-14pb-14pbr---------------12-|
--------------------------------------14-12-14--14----|
------------------------------------------------------|
------------------------------------------------------|


   S  S  S  S  S  S  S  S  S  S  S  S  S  S  S  S  
--------------------------------------------------|
--12----------------------12-------------------12-|
--12-------------12-------12-------------12-14----|
-----14-14-12-14----14-12----14-14-12-14----------|
--------------------------------------------------|
--------------------------------------------------|


   S  S  S   S  S  S  S   S  S  T   T  S  S  E   T   T  
--12-----------15-17-----17-17-17-----------------------
--12-14-15s-17-------17b-17-17-17p-15------------------1
--------------------------------------16-14-16--14h-16--
--------------------------------------------------------
--------------------------------------------------------
--------------------------------------------------------


   S  S  S  S  S  S  S  S  S  S  S  S  S  S  S  S  
--15----------------------------15----------------|
--------15----15----14----15----------15----14----|
-----12----12----12----12----12----12----12----12-|
--------------------------------------------------|
--------------------------------------------------|
--------------------------------------------------|


   S  S  S  S  S  S  S  S  S  S  S  S  S  S  S  S   
--15----------------------------12-15-12-15-15-17b-|
--------14----15----15----15-----------------------|
-----12----12----12----12----12--------------------|
---------------------------------------------------|
---------------------------------------------------|
---------------------------------------------------|


   Wah + Delay on                                       
   S              S  S  S  S  S  S  S  S  S  S  S  S  S 
--15----------------------15----------15----------15----
--------------------15----------15----------15----------
-----------------12----12----12----12----12----12----12-
--------------------------------------------------------
--------------------------------------------------------
--------------------------------------------------------


   S  S  S  S  S  S  S  S  E   Q     E   
--15----------15------------------------|
--------15----------15----15--15b----L--|
-----12----12----12----12---------------|
----------------------------------------|
----------------------------------------|
----------------------------------------|


   E   S  S  E   S  S  S  S  S  S  E   S  S  
-------------------------15-----------------|
--17--17-15-17--17-15-17----17-15-17--17-15-|
--------------------------------------------|
--------------------------------------------|
--------------------------------------------|
--------------------------------------------|


   E   E   E   Q     S  S  E    S  S  
-----------------------15-17b--17-15-|
--17--17--15--17----17---------------|
-------------------------------------|
-------------------------------------|
-------------------------------------|
-------------------------------------|


   E    S  S  E    S  S  S   S  S  S  S  S  S  S  
--17b--17-15-17b--17-15-17b-15-17----------------|
----------------------------------17-15-17-15-15-|
-------------------------------------------------|
-------------------------------------------------|
-------------------------------------------------|
-------------------------------------------------|


   E   E   E   Q     S  S  E    S  S  
----------15--------15-15-17b--17-15-|
--17--17------17---------------------|
-------------------------------------|
-------------------------------------|
-------------------------------------|
-------------------------------------|


   Not sure about this part                             
   T                        T  T  T  T  T  T  T  T  T  T
---------------------------17-15-14----------17-15-14-15
--15--------------------------------17-15-14------------
--------------------------------------------------------
--------------------------------------------------------
--------------------------------------------------------
--------------------------------------------------------


   T  T  T  T  T  T  T  T  T  T  T  T  T  T  T  T  T  T 
--------------------------------------12-14-15-14-12----
-----12----------------------12-14-15----------------15-
--14----14-12----------13-14----------------------------
--------------16-14-16----------------------------------
--------------------------------------------------------
--------------------------------------------------------


   Tremolo                      
   Q       Q      Q      Q      
-------------------------------|
-------------------------------|
--13b-----15b----17b----18b----|
-------------------------------|
-------------------------------|
-------------------------------|


                              One extra bar was added  
   Q      Q      H            W                        
---------------------------|--------------------------|
---------------------------|--------------------------|
--19b----20b----22b--------|--------------------------|
---------------------------|--------------------------|
---------------------------|--------------------------|
---------------------------|--------------------------|


  Q    E  E  Q    E  E     E  E  E  Q    E  E  E   
------------------------|-------------------------|
------------------------|-------------------------|
--1----1--1--6----6--6--|--6--6--4--1----1--1--1--|
--2----2--2--7----7--7--|--7--7--5--2----2--2--2--|
--2----2--2--7----7--7--|--7--7--5--2----2--2--2--|
--0----0--0--5----5--5--|--5--5--3--0----0--0--0--|


  Q    E  E  Q    E  E     E  E  E  Q    E  E  E   
------------------------|-------------------------|
------------------------|-------------------------|
--1----1--1--6----6--6--|--6--6--4--1----1--1--1--|
--2----2--2--7----7--7--|--7--7--5--2----2--2--2--|
--2----2--2--7----7--7--|--7--7--5--2----2--2--2--|
--0----0--0--5----5--5--|--5--5--3--0----0--0--0--|


  Q    E  E  Q    E  E     E  E  E  Q    E  E  E   
------------------------|-------------------------|
------------------------|-------------------------|
--1----1--1--6----6--6--|--6--6--4--1----1--1--1--|
--2----2--2--7----7--7--|--7--7--5--2----2--2--2--|
--2----2--2--7----7--7--|--7--7--5--2----2--2--2--|
--0----0--0--5----5--5--|--5--5--3--0----0--0--0--|


  Q    E  E  Q    E  E     W                 
------------------------|-------------------|
-------------2----2--2--|--2----------------|
--1----1--1--2----2--2--|--2----------------|
--2----2--2--2----2--2--|--2----------------|
--2----2--2--0----0--0--|--0----------------|
--0----0--0-------------|-------------------|


  E  E  E  Q    E  E  E     E  E  E  Q    E  E  E   
-----------0-------------|-----0-------------------|
-----------0----------0--|-----2-----x-------------|
-----1-----1----1-----0--|-----2-----x----1-----1--|
-----2----------2--------|--2-----2--x----2-----2--|
--2-----2----------2-----|--0-----0--2-------2-----|
--0-----0----------0-----|-----------0-------0-----|


  E  E  E  Q    E  E  E     E  E  E  Q    E  E  E   
-----------0-------------|-----0-------------------|
-----------0----------0--|-----2-----x-------------|
-----1-----1----1-----0--|-----2-----x----1-----1--|
-----2----------2--------|--2-----2--x----2-----2--|
--2-----2----------2-----|--0-----0--2-------2-----|
--0-----0----------0-----|-----------0-------0-----|


  E  E  E  Q    E  E  E     E  E  E  Q    E  E  E   
-----------0-------------|-----0-------------------|
-----------0----------0--|-----2-----x-------------|
-----1-----1----1-----0--|-----2-----x----1-----1--|
-----2----------2--------|--2-----2--x----2-----2--|
--2-----2----------2-----|--0-----0--2-------2-----|
--0-----0----------0-----|-----------0-------0-----|


                                       ^       
  E  E  E  Q    E  Q       Q    Q.     Q.      
-----------0------------|--------------0------|
-----------0------------|--------------0------|
-----1-----1----1-------|--------------1------|
-----2----------2-------|--------------2------|
--2-----2----------2----|--------------2------|
--0-----0----------0----|--------------0------|


  W                   W                 
--L----------------|--L----------------|
--L----------------|--L----------------|
--L----------------|--L----------------|
--L----------------|--L----------------|
--L----------------|--L----------------|
--L----------------|--L----------------|


  W                  
-------------------||
-------------------||
-------------------||
-------------------||
-------------------||
-------------------||




Duration Legend
---------------
W - whole
H - half
Q - quarter
E - 8th
S - 16th
T - 32nd
X - 64th
. - note dotted
|-n-|  - n-tuplets


Tablature Legend
----------------
L - tied note
x - dead note
g - grace note
(n) - ghost note
> - accentuded note
NH - natural harmonic
AH - artificial harmonic
TH - tapped harmonic
SH - semi harmonic
PH - pitch harmonic
h - hammer on
p - pull off
b - bend
br - bendRelease
pb - preBend
pbr - preBendRelease
brb - bendReleaseBend
\n/ - tremolo bar dip
\n - tremolo bar dive
-/n - tremolo bar Release up
/n\ - tremolo bar inverted dip
/n - tremolo bar return
-\n - tremolo bar Release down
S - shift slide
s - legato slide
/ -  slide into from below or out of upwards
\ -  slide into from above or out of downwards
~ - vibrato
W - wide vibrato
tr - trill
TP - tremolo picking
T - tapping
S - slap
P - pop
< - fade in
^ - brush up
v - brush down
comments
We did not receive enough feedback on this tab! Please rate:
print report bad tab
1 2 3 4 5
I want to post or [tab]
guest
You may want to rate the tab now too:
select rating
Please do not post tabs as comments. Select "correction" instead!