Oops, an error
Loading. Please wait.

Nothing Left To Say But Goodbye Tab

ver3
ver3

Intro

Whole song

More versions @911Tabs.com
768 views 1 this week
no commentswrite comment
1 2 3 4 5
accurate
x 1
Autoscroll
+/-
esc
set tempo
stop
Contributor
Difficulty
Tuning
intermediate
D A D G B E
WARNING: You are trying to view
                                    content from Ultimate-Guitar.com
                                    in an unauthorized application,
                                    which is prohibited.

                                    Please use an official Ultimate
                                    Guitar Tabs application for iPhone,
                                    iPad or Android to access legitimate
                                    chords, guitar, bass, and drum tabs
                                    from Ultimate-Guitar.com database.

                                    Type "ultimate guitar tabs" in Apple
                                    App Store's or Android Market's
                                    search to find the application.
Song: Nothing Left to Say But Goodbye             
Band: Audioslave
Tabbed By: JohnnyR

Drop D


     E  E  E  E  E  E  E  E   
E||--------------------------|
B||--------3-----------7-----|
G||-----2-----2-----5-----5--|
D||--4-----------7-----------|
A||--------------------------|
D||--------------------------|


  E  E  E  E  E  E  S  S E     E  E  E  E  E  E  E  E   
--------------------7s-8-7--|--------------------------|
--------3--------6----------|--------3-----------7-----|
-----1-----1--7-------------|-----2-----2-----5-----5--|
--3-------------------------|--4-----------7-----------|
----------------------------|--------------------------|
----------------------------|--------------------------|


  E  E  E  E  E  E  S  S E     E  E  E  E  E  E  E  E   
--------------------7s-8-7--|--------------------------|
--------3--------6----------|--------3-----------7-----|
-----1-----1--7-------------|-----2-----2-----5-----5--|
--3-------------------------|--4-----------7-----------|
----------------------------|--------------------------|
----------------------------|--------------------------|


  E  E  E  E  E  E  S  S E     E  E  E  E  E  E  E  E   
--------------------7s-8-7--|--------------------------|
--------3--------6----------|--------3-----------7-----|
-----1-----1--7-------------|-----2-----2-----5-----5--|
--3-------------------------|--4-----------7-----------|
----------------------------|--------------------------|
----------------------------|--------------------------|


  E  E  E  E  E  E  S  S E     E  E  E  E  E  E  E  E   
--------------------7s-8-7--|--------------------------|
--------3--------6----------|--------3-----------7-----|
-----1-----1--7-------------|-----2-----2-----5-----5--|
--3-------------------------|--4-----------7-----------|
----------------------------|--------------------------|
----------------------------|--------------------------|


  E  E  E  E  E  E  S  S E     E  E  E  E  E  E  E  E   
--------------------7s-8-7--|--------------------------|
--------3--------6----------|--------3-----------7-----|
-----1-----1--7-------------|-----2-----2-----5-----5--|
--3-------------------------|--4-----------7-----------|
----------------------------|--------------------------|
----------------------------|--------------------------|


  E  E  E  E  E  E  S  S E     E  E  E  E  E  E  E  E   
--------------------7s-8-7--|--------------------------|
--------3--------6----------|--3-----3-----3-----3-----|
-----1-----1--7-------------|--3--x--3--x--3--x--3--x--|
--3-------------------------|--3--x--3--x--3--x--3--x--|
----------------------------|--1--1--1--1--1--1--1--1--|
----------------------------|--------------------------|


  E  E  E  E  E  E  E  E     E  E  E  E  E  E  E  E   
--------------------------|--------------------------|
--1-----1-----5-----5-----|--3-----3-----3-----3-----|
--2--x--2--x--6--x--6--x--|--3--x--3--x--3--x--3--x--|
--3--x--3--x--7--x--7--x--|--3--x--3--x--3--x--3--x--|
--3--3--3--3--7--7--7--7--|--1--1--1--1--1--1--1--1--|
--------------------------|--------------------------|


  Q    E  E  E  E  E  E     E  E  E  E  E  E  E  E   
--5----5--5--5--5--5--5--|--------------------------|
--6----6--6--6--6--6--6--|--3--3--3--3--3--3--3--3--|
--7----7--7--7--7--7--7--|--4--4--4--4--4--4--4--4--|
--7----7--7--7--7--7--7--|--5--5--5--5--5--5--5--5--|
--5----5--5--5--5--5--5--|--5--5--5--5--5--5--5--5--|
-------------------------|--------------------------|


  E  E  E  E  E  E  E  E     E  E  E  E  Q    Q     
--------------------------|------------------------|
--6--6--6--6--6--6--6--6--|--1--1--------5----5----|
--6--6--6--6--6--6--6--6--|--2--2--------6----6----|
--6--6--6--6--6--6--6--6--|--3--3--------7----7----|
--4--4--4--4--4--4--4--4--|--3--3--------7----7----|
--------------------------|--------2--3------------|


  E  E  E  E  E  E  E  E     E  E  E  E  E  E  S  S E   
--------------------------|--------------------7s-8-7--|
--------3-----------7-----|--------3--------6----------|
-----2-----2-----5-----5--|-----1-----1--7-------------|
--4-----------7-----------|--3-------------------------|
--------------------------|----------------------------|
--------------------------|----------------------------|


  E  E  E  E  E  E  E  E     E  E  E  E  E  E  S  S E   
--------------------------|--------------------7s-8-7--|
--------3-----------7-----|--------3--------6----------|
-----2-----2-----5-----5--|-----1-----1--7-------------|
--4-----------7-----------|--3-------------------------|
--------------------------|----------------------------|
--------------------------|----------------------------|


  E  E  E  E  E  E  E  E     E  E  E  E  E  E  S  S E   
--------------------------|--------------------7s-8-7--|
--------3-----------7-----|--------3--------6----------|
-----2-----2-----5-----5--|-----1-----1--7-------------|
--4-----------7-----------|--3-------------------------|
--------------------------|----------------------------|
--------------------------|----------------------------|


  E  E  E  E  E  E  E  E     E  E  E  E  E  E  S  S E   
--------------------------|--------------------7s-8-7--|
--------3-----------7-----|--------3--------6----------|
-----2-----2-----5-----5--|-----1-----1--7-------------|
--4-----------7-----------|--3-------------------------|
--------------------------|----------------------------|
--------------------------|----------------------------|


  E  E  E  E  E  E  E  E     E  E  E  E  E  E  E  E   
--------------------------|--------------------------|
--3-----3-----3-----3-----|--1-----1-----5-----5-----|
--3--x--3--x--3--x--3--x--|--2--x--2--x--6--x--6--x--|
--3--x--3--x--3--x--3--x--|--3--x--3--x--7--x--7--x--|
--1--1--1--1--1--1--1--1--|--3--3--3--3--7--7--7--7--|
--------------------------|--------------------------|


  E  E  E  E  E  E  E  E     Q    E  E  E  E  E  E   
--------------------------|--5----5--5--5--5--5--5--|
--3-----3-----3-----3-----|--6----6--6--6--6--6--6--|
--3--x--3--x--3--x--3--x--|--7----7--7--7--7--7--7--|
--3--x--3--x--3--x--3--x--|--7----7--7--7--7--7--7--|
--1--1--1--1--1--1--1--1--|--5----5--5--5--5--5--5--|
--------------------------|-------------------------|


  E  E  E  E  E  E  E  E     E  E  E  E  E  E  E  E   
--------------------------|--------------------------|
--3--3--3--3--3--3--3--3--|--6--6--6--6--6--6--6--6--|
--4--4--4--4--4--4--4--4--|--6--6--6--6--6--6--6--6--|
--5--5--5--5--5--5--5--5--|--6--6--6--6--6--6--6--6--|
--5--5--5--5--5--5--5--5--|--4--4--4--4--4--4--4--4--|
--------------------------|--------------------------|


        >  >                                       
  E  E  E  E  Q    Q       E  E  E  E  E  E  Q     
------------------------|-------------------------|
--1--1--------5----5----|--3--3--3--3--3--3--3----|
--2--2--------6----6----|--4--x--4--x--4--x--4----|
--3--3--------7----7----|--5--x--5--x--5--x--5----|
--3--3--------7----7----|--5--5--5--5--5--5--5----|
--------2--3------------|-------------------------|


  E  E  E  E  E  E  E  E     E  E  E  E  E  E  Q     
--------------1--1--1--1--|-------------------------|
--1--1--1--1--3--3--3--3--|--3--3--3--3--3--3--3----|
--2--2--2--2--2--2--2--2--|--4--x--4--x--4--x--4----|
--3--3--3--3--0--0--0--0--|--5--5--5--5--5--5--5----|
--3--3--3--3--------------|--5--5--5--5--5--5--5----|
--------------------------|-------------------------|


  E  E  E  E  E  E  E  E     E  E  E  E  E  E  E  E   
--------------------------|--------------5--5--5--5--|
--3--3--3--3--6--6--6--6--|--------------5--5--5--5--|
--3--3--3--3--7--7--7--7--|--7--7--7--7--6--6--6--6--|
--3--3--3--3--7--7--7--7--|--7--7--7--7--7--7--7--7--|
--1--1--1--1--5--5--5--5--|--5--5--5--5--7--7--7--7--|
--------------------------|--------------------------|


  E  E  E  E  E  E  E  E     E  E  E  E  E  E  E  E   
--5--5--5--5--5--5--5--5--|--------------------------|
--5--5--5--5--5--5--5--5--|--------3-----------7-----|
--6--6--6--6--6--6--6--6--|-----2-----2-----5-----5--|
--7--7--7--7--7--7--7--7--|--4-----------7-----------|
--7--7--7--7--7--7--7--7--|--------------------------|
--------------------------|--------------------------|


  E  E  E  E  E  E  S  S E     E  E  E  E  E  E  E  E   
--------------------7s-8-7--|--------------------------|
--------3--------6----------|--------3-----------7-----|
-----1-----1--7-------------|-----2-----2-----5-----5--|
--3-------------------------|--4-----------7-----------|
----------------------------|--------------------------|
----------------------------|--------------------------|


  E  E  E  E  E  E  S  S E     E  E  E  E  E  E  E  E   
--------------------7s-8-7--|--------------------------|
--------3--------6----------|--------3-----------7-----|
-----1-----1--7-------------|-----2-----2-----5-----5--|
--3-------------------------|--4-----------7-----------|
----------------------------|--------------------------|
----------------------------|--------------------------|


  E  E  E  E  E  E  S  S E     E  E  E  E  E  E  E  E   
--------------------7s-8-7--|--------------------------|
--------3--------6----------|--------3-----------7-----|
-----1-----1--7-------------|-----2-----2-----5-----5--|
--3-------------------------|--4-----------7-----------|
----------------------------|--------------------------|
----------------------------|--------------------------|


  E  E  E  E  E  E  S  S E     E  E  E  E  E  E  E  E   
--------------------7s-8-7--|--------------------------|
--------3--------6----------|--3-----3-----3-----3-----|
-----1-----1--7-------------|--3--x--3--x--3--x--3--x--|
--3-------------------------|--3--x--3--x--3--x--3--x--|
----------------------------|--1--1--1--1--1--1--1--1--|
----------------------------|--------------------------|


  E  E  E  E  E  E  E  E     E  E  E  E  E  E  E  E   
--------------------------|--------------------------|
--1-----1-----5-----5-----|--3-----3-----3-----3-----|
--2--x--2--x--6--x--6--x--|--3--x--3--x--3--x--3--x--|
--3--x--3--x--7--x--7--x--|--3--x--3--x--3--x--3--x--|
--3--3--3--3--7--7--7--7--|--1--1--1--1--1--1--1--1--|
--------------------------|--------------------------|


  Q    E  E  E  E  E  E     E  E  E  E  E  E  E  E   
--5----5--5--5--5--5--5--|--------------------------|
--6----6--6--6--6--6--6--|--3--3--3--3--3--3--3--3--|
--7----7--7--7--7--7--7--|--4--4--4--4--4--4--4--4--|
--7----7--7--7--7--7--7--|--5--5--5--5--5--5--5--5--|
--5----5--5--5--5--5--5--|--5--5--5--5--5--5--5--5--|
-------------------------|--------------------------|


                                   >  >              
  E  E  E  E  E  E  E  E     E  E  E  E  Q    Q      
--------------------------|-------------------------|
--6--6--6--6--6--6--6--6--|--1--1--------5----5-----|
--6--6--6--6--6--6--6--6--|--2--2--------6----6-----|
--6--6--6--6--6--6--6--6--|--3--3--------7----7-----|
--4--4--4--4--4--4--4--4--|--3--3--------7----7-----|
--------------------------|--------2--3-------7S----|


  Q    E  E  Q    Q       Q    E  E  Q    Q     
-----------------------|-----------------------|
-----------------------|-----------------------|
-----------------------|-----------------------|
-----------------------|-----------------------|
-------------1----0----|-------------6----5----|
--0----2--3------------|--5----7--8------------|


  Q    E  E  Q    Q       E  E  E  E  E  E  E  E   
-----------------------|--------------------------|
-----------------------|--------------------------|
-----------------------|--------------------------|
-------------7----5----|--4--4--4--4--3--3--3--3--|
--4----2--0------------|--------------------------|
-----------------------|--------------------------|


  Q    E  E  Q    Q       Q    E  E  Q    Q     
-----------------------|-----------------------|
-----------------------|-----------------------|
-----------------------|-----------------------|
-----------------------|-----------------------|
-------------1----0----|-------------6----5----|
--0----2--3------------|--5----7--8------------|


  Q    E  E  Q    Q       E  E  E  E  E  E  E  E   
-----------------------|--------------------------|
-----------------------|--------------------------|
-----------------------|--------------------------|
-------------7----5----|--4--4--4--4--3--3--3--3--|
--4----2--0------------|--------------------------|
-----------------------|--------------------------|


  Q    E  E  Q    Q       Q    E  E  Q    Q     
-----------------------|-----------------------|
-----------------------|-----------------------|
-----------------------|-----------------------|
-----------------------|-----------------------|
-------------1----0----|-------------6----5----|
--0----2--3------------|--5----7--8------------|


  Q    E  E  Q    Q       E  E  E  E  E  E  E  E   
-----------------------|--------------------------|
-----------------------|--------------------------|
-----------------------|--------------------------|
-------------7----5----|--4--4--4--4--3--3--3--3--|
--4----2--0------------|--------------------------|
-----------------------|--------------------------|


  Q    E  E  Q    Q       Q    E  E  Q    Q     
-----------------------|-----------------------|
-----------------------|-----------------------|
-----------------------|-----------------------|
-----------------------|-----------------------|
-------------1----0----|-------------6----5----|
--0----2--3------------|--5----7--8------------|


  Q    E  E  Q    Q       E  E  E  E  E  E  E  E   
-----------------------|--------------------------|
-----------------------|--------------------------|
-----------------------|--------------------------|
-------------7----5----|--4--4--4--4--3--3--3--3--|
--4----2--0------------|--------------------------|
-----------------------|--------------------------|


-----|-----|-----|-----|-------|-------|-----||
-----|-----|-----|-----|-------|-------|-----||
-----|-----|-----|-----|-------|-------|-----||
-----|-----|-----|-----|-------|-------|-----||
-----|-----|-----|-----|-------|-------|-----||
-----|-----|-----|-----|-------|-------|-----||




Duration Legend
---------------
W - whole
H - half
Q - quarter
E - 8th
S - 16th
T - 32nd
X - 64th
. - note dotted
|-n-|  - n-tuplets


Tablature Legend
----------------
L - tied note
x - dead note
g - grace note
(n) - ghost note
> - accentuded note
NH - natural harmonic
AH - artificial harmonic
TH - tapped harmonic
SH - semi harmonic
PH - pitch harmonic
h - hammer on
p - pull off
b - bend
br - bendRelease
pb - preBend
pbr - preBendRelease
brb - bendReleaseBend
\n/ - tremolo bar dip
\n - tremolo bar dive
-/n - tremolo bar Release up
/n\ - tremolo bar inverted dip
/n - tremolo bar return
-\n - tremolo bar Release down
S - shift slide
s - legato slide
/ -  slide into from below or out of upwards
\ -  slide into from above or out of downwards
~ - vibrato
W - wide vibrato
tr - trill
TP - tremolo picking
T - tapping
S - slap
P - pop
< - fade in
^ - brush up
v - brush down
comments
We did not receive enough feedback on this tab! Please rate:
1 2 3 4 5
I want to post or [tab]
guest
You may want to rate the tab now too:
select rating
Please do not post tabs as comments. Select "correction" instead!