Oops, an error
Loading. Please wait.

40 Nights Tab

2,974 views 1 this week
2 commentsread comments
1 2 3 4 5
accurate
x 3
Autoscroll
+/-
esc
set tempo
stop
Contributor
WARNING: You are trying to view
                                    content from Ultimate-Guitar.com
                                    in an unauthorized application,
                                    which is prohibited.

                                    Please use an official Ultimate
                                    Guitar Tabs application for iPhone,
                                    iPad or Android to access legitimate
                                    chords, guitar, bass, and drum tabs
                                    from Ultimate-Guitar.com database.

                                    Type "ultimate guitar tabs" in Apple
                                    App Store's or Android Market's
                                    search to find the application.
----------------------------------------------------------
               40 Nights - August Burns Red
----------------------------------------------------------
Tabbed by: Kristyn Lee
Email: spot_the_village_loony_836@hotmail.com

Tuning: Drop C

I'm not 100% sure that i got the notes in the intro correct. 
But give it a go anyway

Intro
D|------------------------------------|
A|------------------------------------|
F|------------------------------------|
C|------------------------------------|
G|----------5/7---8\5-------5-8-------|
C|---000-00----10-----0-000-5-8-------|
     ... ..           . ...
D|------------------------------------|
A|------------------------------------|
F|------------------------------------|
C|------------------------7-----10----|
G|---------5/7---8p7--------8p7-------|
C|---0-000-----0-----10-8-------------|
     . ...     .
D|------------------------------------|
A|------------------------------------|
F|------------------------------------|
C|------------------------------------|
G|----------5/7---8\5-------5-8-------|
C|---000-00----10-----0-000-5-8-------|
     ... ..           . ...

D|-----------------------------------------------|
A|--------------------10-------------------------|
F|------------9h10h12---------9-10----9-12p10----|
C|------------------------8p7------12------------|
G|-----8p7---------------------------------------|
C|---------10------------------------------------|

--------------------------------------------------------------------------
0:21
guitar 1
D|----------------------------------------------------------------------|
A|----------------------------------------------------------------------|
F|----------------------------------------------------------------------|
C|----------------------------------------------------------------------|
G|---0------0---0----------------0------0---0----------------5/8-8/12---|
C|---0-0000-0-0-0-000-00-0000-00-0-0000-0-0-0-000-00-0000-00-5/8-8/12---|
       ....   .   ... .. .... ..   ....   .   ... .. .... ..

D|-----------------------------------------------------------------|
A|-----------------------------------------------------------------|
F|-----------------------------------------------------------------|
C|-----------------------------------------------------------------|
G|---0------0---0--------8p7----10-0------0---0--------5/8-8/12----|
C|---0-0000-0-0-0-000-00-----10----0-0000-0-0-0-000-00-5/8-8/12----|
       ....   .   ... ..             ....   .   ... ..

0:32
guitar 2
D|----------------------------------------------------------------------|
A|----------------------------------------------------------------------|
F|---14-14-14-14-14-14-12\10---10--10--12p10------10------10---12p10----|
C|---------------------------12--12--12------1212----1212---12----------|
G|----------------------------------------------------------------------|
C|----------------------------------------------------------------------|

D|-------------------------------------|
A|---------------------17\14----14-----|
F|---12/14-----14------------14--------|
C|---------1212---1212-----------------|
G|-------------------------------------|
C|-------------------------------------|

D|----------------------------------------------------------------------|
A|----------------------------------------------------------------------|
F|---14-14-14-14-14-14-12\10---10--10--12p10------10------10---12p10----|
C|---------------------------12--12--12------1212----1212---12----------|
G|----------------------------------------------------------------------|
C|----------------------------------------------------------------------|

D|-------------------------------|
A|-------------------------------|
F|---12/14-10p9------9/10/12-----|
C|--------------10p8-------------|
G|-------------------------------|
C|-------------------------------|

---------------------------------------------------------------------------
0:43
there are some notes missing here and i'm pretty sure this part is only
half correct.
 
Guitar 1
D|---------------------------------------10h13-17p13-12h13-12------|
A|---------------------------------10h13---------------------13----|
F|-----------------------7-10-10h12--------------------------------|
C|-------7--7-------7-10-------------------------------------------|
G|---5-8---8--8-7-8------------------------------------------------|
C|-----------------------------------------------------------------|

D|---------12h13p12----------12h13h15---13p12----------------|
A|---11h13----------13-11h13---------15-------13p10----------|
F|--------------------------------------------------12p9-----|
C|-----------------------------------------------------------|
G|-----------------------------------------------------------|
C|-----------------------------------------------------------|

Guitar 2
D|----------------------------------------------------------|
A|----------------------------------------------------------|
F|--------14--14-------14--14------14--14-------14--14------|
C|---1212---12--15-1212--12--12----------15-----------15----|
G|-----------------------------1515--15-----1515--15--------|
C|----------------------------------------------------------|
     . .    .   .  . .   .   . . .   .      . .   .   
D|----------------------------------------------------------|
A|----------------------------------------------------------|
F|--------14--14-------14--14-------------------------------|
C|--------------15-----------15-----14--14-------14--14-----|
G|---1313---13-----1313--13-----1212--12--15-1212--12--15---|
C|----------------------------------------------------------|
     . .    .      . .   .      . .   .   .  . .   .   .

D|------------------------------|
A|------------------------------|
F|------------------------------|
C|------------------------------|
G|---------------------0--------|
C|---8h7p0-5h7p0-3h5p0-0--------|

---------------------------------------------------------------------------

1:00 
guitar 2   x1
D|---------------------------------------------------------------|
A|---------------------------------------------------------------|
F|---10101010101010101010101010101010101010101010101099999999----|
C|---7-7-7-7-7-7-7-7-10101010101010108-8-8-8-8-8-8-8-77777777----|
G|---------------------------------------------------------------|
C|---------------------------------------------------------------|
1:08
guitar 2
D|---------------------------------|
A|---------------------------------|
F|---10~----10~-----10~----9~------|x2
C|---7~-----10~-----8~-----7~------|
G|---0~-----10~-----8~-----7~------|
C|---0~-----10~-----8~-----7~------|
1:16
guitar 1
D|-------------------------------------------|
A|-------------------------------------------|
F|---------14----12--------------------------|
C|---12-15----15----15---12-15-14---12-------|
G|--------------------------------15--12-----|
C|-------------------------------------------|

D|-------------------------------------------|
A|-------------------------------------------|
F|---------14----12----------15--15-17-------|
C|---12-15----15----15--12-15--15------------|
G|-------------------------------------------|
C|-------------------------------------------|

----------------------------------------------------------------------------
1:24 
guitar 1
D|-------------------------------------------|
A|-------------------------------------------|
F|---------14----12--------------------------|
C|---12-15----15----15---12-15-14---12-------|
G|--------------------------------15--12-----|
C|-------------------------------------------|

D|-------------------------------------------|
A|-------------------------------------------|
F|---------14----12----------15--15-17-------|
C|---12-15----15----15--12-15--15------------|
G|-------------------------------------------|
C|-------------------------------------------|

guitar 2
D|---------------------------------------------------------------|
A|---------------------------------------------------------------|
F|---------------------------------------------------------------|
C|---------------------------------------------------------------|
G|---0000-000-00000000-000-00000000-000-00000000-000-00000000----|
C|---0000-000-00000000-000-00000000-000-00000000-000-00000000----|
     .... ... ........ ... ........ ... ........ ... ........

---------------------------------------------------------------------------

1:39
Both Guitars
D|------------------------------------------|
A|------------------------------------------|
F|------------------------------------------|
C|------------7h8--8p7----------------------|
G|---3h5-3h5-----------8-3h5---3h5-0-0-0----|
C|------0---0----0-----------0-----0-0-0----|
        .   .    .           .     . . .
D|------------------------------------------------------|
A|------------------------------------------------------|
F|-----------------------------5-----7h10-------10h12---|
C|------------7h8--8p7--------------------10h12---------|
G|---3h5-3h5-----------8-3h5-----5----------------------|
C|------0---0----0-----------0--------------------------|
        .   .    .           .
D|----------------------------------------------|
A|----------------------------------------------|
F|---------5-----------------------5------------|
C|---------------7h8---8p7----------------------|
G|---3h5-----5-------------8-3h5-----5-0-0-0----|
C|-------0-----0-----0-----------0-----0-0-0----|
         .     .     .           .     . . .

D|----------------------------------------------------------|
A|----------------------------------------------------------|
F|---------5-----------------------5----7h10-------10h12----|
C|---------------7h8---8p7-------------------10h12----------|
G|---3h5-----5-------------8-3h5-----5----------------------|
C|-------0-----0-----0-----------0--------------------------|
         .     .     .           .
---------------------------------------------------------------------------
1:56
Guitar 1
D|--------13---------17------------17---24---22-----|
A|---15--------15--------------18-------------------|
F|--------------------------------------------------|
C|--------------------------------------------------|
G|--------------------------------------------------|
C|--------------------------------------------------|
Guitar 2
D|--------------------------------------------------|
A|--------------------------------------------------|
F|--------------------------------------------------|
C|---0~---------0~---3~--------3~-----------7/10----|
G|---0~--000000-0~---3~-333333-3~---5h8-------------|
C|---0~--000000-0~---3~-333333-3~-------8h10--------|
         ......         ......
----------------------------------------------------------------------------
2:04
Guitar 1
D|-------------------------------------------------------------|
A|------15------------18p17---------15-------------20p18-------|
F|---15----17p15-17p15------17---15----17p15-17p15-------19----|
C|-------------------------------------------------------------|
G|-------------------------------------------------------------|
C|-------------------------------------------------------------|

D|---------------------18-17----20-18----24^^^-----|
A|------17----17-20p17-------18-------18-----------|
F|---17----17--------------------------------------|
C|-------------------------------------------------|
G|-------------------------------------------------|
C|-------------------------------------------------|
Guitar 2
D|------------------------------------------------------------------------|
A|------------------------------------------------------------------------|
F|------------------------------------------------------------------------|
C|------------------------------------------------------------------------|
G|---8-8888-8-8888-8-8888-8-8888-10-10101010-10-10101010-10-101010-10-----|
C|---8-8888-8-8888-8-8888-8-8888-10-10101010-10-10101010-10-101010-10~~---|
       ....   ....   ....   ....    . . . .     . . . .     . . . 
----------------------------------------------------------------------------
2:12
guitar 1
     t    t    t     t    t    t   t    t    t
D|--------13---------17------------17---24---22-----|
A|---15--------15--------------18-------------------|
F|--------------------------------------------------|
C|--------------------------------------------------|
G|--------------------------------------------------|
C|--------------------------------------------------|
Guitar 2
     t        t         t         t
D|-------------------------------------|
A|-------------------------------------|
F|-------------------------------------|
C|-------------------------------------|
G|--------------------------------8----|
C|---0--------12--------3--------------|

2:20
guitar 1
D|-------------------------------------------------------------|
A|------15------------18p17---------15-------------20p18-------|
F|---15----17p15-17p15------17---15----17p15-17p15-------19----|
C|-------------------------------------------------------------|
G|-------------------------------------------------------------|
C|-------------------------------------------------------------|

D|---------------------18-17----20-18----24^^^-----|
A|------17----17-20p17-------18-------18-----------|
F|---17----17--------------------------------------|
C|-------------------------------------------------|
G|-------------------------------------------------|
C|-------------------------------------------------|

2:20
guitar 2
D|------------------------------------------------------------|
A|------------------------------------------------------------|
F|------------------------------------------------------------|
C|------------------------------------------------------------|
G|---8-888888888888888-10-10101010101010101010101010101010----|
C|---8-888888888888888-10-10101010101010101010101010101010----|
       ...............    . . . . . . . . . . . . . . . .
---------------------------------------------------------------------------
2:29
Both Guitars
D|------------------------------------------------------------|
A|------------------------------------------------------------|
F|------------------------------------------------------------|
C|------------------------------------------------------------|
G|---0-00000-0-00000-3-33333-3-33333-1-11111-1-11111-0000~----|
C|---0-00000-0-00000-3-33333-3-33333-5-55555-5-55555-0000~----|
       .....   .....   .....   .....   .....   .....
D|------------------------------------------|
A|---17p15----18p15----17p15----18p15-------|
F|---------15-------15-------15-------------|
C|------------------------------------------|
G|------------------------------------------|
C|------------------------------------------|

D|------------------------------------------------------------|
A|------------------------------------------------------------|
F|------------------------------------------------------------|
C|------------------------------------------------------------|
G|---0-00000-0-00000-3-33333-3-33333-1-11111-1-11111-0000~----|
C|---0-00000-0-00000-3-33333-3-33333-5-55555-5-55555-0000~----|
       .....   .....   .....   .....   .....   .....

D|----------------------|
A|----------------------|
F|----------------------|
C|----------------------|
G|---5h8---8/10-0-0-0---|
C|-------8------0-0-0---|
                . . .
---------------------------------------------------------------------------
2:44
guitar 1
D|---12--12--12--12--12--12--13--13--13--13--13--13------|
A|-----15--15--15--15--15--15--15--15--15--15--15--15----|
F|-------------------------------------------------------|
C|-------------------------------------------------------|
G|-------------------------------------------------------|
C|-------------------------------------------------------|

D|---18--18--18--18--18--18--12--12--12--13--13--13------|
A|-----20--20--20--20--20--20--15--15--15--15--15--15----|
F|-------------------------------------------------------|
C|-------------------------------------------------------|
G|-------------------------------------------------------|
C|-------------------------------------------------------|

D|---12--12--12--12--12--12--13--13--13--13--13--13------|
A|-----15--15--15--15--15--15--15--15--15--15--15--15----|
F|-------------------------------------------------------|
C|-------------------------------------------------------|
G|-------------------------------------------------------|
C|-------------------------------------------------------|

D|---18--18--18--18--18--18--22--22--22--22--22--22------|
A|-----20--20--20--20--20--20--22--22--22--22--22--22----|
F|-------------------------------------------------------|
C|-------------------------------------------------------|
G|-------------------------------------------------------|
C|-------------------------------------------------------|

D|---22--22--22--22--22--22------|
A|-----22--22--22--22--22--22----|
F|-------------------------------|
C|-------------------------------|
G|-------------------------------|
C|-------------------------------|

D|------------------------------------------------------------|
A|------------------------------------------------------------|
F|------------------------------------------------------------|
C|------------------------------------------------------------|
G|---0-00000-0-00000-3-33333-3-33333-1-11111-1-11111-0000~----|
C|---0-00000-0-00000-3-33333-3-33333-5-55555-5-55555-0000~----|
       .....   .....   .....   .....   .....   .....
---------------------------------------------------------------------------
3:03
Both Guitars
D|------------------------------------------------------|
A|------------------------------------------------------|
F|------------------------------------------------------|
C|------------------------------------------------------|
G|---12\\--0----------3/5-3p0-3/5-0---------------------|
C|---12\\--0-0000-000-3/5-3p0-----0-0000-00-3/5-5-8^----|
             .... ...               .... ..                         
                                                          guitar 2
D|-----------------------------------18-------17-17---|-----------------|
A|--------------------------------------20-20---------|-11------10-10---|
F|----------------------------------------------------|----12-12--------|
C|----------------------------------------------------|-----------------|
G|---0---------3/5-3p0-3/5-0--------------------------|-----------------|
C|---0-0000-00-3/5-3p0-----0-0000-00------------------|-----------------|
       .... ..               .... ..
3:19
D|---12--12--12--12--12--12--13--13--13--13--13--13------|
A|-----15--15--15--15--15--15--15--15--15--15--15--15----|
F|-------------------------------------------------------|
C|-------------------------------------------------------|
G|-------------------------------------------------------|
C|-------------------------------------------------------|

D|---18--18--18--18--18--18--12--12--12--13--13--13------|
A|-----20--20--20--20--20--20--15--15--15--15--15--15----|
F|-------------------------------------------------------|
C|-------------------------------------------------------|
G|-------------------------------------------------------|
C|-------------------------------------------------------|

---------------------------------------------------------------------------
3:36
          "GOLIATH..."
D|---------------------------------------------|
A|---------------------------------------------|
F|---------------------------------------------|
C|---------------------------------------------|
G|---0-0000-000-0000-0-00-00-000-000-000-000---|
C|---0-0000-000-0000-0-00-00-000-000-000-000---|
       .... ... ....   .. .. ... ... ... ...
D|---------------------------------------------|
A|---------------------------------------------|
F|-------------------------------------12*-----|
C|---------------------------------------------|
G|---0-0000-000-00000-0-0000-000-00-00---------|
C|---0-0000-000-00000-0-0000-000-00-00---------|
       .... ... .....   .... ... .. ..

D|---------------------------------------------|
A|---------------------------------------------|
F|---------------------------------------------|
C|---------------------------------------------|
G|---0-0000-000-0000-0-00-00-000-000-000-000---|
C|---0-0000-000-0000-0-00-00-000-000-000-000---|
       .... ... ....   .. .. ... ... ... ...
D|---------------------------------------|
A|---------------------------------------|
F|---------------------------------------|
C|---------------------------------------|
G|---3h5---3h5---------------------0-----|
C|-------0-----0-7h8p7-5h7p5-3h5p3-0-----|
         .     .

The End

************************************

| *   pinch harmonic
| /   slide up
| \   slide down
| h   hammer-on
| p   pull-off
| ~   vibrato
| +   harmonic
| x   Mute note
| b   Bend
| pb  Pre-bend
| br  Bend release
| pbr Pre-bend release
| brb Bend release bend

************************************
comments
We did not receive enough feedback on this tab! Please rate:
1 2 3 4 5
2 comments total.
0 reply
kman123 wrote on October 1 2011, 06:36 am

Great work on the tab! Should be 5 stars, I reckon it's pretty much perfect. I'm too dumb to notice minor errors.

0 reply
klee1688 wrote on October 4 2011, 05:41 am

haha thank you. There are errors but i gave it a go anyway. For anyone who thinks it doesn't sound right they can go off my tab and change it to what they think sounds right.

I want to post or [tab]
guest
You may want to rate the tab now too:
select rating
Please do not post tabs as comments. Select "correction" instead!