Oops, an error
Loading. Please wait.

A Shot Below The Belt Tab

ver1
ver1

Whole song

Interactive

More versions @911Tabs.com
12,208 views 18 this week
4 commentsread comments
1 2 3 4 5
accurate
x 5
Autoscroll
+/-
esc
set tempo
stop
Contributor
WARNING: You are trying to view
                                    content from Ultimate-Guitar.com
                                    in an unauthorized application,
                                    which is prohibited.

                                    Please use an official Ultimate
                                    Guitar Tabs application for iPhone,
                                    iPad or Android to access legitimate
                                    chords, guitar, bass, and drum tabs
                                    from Ultimate-Guitar.com database.

                                    Type "ultimate guitar tabs" in Apple
                                    App Store's or Android Market's
                                    search to find the application.
A SHOT BELOW THE BELT
As recorded by August Burns Red
(From the 2005 Album THRILL SEEKER)

Transcribed by Austin Mills & August Burns Red
        

Words and Music by August Burns Red

Gtr I (D G C F A D) - 'w/dist'
Gtr II (D G C F A D) - 'w/dist'
Gtr III (D G C F A D) - 'w/dist'
Gtr IV (D G C F A D) - 'Pickscrape'
Gtr V (D G C F A D) - 'w/gritty clean sound'
Gtr VI (D G C F A D) - 'w/clean'

   Breakdown
    Fast Metalcore Q=165
    E5
   5/4
    Gtrs I, II
    PM------------------------------|    PM--------------|
    S S E E S S E E S S S S S S E   E Q  S S S S E E E E E
||--------------------------------|------------------------|
||o-------------------------------|------------------------|
||--------------------------------|------------------------|
||--------------------------------|------------------------|
||o-2-2-2-2-2-2-2---2-2-2-2-2-2-2-|-2----2-2-2-2-2-2---2---|
||--0-0-0-0-0-0-0---0-0-0-0-0-0-0-|-0----0-0-0-0-0-0---0---|


  PM------|   PM--------|     PM|     PM----------|    PM------|
  S S S S E E S S S S S E S E S S   S S E S S S S E Q  S S S S E
|---------------------------------|--------------------------------||
|---------------------------------|-------------------------------o||
|---------------------------------|--------------------------------||
|---------------------------------|--------------------------------||
|-2-2-2-2-2---2-2-2-2-2-2-----2-2-|---2-2-2-2-2-2-2----2-2-2-2-2--o||
|-0-0-0-0-0---0-0-0-0-0-0-----0-0-|---0-0-0-0-0-0-0----0-0-0-0-0---||


  Gtr III
  E    E E  E   E E E    E   E   E   E E E  S  S S S E E E E E
|----------------------------------|----------------------------|
|----------------------------------|----------------------------|
|----------------------------------|----------------------------|
|--------9-10---7-9----------------|-------10-10-9-9-7---5-4-7--|
|-7---10------------9---10---6---9-|-7-----------------3--------|
|----------------------------------|---7s8----------------------|
|
| Gtrs I, II
| PM---------------------------------|      PM---------------|
| S S  E E  S S E E S S  S S S S E   E Q    S  S S S E E E E E
|----------------------------------|----------------------------|
|----------------------------------|----------------------------|
|----------------------------------|----------------------------|
|----------------------------------|----------------------------|
|-2-2--2-2--2-2-2---2-2--2-2-2-2-2-|-2------2--2-2-2-2-2---2----|
|-0-0--0-0--0-0-0---0-0--0-0-0-0-0-|-0------0--0-0-0-0-0---0----|


  E   E   E E E   E   E   E   E E     E   E S S S S E S S S S E   E   E
|-----------------------------------|-----------------------------------|
|-------------5p==0---1p==0---3p0---|-7---------------------------------|
|-----------7-----------------------|-----8-----------------------------|
|-----7s==5-------------------------|-----------------------------------|
|-5---------------------------------|-----------------------------7---6-|
|-----------------------------------|-------0-0-0-0-0-3-2-0-7-8---------|
|
| PM------|   PM--------|       PM|     PM----------|         PM|   PM|
| S S S S E E S S S S S E   S E S S   S S E S S S S E Q       S S S S E
|-----------------------------------|-----------------------------------|
|-----------------------------------|-----------------------------------|
|-----------------------------------|-----------------------------------|
|-----------------------------------|-----------------------------------|
|-2-2-2-2-2---2-2-2-2-2-2-------2-2-|---2-2-2-2-2-2-2---------2-2---2-2-|
|-0-0-0-0-0---0-0-0-0-0-0-------0-0-|---0-0-0-0-0-0-0---------0-0---0-0-|


  E    E E  E   E E E    E   E   E   E E E  S  S S S E E E E E
|----------------------------------|----------------------------|
|----------------------------------|----------------------------|
|----------------------------------|----------------------------|
|--------9-10---7-9----------------|-------10-10-9-9-7---5-4-7--|
|-7---10------------9---10---6---9-|-7-----------------3--------|
|----------------------------------|---7s8----------------------|
|
| PM---------------------------------|      PM---------------|
| S S  E E  S S E E S S  S S S S E   E Q    S  S S S E E E E E
|----------------------------------|----------------------------|
|----------------------------------|----------------------------|
|----------------------------------|----------------------------|
|----------------------------------|----------------------------|
|-2-2--2-2--2-2-2---2-2--2-2-2-2-2-|-2------2--2-2-2-2-2---2----|
|-0-0--0-0--0-0-0---0-0--0-0-0-0-0-|-0------0--0-0-0-0-0---0----|


  E   E   E E E   E   E   E   E E     E   E S S S S E S S S S E   E   E
|-----------------------------------|-----------------------------------||
|-------------5p==0---1p==0---3p0---|-7---------------------------------||
|-----------7-----------------------|-----8-----------------------------||
|-----7s==5-------------------------|-----------------------------------||
|-5---------------------------------|-----------------------------7---6-||
|-----------------------------------|-------0-0-0-0-0-3-2-0-7-8---------||
|
| PM------|   PM--------|       PM|     PM----------|         PM------|
| S S S S E E S S S S S E   S E S S   S S E S S S S E Q       S S S S E
|-----------------------------------|-----------------------------------||
|-----------------------------------|-----------------------------------||
|-----------------------------------|-----------------------------------||
|-----------------------------------|-----------------------------------||
|-2-2-2-2-2---2-2-2-2-2-2-------2-2-|---2-2-2-2-2-2-2---------2-2-2-2-2-||
|-0-0-0-0-0---0-0-0-0-0-0-------0-0-|---0-0-0-0-0-0-0---------0-0-0-0-0-||


 Pre-Verse
  N.C.
 4/4
  Gtr IV
  TP         TP       TP
  W          W        a
|----------|------------||
|----------|------------||
|----------|------------||
|----------|------------||
|-xs=======|=xs=======x-||
|-xs=======|=xs=======x-||


   Verse
    E5                            Bsus4/E
    Gtr III
     W                             W
||------------------------------|--0--------------------------|
||o-----------------------------|--0--------------------------|
||------------------------------|-----------------------------|
||---2--------------------------|-(2)-------------------------|
||o--2--------------------------|-(2)-------------------------|
||---0--------------------------|-(0)-------------------------|
|
|   Gtr I
|    S S E  S S E  S S E  S S E    S S E  S S E  S S E  S S E
||--12p0-0-12p0-0-15p0-0-14p0-0-|-12p0-0-12p0-0-15p0-0-14p0-0-|
||o-----------------------------|-----------------------------|
||------------------------------|-----------------------------|
||------------------------------|-----------------------------|
||o-----------------------------|-----------------------------|
||------------------------------|-----------------------------|
|
|   Gtr II
|    S S E  S S E  S S E  S S E    S S E  S S E  S S E  S S E
||---3p0-0--3p0-0--7p0-0--5p0-0-|--3p0-0--3p0-0--7p0-0--5p0-0-|
||o-----------------------------|-----------------------------|
||------------------------------|-----------------------------|
||------------------------------|-----------------------------|
||o-----------------------------|-----------------------------|
||------------------------------|-----------------------------|


  E5                            C5          D5
   W                            H           H
|-----------------------------|-----------------------------||
|-----------------------------|----------------------------o||
|-----------------------------|-5-----------7---------------||
|--2--------------------------|-5-----------7---------------||
|--2--------------------------|-3-----------5--------------o||
|--0--------------------------|-----------------------------||
|
|  S S E  S S E  S S E  S S E   S S E S S E S S E  S S E
|-12p0-0-12p0-0-15p0-0-14p0-0-|-7p0-0-7p0-0-8p0-0-10p0-0----||
|-----------------------------|----------------------------o||
|-----------------------------|-----------------------------||
|-----------------------------|-----------------------------||
|-----------------------------|----------------------------o||
|-----------------------------|-----------------------------||
|
|  S S E  S S E  S S E  S S E   S S E S S E S S E  S S E
|--3p0-0--3p0-0--7p0-0--5p0-0-|-2p0-0-2p0-0-3p0-0--5p0-0----||
|-----------------------------|----------------------------o||
|-----------------------------|-----------------------------||
|-----------------------------|-----------------------------||
|-----------------------------|----------------------------o||
|-----------------------------|-----------------------------||


    E5
    Gtr I
    PM----|         PM----|     PM      PM------|     PM------|
    S S S E   E   S S S S E   S E   E   S E   S E E   S E   S E
||--------------------------------|-----------------------------|
||o-------------------------------|-----------------------------|
||--------------------------------|-----------------------------|
||--------------------------------|-----------------------------|
||o-2-2-2-2---------2-2-2-2-----2-|-----2-2---2-2-----2-2---2-2-|
||--0-0-0-0---------0-0-0-0-----0-|-----0-0---0-0-----0-0---0-0-|
|
|   Gtr II
|   S S E   S S E   S S E   S S E   S S E   S S E S S E   S S E
||--3p0-0---3p0-0---7p0-0---5p0-0-|-3p0-0---3p0-0-7p0-0---5p0-0-|
||o-------------------------------|-----------------------------|
||--------------------------------|-----------------------------|
||--------------------------------|-----------------------------|
||o-------------------------------|-----------------------------|
||--------------------------------|-----------------------------|


              PM----|     PM      PM--------------------|
  H           S S S E   S E   E   S E   S E S S S S E   E
|---------------------------|-------------------------------||
|---------------------------|------------------------------o||
|---------------------------|-------------------------------||
|---------------------------|-------------------------------||
|-------------2-2-2-2-----2-|-----2-2---2-2-2-2-2-2-2---2--o||
|-------------0-0-0-0-----0-|-----0-0---0-0-0-0-0-0-0---0---||
|
| S S E S S E S S E   S S E   S S E   S S E S S E   S S E
|-3p0-0-3p0-0-7p0-0---5p0-0-|-2p0-0---2p0-0-3p0-0---5p0-0---||
|---------------------------|------------------------------o||
|---------------------------|-------------------------------||
|---------------------------|-------------------------------||
|---------------------------|------------------------------o||
|---------------------------|-------------------------------||


  E5                                           C5
   PM|
   E  E  H.                  +H.           +E  S S
|--------------------------|-----------------------|
|--------------------------|-----------------------|
|--------------------------|-----------------------|
|--9--9--9-----------------|-(9)-----------(9)-5-5-|
|--7--7--7-----------------|-(7)-----------(7)-3-3-|
|--------------------------|-----------------------|
|
|  E  E  E   E  E  E  E  E    E  E E E E E  E  E
|--------------------------|-----------------------|
|--------------------------|-----------------------|
|-12-12-12--12-------------|-----------------------|
|--------------10-10-10-10-|--9--9-9-9-9-9--9--9---|
|--------------------------|-----------------------|
|--------------------------|-----------------------|


   PM|
   E  E  H.                  +W
|--------------------------|-------------------|
|--------------------------|-------------------|
|--------------------------|-------------------|
|--5--5--5-----------------|-(5)---------------|
|--3--3--3-----------------|-(3)---------------|
|--------------------------|-------------------|
|
|  E  E  E   E  E  E  E  E    E  E E E E E E E
|--------------------------|-------------------|
|--------------------------|-------------------|
|-12-12-12--12-------------|-------------------|
|--------------10-10-10-10-|--9--9-9-9-9-9-9-9-|
|--------------------------|-------------------|
|--------------------------|-------------------|


  D5
   PM|
   E  E  H.                  +W
|--------------------------|-------------------|
|--------------------------|-------------------|
|--------------------------|-------------------|
|--7--7--7-----------------|-(7)---------------|
|--5--5--5-----------------|-(5)---------------|
|--------------------------|-------------------|
|
|  E  E  E   E  E  E  E  E    E  E E E E E E E
|--------------------------|-------------------|
|--------------------------|-------------------|
|-12-12-12--12-------------|-------------------|
|--------------10-10-10-10-|--9--9-9-9-9-9-9-9-|
|--------------------------|-------------------|
|--------------------------|-------------------|


  E5                   D5         C5
   PM|      PM    PM|       PM--|   PM|
   E  E  E  E  E  E  E  E   E E E E E E E E
|-------------------------|-----------------|
|-------------------------|-----------------|
|-------------------------|-----------------|
|--------9-----9--------7-|-------5-----5-5-|
|--7--7--7--7--7--7--7--5-|-5-5-5-3-3-3-3-3-|
|-------------------------|-----------------|
|
|  E  E  E  E  E  E  E  E   E E E E E E E E
|-------------------------|-----------------|
|-------------------------|-----------------|
|-12-12-12-12-------------|-----------------|
|-------------10-10-10-10-|-9-9-9-9-9-9-9-9-|
|-------------------------|-----------------|
|-------------------------|-----------------|


  N.C.
   PM|      PM       PM     PM|   PM    PM
   E  E  E  E  E  E  E  E   E E E E E E E E
|-------------------------|-----------------|
|-------------------------|-----------------|
|--------------0----------|---------0-------|
|--------9--------9-----9-|-----9-----9---9-|
|--7--7-----7--------7----|-7-7---7-----7---|
|-------------------------|-----------------|
|
|  E  E  E  E  E  E  E  E   E E E E E E E E
|-------------------------|-----------------|
|-------------------------|-----------------|
|-12-12-12-12-------------|-----------------|
|-------------10-10-10-10-|-9-9-9-9-9-9-9-9-|
|-------------------------|-----------------|
|-------------------------|-----------------|


   PM|      PM    PM|       PM|     PM    PM
   E  E  E  E  E  E  E  E   E E E E E E E E
|-------------------------|-----------------|
|-------------------------|-----------------|
|--------------5--------4-|-----0-----0-----|
|--------5----------------|-------5-----5---|
|--3--3-----3-----3--3----|-3-3-----3-----3-|
|-------------------------|-----------------|
|
|  E  E  E  E  E  E  E  E   E E E E E E E E
|-------------------------|-----------------|
|-------------------------|-----------------|
|-12-12-12-12-------------|-----------------|
|-------------10-10-10-10-|-9-9-9-9-9-9-9-9-|
|-------------------------|-----------------|
|-------------------------|-----------------|


   PM|      PM    PM|       PM|   PM  PM  PM-
   E  E  E  E  E  E  E  E   E E E E E E E E
|-------------------------|-----------------|
|-------------------------|-----------------|
|-------------------------|-----7---5---4---|
|--------4-----7--------5-|-----------------|
|--5--5-----5-----5--5----|-5-5---5---5---5-|
|-------------------------|-----------------|
|
|  E  E  E  E  E  E  E  E   E E E E E E E E
|-------------------------|-----------------|
|-------------------------|-----------------|
|-12-12-12-12-------------|-----------------|
|-------------10-10-10-10-|-9-9-9-9-9-9-9-9-|
|-------------------------|-----------------|
|-------------------------|-----------------|


  E5                   D5         C5
 ----|      PM    PM|       PM--|   PM|
   E  E  E  E  E  E  E  E   E E E E E E E E
|-------------------------|-----------------|
|-------------------------|-----------------|
|-------------------------|-----------------|
|--------9-----9--------7-|-------5-----5-5-|
|--7--7--7--7--7--7--7--5-|-5-5-5-3-3-3-3-3-|
|-------------------------|-----------------|
|
|  E  E  E  E  E  E  E  E   E E E E E E E E
|-------------------------|-----------------|
|-------------------------|-----------------|
|-12-12-12-12-------------|-----------------|
|-------------10-10-10-10-|-9-9-9-9-9-9-9-9-|
|-------------------------|-----------------|
|-------------------------|-----------------|


  N.C.
   PM|     PM       PM      PM|     PM      PM
   E  E E  E  E  E  E  E    E E  E  E  E  E E E
|------------------------|----------------------|
|------------------------|----------------------|
|-------------0----------|-------------0--------|
|-------9--------9-----9-|-------9--------9---9-|
|--7--7----7--------7----|--7-7-----7-------7---|
|------------------------|----------------------|
|
|  E  E E  E  E  E  E  E    E E  E  E  E  E E E
|------------------------|----------------------|
|------------------------|----------------------|
|-12------------------12-|----------------------|
|----10-9-------12-10----|-10-9-------12-10-9---|
|---------10-12----------|------10-12---------9-|
|------------------------|----------------------|


   PM|     PM    PM|        PM|        PM     PM
   E  E E  E  E  E  E  E    E E  E  E  E  E E E
|------------------------|----------------------|
|------------------------|----------------------|
|-------------5--------4-|-------0--------0-----|
|-------5----------------|----------5-------5---|
|--3--3----3-----3--3----|--3-3--------3------3-|
|------------------------|----------------------|
|
|  E  E E  E  E  E  E  E    E E  E  E  E  E E E
|------------------------|----------------------|
|------------------------|----------------------|
|-12------------------12-|----------------------|
|----10-9-------12-10----|-10-9-------12-10-9---|
|---------10-12----------|------10-12---------9-|
|------------------------|----------------------|


   PM|     PM    PM|        PM|     PM    PM  PM-
   E  E E  E  E  E  E  E    E E  E  E  E  E E E
|------------------------|----------------------|
|------------------------|----------------------|
|------------------------|-------7-----5----4---|
|-------4-----7--------5-|----------------------|
|--5--5----5-----5--5----|--5-5-----5-----5---5-|
|------------------------|----------------------|
|
|  E  E E  E  E  E  E  E    E E  E  E  E  E E E
|------------------------|----------------------|
|------------------------|----------------------|
|-12------------------12-|----------------------|
|----10-9-------12-10----|-10-9-------12-10-9---|
|---------10-12----------|------10-12---------9-|
|------------------------|----------------------|


  E5                  D5           C5
 ----|     PM    PM|        PM--|      PM|
   E  E E  E  E  E  E  E    E E  E  E  E  E E E
|------------------------|----------------------||
|------------------------|----------------------||
|------------------------|----------------------||
|-------9-----9--------7-|----------5-------5-5-||
|--7--7-7--7--7--7--7--5-|--5-5--5--3--3--3-3-3-||
|------------------------|----------------------||
|
|  E  E E  E  E  E  E  E    E E  E  E  E  E E E
|------------------------|----------------------||
|------------------------|----------------------||
|-12------------------12-|----------------------||
|----10-9-------12-10----|-10-9-------12-10-9---||
|---------10-12----------|------10-12---------9-||
|------------------------|----------------------||


 Interlude
  Slower Q=150
  E5      C/E      E5        A5/EE5  G
  Gtrs I, II
  >
  W                    +W
|--------------------|---------------------|
|--------------------|---------------------|
|--------------------|---------------------|
|-2------------------|-(2)-----------------|
|-2------------------|-(2)-----------------|
|-0------------------|-(0)-----------------|
|
| Gtr V
| E E E E  E  E  E E    E  E E E E E  E  E
|--------------------|---------------------|
|--------------------|---------------------|
|--------------------|---------------------|
|-9-9-9-9-10-10-10-9-|--9--9-7-7-9-9--9--9-|
|-7-7-7-7--7--7--7-7-|--7--7-7-7-7-7-10-10-|
|--------------------|---------------------|


  E5        C/E      E5        A5/EE5  G
  +W                     +W
|----------------------|---------------------|
|----------------------|---------------------|
|----------------------|---------------------|
|-(2)------------------|-(2)-----------------|
|-(2)------------------|-(2)-----------------|
|-(0)------------------|-(0)-----------------|
|
|  E  E E E  E  E  E E    E  E E E E E  E  E
|----------------------|---------------------|
|----------------------|---------------------|
|----------------------|---------------------|
|--9--9-9-9-10-10-10-9-|--9--9-7-7-9-9--9--9-|
|--7--7-7-7--7--7--7-7-|--7--7-7-7-7-7-10-10-|
|----------------------|---------------------|


             Am/C     C5        C     C5    C
  Gtr V
   E  E E  E  E  E  E  E    E E  E  E  E  E E E
|------------------------|----------------------|
|------------------------|----------------------|
|------------------------|----------------------|
|--5--5-5--5--7--7--7--5-|--5-5--4--4--5--5-4-4-|
|--3--3-3--3--3--3--3--3-|--3-3--3--3--3--3-3-3-|
|------------------------|----------------------|
|
| Gtr VI
|  E  E E  E  E  E  E  E    E E  E  E  E  E E E
|------------------------|----------------------|
|------------------------|----------------------|
|-12------------------12-|----------------------|
|----10-9-------12-10----|-10-9-------12-10-9---|
|---------10-12----------|------10-12---------9-|
|------------------------|----------------------|


                      N.C.
   E  E E  E  E  E  E  E   +E  E  E  E  E  E E E
|------------------------|-----------------------|
|------------------------|-----------------------|
|------------------------|-----------------------|
|--4--4-4--4--4--4--4--1-|-(1)-1--1--1--1--1-1-1-|
|--3--3-3--3--3--3--3--0-|-(0)-0--0--0--0--0-0-0-|
|------------------------|-----------------------|
|
|  E  E E  E  E  E  E  E    E  E  E  E  E  E E E
|------------------------|-----------------------|
|------------------------|-----------------------|
|-12------------------12-|-----------------------|
|----10-9-------12-10----|-10--9-------12-10-9---|
|---------10-12----------|-------10-12---------9-|
|------------------------|-----------------------|


  E5         C/E      E5        A5/E  E5    G
   E  E E  E  E  E  E  E    E E  E  E  E  E  E  E
|------------------------|------------------------|
|------------------------|------------------------|
|------------------------|------------------------|
|--9--9-9--9-10-10-10--9-|--9-9--7--7--9--9--9--9-|
|--7--7-7--7--7--7--7--7-|--7-7--7--7--7--7-10-10-|
|------------------------|------------------------|
|
|  E  E E  E  E  E  E  E    E E  E  E  E  E  E  E
|------------------------|------------------------|
|------------------------|------------------------|
|-12------------------12-|------------------------|
|----10-9-------12-10----|-10-9-------12-10--9----|
|---------10-12----------|------10-12-----------9-|
|------------------------|------------------------|


  E5         C/E      E5        A5/E  E5    G
   E  E E  E  E  E  E  E    E E  E  E  E  E  E  E
|------------------------|------------------------|
|------------------------|------------------------|
|------------------------|------------------------|
|--9--9-9--9-10-10-10--9-|--9-9--7--7--9--9--9--9-|
|--7--7-7--7--7--7--7--7-|--7-7--7--7--7--7-10-10-|
|------------------------|------------------------|
|
|  E  E E  E  E  E  E  E    E E  E  E  E  E  E  E
|------------------------|------------------------|
|------------------------|------------------------|
|-12------------------12-|------------------------|
|----10-9-------12-10----|-10-9-------12-10--9----|
|---------10-12----------|------10-12-----------9-|
|------------------------|------------------------|


  C5         Am/C     C5        C     C5    C
   E  E E  E  E  E  E  E    E E  E  E  E  E E E
|------------------------|----------------------|
|------------------------|----------------------|
|------------------------|----------------------|
|--5--5-5--5--7--7--7--5-|--5-5--4--4--5--5-4-4-|
|--3--3-3--3--3--3--3--3-|--3-3--3--3--3--3-3-3-|
|------------------------|----------------------|
|
|  E  E E  E  E  E  E  E    E E  E  E  E  E E E
|------------------------|----------------------|
|------------------------|----------------------|
|-12------------------12-|----------------------|
|----10-9-------12-10----|-10-9-------12-10-9---|
|---------10-12----------|------10-12---------9-|
|------------------------|----------------------|


                      N.C.
   E  E E  E  E  E  E  E   +E  E  E  E  E  E E E
|------------------------|-----------------------||
|------------------------|-----------------------||
|------------------------|-----------------------||
|--4--4-4--4--4--4--4--1-|-(1)-1--1--1--1--1-1-1-||
|--3--3-3--3--3--3--3--0-|-(0)-0--0--0--0--0-0-0-||
|------------------------|-----------------------||
|
|  E  E E  E  E  E  E  E    E  E  E  E  E  E E E
|------------------------|-----------------------||
|------------------------|-----------------------||
|-12------------------12-|-----------------------||
|----10-9-------12-10----|-10--9-------12-10-9---||
|---------10-12----------|-------10-12---------9-||
|------------------------|-----------------------||


 Verse
  Faster Q=165
  E5    C/E  E5      A5/E  E5    G  E5        C/E      Dsus2C/E    E5  A5/E
  Gtrs I, II
  PM|   PM   PM|     PM|   PM  PM   PM----|   PM   PM|      PM|    PM  PM  PM
  E E E E  E E E E   E E E E E E  E E   E E E E  E E E  E   E E  E E E E E E
|------------------|------------------|-------------------|------------------|
|------------------|------------------|-------------------|------------------|
|------------------|------------------|-------------------|------------------|
|-----9---10-----9-|-----7---9----9---|-----9---10-----12-|-----10---9---7---|
|-7-7-7-7--7-7-7-7-|-7-7-7-7-7-7-10-7-|-7-7-7-7--7-7-7--7-|-7-7--7-7-7-7-7-7-|
|------------------|------------------|-------------------|------------------|


  C5    Am/CC5      C     C5  C                     N.C.
  PM|   PM  PM|     PM|   PM  PM  PM----|   PM  PM|     PM|   PM
  E E E E E E E E   E E E E E E E E   E E E E E E E E   E E E E E E E E
|-----------------|-----------------|-----------------|-----------------|
|-----------------|-----------------|-----------------|-----------------|
|-----------------|-----------------|-----------------|-----------------|
|-----5---7-----5-|-----4---5---4---|-----4---4-----1-|-----1---1-1-1-1-|
|-3-3-3-3-3-3-3-3-|-3-3-3-3-3-3-3-3-|-3-3-3-3-3-3-3-0-|-0-0-0-0-0-0-0-0-|
|-----------------|-----------------|-----------------|-----------------|


  C5        C/E    C5        A5/E    C5      G    C5
  Gtrs I, II
  PM--|     PM     PM|       PM|     PM    PM     PM-
  E   E E   E  E   E E E     E E E   E E   E  E   E
|--------------------------|------------------------|
|--------------------------|------------------------|
|--------------------------|------------------------|
|-------9-----10-------9---|-----7-----9------9-----|
|-7---7-7---7--7---7-7-7---|-7-7-7---7-7---7-10---7-|
|--------------------------|------------------------|
|
| Gtr III
| S S E S S E  S S E E S S   E E S S E S S E  S S E
|-3p0-0-7p0-0--8p0-0-0-7p0-|-0-0-5p0-0-7p0-0--3p0-0-|
|--------------------------|------------------------|
|--------------------------|------------------------|
|--------------------------|------------------------|
|--------------------------|------------------------|
|--------------------------|------------------------|


            C/E        Dsus2/EC/E      C5    A5/E
 -----|     PM     PM|        PM|      PM    PM    PM
  E   E E   E  E   E E  E     E E  E   E E   E E   E
|---------------------------|-------------------------|
|---------------------------|-------------------------|
|---------------------------|-------------------------|
|-------9-----10-------12---|-----10-----9-----7------|
|-7---7-7---7--7---7-7--7---|-7-7--7---7-7---7-7---7--|
|---------------------------|-------------------------|
|
| S S E S S E  S S E E  S S   E E  S S E S S E S S E
|-3p0-0-7p0-0--8p0-0-0-10p0-|-0-0--8p0-0-7p0-0-5p0-0--|
|---------------------------|-------------------------|
|---------------------------|-------------------------|
|---------------------------|-------------------------|
|---------------------------|-------------------------|
|---------------------------|-------------------------|


  C5        Am/C  C5        C5      C5    C
  PM--|     PM    PM|       PM|     PM    PM    PM-
  E   E E   E E   E E E     E E E   E E   E E   E
|-------------------------|-----------------------|
|-------------------------|-----------------------|
|-------------------------|-----------------------|
|-------5-----7-------5---|-----4-----5-----4-----|
|-3---3-3---3-3---3-3-3---|-3-3-3---3-3---3-3---3-|
|-------------------------|-----------------------|
|
| S S E S S E S S E E S S   E E S S E S S E S S E
|-3p0-0-7p0-0-8p0-0-0-7p0-|-0-0-5p0-0-7p0-0-3p0-0-|
|-------------------------|-----------------------|
|-------------------------|-----------------------|
|-------------------------|-----------------------|
|-------------------------|-----------------------|
|-------------------------|-----------------------|


                      N.C.
 -----|     PM    PM|        PM|     PM
  E   E E   E E   E E  E     E E E   E E   E E   E
|--------------------------|------------------------||
|--------------------------|------------------------||
|--------------------------|------------------------||
|-------4-----4--------1---|-----1-----1---1-1---1--||
|-3---3-3---3-3---3-3--0---|-0-0-0---0-0---0-0---0--||
|--------------------------|------------------------||
|
| S S E S S E S S E E  S S   E E S S E S S E S S E
|-3p0-0-7p0-0-8p0-0-0-10p0-|-0-0-8p0-0-7p0-0-5p0-0--||
|--------------------------|------------------------||
|--------------------------|------------------------||
|--------------------------|------------------------||
|--------------------------|------------------------||
|--------------------------|------------------------||


   Verse
    E5                N.C.
    Gtrs I, II
    PM--------------|
    S S S S S S S S E E E E   E E E E E E E E
||--------------------------|-----------------|
||o-------------------------|-----------------|
||--------------------------|-----------5-4-2-|
||--------------------------|-------4-2-------|
||o-2-2-2-2-2-2-2-2-2-------|-5-3-2-----------|
||--0-0-0-0-0-0-0-0-0-3-2-0-|-----------------|


  E5                    N.C.
  PM----------------|   TPTPTPTPTPTPTPTP
  E E S S E S E S E E   E E E E E E E E    4x
|---------------------|--------------------||
|---------------------|-------------------o||
|---------------------|-5-4-2-0------------||
|---------------------|---------1-2-4-5----||
|-2-2-2-2-2-2-2-2-2-2-|-------------------o||
|-0-0-0-0-0-0-0-0-0-0-|--------------------||


 Verse
  N.C.
  Gtr I
  TP         TP
  W          W          E E E E E E E E   E E E E E E E E
|----------|----------|-----------------|-----------------|
|----------|----------|-----------------|-----------------|
|----------|----------|---5-2-4---5-2-4-|---5-2-4---5-2-4-|
|-5--------|-1--------|-2-------2-------|-2-------2-------|
|----------|----------|-----------------|-----------------|
|----------|----------|-----------------|-----------------|
|
| Gtr II
| TP         TP
| W          W          E E E E E E E E   E E E E E E E E
|----------|----------|-----------------|-----------------|
|----------|----------|-----------------|-----------------|
|----------|----------|---5-2-4---5-2-4-|---5-2-4---5-2-4-|
|-5--------|-9--------|-2-------2-------|-2-------2-------|
|----------|----------|-----------------|-----------------|
|----------|----------|-----------------|-----------------|


                                       1.
    E E E E E E E E   E E E E E E E E   E E E E E E E E   E E E E E E E E
||------------------|-----------------|-----------------|-------------------||
||o-----------------|-----------------|-----------------|------------------o||
||----0-4-0---0-4-0-|---0-5-4-2-0-----|---5-2-4---5-2-4-|---5-2-4---5-2-4---||
||------------------|-------------4-1-|-2-------2-------|-2-------2---------||
||o-3-------3-------|-3---------------|-----------------|------------------o||
||------------------|-----------------|-----------------|-------------------||
|
|   TPTPTPTPTPTPTPTP  TPTPTPTPTPTPTPTP
|   E E E E E E E E   E E E E E E E E   E E E E E E E E   E E E E E E E E
||------------------|-----------------|-----------------|-------------------||
||o-0-1-3-5-0-1-3-5-|-0-1-3-5-0-1-3-5-|-----------------|------------------o||
||------------------|-----------------|---5-2-4---5-2-4-|---5-2-4---5-2-4---||
||------------------|-----------------|-2-------2-------|-2-------2---------||
||o-----------------|-----------------|-----------------|------------------o||
||------------------|-----------------|-----------------|-------------------||


  2.
  A5
  E E E E E   E    E  E   E   E    E  E E   E    E  E
|-----------------------|-------------------------------|
|-----------------------|-------------------------------|
|---5-2-4-----5----2--4-|-----5----2--4-----5----2--4---|
|-2-------2-------------|-2-------------2---------------|
|-----------------------|-------------------------------|
|-----------------------|-------------------------------|
|
| PM-----------------------------------------------------
| Q   Q   S E   S +E  E   S E   S +E  E S E   S +E  S S
|-----------------------|-------------------------------|
|-----------------------|-------------------------------|
|-----------------------|-------------------------------|
|-----------------------|-------------------------------|
|-7---7---7-7---7-(7)-7-|-7-7---7-(7)-7-7-7---7-(7)-7-7-|
|-5---5---5-5---5-(5)-5-|-5-5---5-(5)-5-5-5---5-(5)-5-5-|


  B5
  E E E E E   E    E  E   E   E    E  E E   E    E  E
|-----------------------|--------------------------------|
|-----------------------|--------------------------------|
|---0-4-0-----0----4--0-|-----0----5--4-2---0------------|
|-----------------------|------------------------4--1----|
|-2-------2-------------|-2------------------------------|
|-----------------------|--------------------------------|
|
|-----------------------------------------------------|
| Q   Q   S E   S +E  E   S E   S +E  E S E   S +E  S S
|-----------------------|--------------------------------|
|-----------------------|--------------------------------|
|-----------------------|--------------------------------|
|-----------------------|--------------------------------|
|-9---9---9-9---9-(9)-9-|-9-9---9-(9)-9-9-9---9-(9)-9-9--|
|-7---7---7-7---7-(7)-7-|-7-7---7-(7)-7-7-7---7-(7)-7-7--|


  C5
   E E  E E  E    E      E   E    E    E      E   E  E    E      E   E
|------------------------------|------------------------------------------|
|------------------------------|------------------------------------------|
|----5--2-4-------5------2---4-|-------5------2---4-------5------2---4----|
|--2---------2-----------------|--2------------------2--------------------|
|------------------------------|------------------------------------------|
|------------------------------|------------------------------------------|
|
|  PM----------------------------------------------------------------------
|  Q    Q    S  E    S  +E   E    S  E    S  +E   E  S  E    S  +E   S  S
|------------------------------|------------------------------------------|
|------------------------------|------------------------------------------|
|------------------------------|------------------------------------------|
|------------------------------|------------------------------------------|
|-10---10---10-10---10-(10)-10-|-10-10---10-(10)-10-10-10---10-(10)-10-10-|
|--8----8----8--8----8--(8)--8-|--8--8----8--(8)--8--8--8----8--(8)--8--8-|


  E5
  E E E E E   E    E  E   E   E    E  E E   E    E  E
|-----------------------|--------------------------------||
|-----------------------|--------------------------------||
|---0-4-0-----0----4--0-|-----0----5--4-2---0------------||
|-----------------------|------------------------4--1----||
|-3-------3-------------|-3------------------------------||
|-----------------------|--------------------------------||
|
|-----------------------------------------------------|
| Q   Q   S E   S +E  E   S E   S +E  E S E   S +E  S S
|-----------------------|--------------------------------||
|-----------------------|--------------------------------||
|-----------------------|--------------------------------||
|-----------------------|--------------------------------||
|-2---2---2-2---2-(2)-2-|-2-2---2-(2)-2-2-2---2-(2)-2-2--||
|-0---0---0-0---0-(0)-0-|-0-0---0-(0)-0-0-0---0-(0)-0-0--||


   Breakdown
    E5          B/EE5            N.CB    E5          B/EE5            N.CB
   7/8
    Gtrs I, II
    PM--------|    PM----------|         PM--------|    PM----------|
    S S E S S E Q  S S   E S S E Q  Q    S S E S S E Q  S S   E S S E Q  Q
||---------------------|---------------|--------------------|----------------||
||o--------------------|---------4-----|--------------------|---------4-----o||
||---------------------|---------------|--------------------|----------------||
||--------------1------|------------1--|-------------1------|------------1---||
||o-2-2-2-2-2-2-2--2-2-|-2-2-2-2----2--|-2-2-2-2-2-2-2--2-2-|-2-2-2-2----2--o||
||--0-0-0-0-0-0-0--0-0-|-0-0-0-0-------|-0-0-0-0-0-0-0--0-0-|-0-0-0-0--------||


  Slower Q=135
                    A5/E
 4/4          3/4
  +W           +Q    H    a
|------------|--------------||
|------------|--------------||
|------------|--------------||
|-(1)--------|-(1)----------||
|-(2)--------|-(2)--12s===0-||
|------------|------12s===0-||


   Outro
    B/E                          C5B5BbA5/E
   4/4
    PM---------------------------------|
    S S E Q  Q  S S E   +E  Q  E E E E E
||--------------------|------------------|
||o-------------------|------------------|
||--------------------|------------------|
||--1-1-1-1--1--1-1-1-|-(1)-1--1---------|
||o-2-2-2-2--2--2-2-2-|-(2)-2--2-3-2-1-0-|
||--0-0-0-0--0--0-0-0-|-(0)-0--0-3-2-1-0-|


  B/E                          B
  PM-------------------------|
  S S E Q  Q  S S E   +E  Q  E E E Q
|-------------------|------------------||
|-------------------|----------4-4-4--o||
|-------------------|----------x-x-x---||
|-1-1-1-1--1--1-1-1-|-(1)-1--1-1-1-1---||
|-2-2-2-2--2--2-2-2-|-(2)-2--2-2-2-2--o||
|-0-0-0-0--0--0-0-0-|-(0)-0--0---------||


  B/E                          C5B5BbA5/E
  PM----------------------|    PM----|
  S S E Q  Q  S S E   +E  E Q  E E E E
|-------------------|------------------|
|-------------------|------------------|
|-------------------|------------------|
|-1-1-1-1--1--1-1-1-|-(1)-1------------|
|-2-2-2-2--2--2-2-2-|-(2)-2----3-2-1-0-|
|-0-0-0-0--0--0-0-0-|-(0)-0----3-2-1-0-|


  B/E                          B
  PM-------------------------|
  S S E Q  Q  S S E   +E  Q  E E E Q
|-------------------|-----------------|
|-------------------|----------4-4-4--|
|-------------------|----------x-x-x--|
|-1-1-1-1--1--1-1-1-|-(1)-1--1-1-1-1--|
|-2-2-2-2--2--2-2-2-|-(2)-2--2-2-2-2--|
|-0-0-0-0--0--0-0-0-|-(0)-0--0--------|


  B/E                          C5B5BbA5/EC5B5BbA5/E
                                        2/4
  PM----------------------|    PM--------------|
  S S E Q  Q  S S E   +E  E Q  E E E E   E E E E
|-------------------|------------------|---------|
|-------------------|------------------|---------|
|-------------------|------------------|---------|
|-1-1-1-1--1--1-1-1-|-(1)-1------------|---------|
|-2-2-2-2--2--2-2-2-|-(2)-2----3-2-1-0-|-3-2-1-0-|
|-0-0-0-0--0--0-0-0-|-(0)-0----3-2-1-0-|-3-2-1-0-|


  B/E                          B
 4/4
  PM-------------------------|
  S S E Q  Q  S S E   +E  Q  E E E Q    +W           +W
|-------------------|-----------------|------------|--------*|
|-------------------|----------4-4-4--|-(4)--------|-(4)----*|
|-------------------|----------x-x-x--|------------|--------*|
|-1-1-1-1--1--1-1-1-|-(1)-1--1-1-1-1--|-(1)--------|-(1)----*|
|-2-2-2-2--2--2-2-2-|-(2)-2--2-2-2-2--|-(2)--------|-(2)----*|
|-0-0-0-0--0--0-0-0-|-(0)-0--0--------|------------|--------*|



Duration Legend
---------------
W - whole; H - half; Q - quarter; E - 8th; S - 16th; T - 32nd; X - 64th; a - acciaccatura
+ - note tied to previous; . - note dotted; .. - note double dotted
Uncapitalized letters represent notes that are staccato (1/2 duration)
Irregular groupings are notated above the duration line
Duration letters will always appear directly above the note/fret number it represents the
duration for.  Duration letters with no fret number below them represent rests.  Multi-
bar rests are notated in the form Wxn, where n is the number of bars to rest for.  Low
melody durations appear below the staff

Tablature Legend
----------------
 h   - hammer-on
 p   - pull-off
 b   - bend
 pb  - pre-bend
 r   - bend release (if no number after the r, then release immediately)
 /\  - slide into or out of (from/to "nowhere")
 s   - legato slide
 S   - shift slide
<n> - natural harmonic
[n]  - artificial harmonic
n(n) - tapped harmonic
 ~   - vibrato
 tr  - trill
 T   - tap
 TP  - trem. picking
 PM  - palm muting
\n/  - tremolo bar dip; n = amount to dip
 \n  - tremolo bar down
 n/  - tremolo bar up
/n\  - tremolo bar inverted dip
 =   - hold bend; also acts as connecting device for hammers/pulls
 <> - volume swell (louder/softer)
 x   - on rhythm slash represents muted slash
 o   - on rhythm slash represents single note slash

Misc Legend
-----------
 |  - bar
||  - double bar
||o - repeat start
o|| - repeat end
*|  - double bar (ending)
 :  - bar (freetime)
 $  - Segno
 &  - Coda
Tempo markers - <E/E./Q/Q./H/H.> = BPM(8/16=s8/s16), where s8 = swing 8ths, s16 = swing 16ths

comments
print report bad tab
4 comments total. Showing first comments.
0 reply
U B the band wrote on April 12 2008, 12:28 pm

Good job, 5 stars.

0 reply
ixilthixilix wrote on May 1 2008, 09:58 am

this is drop C and there arnt 5 guitar ffs....

0 reply
GibsonRocker14 wrote on November 2 2008, 05:35 pm

good tab :).

takes quite a bit of practice to get it smooth though

I want to post or [tab]
guest
You may want to rate the tab now too:
select rating
Please do not post tabs as comments. Select "correction" instead!