Oops, an error
Loading. Please wait.

A Shot Below The Belt Tab

ver2
ver2

Whole song

Interactive

More versions @911Tabs.com
6,708 views 9 this week
2 commentsread comments
1 2 3 4 5
excellent!
x 2
Autoscroll
+/-
esc
set tempo
stop
Contributor
Difficulty
Tuning
intermediate
D G C F A D
WARNING: You are trying to view
                                    content from Ultimate-Guitar.com
                                    in an unauthorized application,
                                    which is prohibited.

                                    Please use an official Ultimate
                                    Guitar Tabs application for iPhone,
                                    iPad or Android to access legitimate
                                    chords, guitar, bass, and drum tabs
                                    from Ultimate-Guitar.com database.

                                    Type "ultimate guitar tabs" in Apple
                                    App Store's or Android Market's
                                    search to find the application.
All of my August Burns Red tabs are %100 accurate because I got a rough copy from 
their guitarist JB.

D  :-----------------------|----------------------|--------------------|
A  :-----------------------|----------------------|--------------------|
F  :-----------------------|----------------------|--------------------|
C  :-----------------------|----------------------|--------------------|
G  :-----------------------|----------------------|--------------------|
D  :-----------------------|----------------------|--------------------|

D  :-----------------------|----------------------|--------------------|
A  :-----------------------|----------------------|--------------------|
F  :-----------------------|----------------------|--------------------|
C  :2-2-2-2-2-2-2---2-2-2-2|2-2-2-2-----2-2-2-2-2-|2---2---2-2-2-2-2---|
G  :2-2-2-2-2-2-2---2-2-2-2|2-2-2-2-----2-2-2-2-2-|2---2---2-2-2-2-2---|
D  :0-0-0-0-0-0-0---0-0-0-0|0-0-0-0-----0-0-0-0-0-|0---0---0-0-0-0-0---|
    * * * * * * *   * * * * * * * *     * * * * *  *   *   * * * * *
============================================================================

D  :-----------------------|------------------------|
A  :-----------------------|------------------------|
F  :-----------------------|------------------------|
C  :-----------------------|------------------------|
G  :-----------------------|------------------------|
D  :-----------------------|------------------------|

D  :-----------------------|------------------------|
A  :-----------------------|------------------------|
F  :-----------------------|------------------------|
C  :2-2-2-2-2-2----2-2-2-2-|2-2-2-2-2-----2-2-2-2-2-|
G  :2-2-2-2-2-2----2-2-2-2-|2-2-2-2-2-----2-2-2-2-2-|
D  :0-0-0-0-0-0----0-0-0-0-|0-0-0-0-0-----0-0-0-0-0-|
    * * * * * *    * * * *  * * * * *     * * * * *
============================================================================

D  :-----------------------|----------------------|--------------------|
A  :-----------------------|----------------------|--------------------|
F  :-----------------------|----------------------|--------------------|
C  :-----------------------|----------------------|--------------------|
G  :-----------------------|----------------------|--------------------|
D  :-----------------------|----------------------|--------------------|

D  :-----------------------|----------------------|--------------------|
A  :-----------------------|----------------------|--------------------|
F  :-----------------------|----------------------|--------------------|
C  :2-2-2-2-2-2-2---2-2-2-2|2-2-2-2-----2-2-2-2-2-|2---2---2-2-2-2-2---|
G  :2-2-2-2-2-2-2---2-2-2-2|2-2-2-2-----2-2-2-2-2-|2---2---2-2-2-2-2---|
D  :0-0-0-0-0-0-0---0-0-0-0|0-0-0-0-----0-0-0-0-0-|0---0---0-0-0-0-0---|
    * * * * * * *   * * * * * * * *     * * * * *  *   *   * * * * *
============================================================================

D  :-----------------------|------------------------|
A  :-----------------------|------------------------|
F  :-----------------------|------------------------|
C  :-----------------------|------------------------|
G  :-----------------------|------------------------|
D  :-----------------------|------------------------|

D  :-----------------------|------------------------|
A  :-----------------------|------------------------|
F  :-----------------------|------------------------|
C  :2-2-2-2-2-2----2-2-2-2-|2-2-2-2-2-----2-2-2-2-2-|
G  :2-2-2-2-2-2----2-2-2-2-|2-2-2-2-2-----2-2-2-2-2-|
D  :0-0-0-0-0-0----0-0-0-0-|0-0-0-0-0-----0-0-0-0-0-|
    * * * * * *    * * * *  * * * * *     * * * * *
============================================================================

D  :--------------------------|------------------------|
A  :--------------------------|------------------------|
F  :--------------------------|------------------------|
C  :-------9-10---7-9---------|------------10-10-9-9-7-|
G  :7---10------------9---10--|6---9-7-----------------|
D  :--------------------------|--------7-8-------------|

D  :--------------------------|------------------------|
A  :--------------------------|------------------------|
F  :--------------------------|------------------------|
C  :2-2--2-2--2-2-2---2-2--2-2|2-2-2-2------2--2-2-2-2-|
G  :2-2--2-2--2-2-2---2-2--2-2|2-2-2-2------2--2-2-2-2-|
D  :0-0--0-0--0-0-0---0-0--0-0|0-0-0-0------0--0-0-0-0-|
    * *  * *  * * *   * *  * * * * * *      *  * * * *
============================================================================

D  :--------------------|--------------------------|
A  :--------------------|5---0---1---0-3-0---7-----|
F  :------------------7-|------------------------8-|
C  :--5-4-7-----7---5---|--------------------------|
G  :3-------5-----------|--------------------------|
D  :--------------------|--------------------------|

D  :--------------------|--------------------------|
A  :--------------------|--------------------------|
F  :--------------------|--------------------------|
C  :2---2---2-2-2-2-2---|2-2-2-2-2-2-----2-2---2-2-|
G  :2---2---2-2-2-2-2---|2-2-2-2-2-2-----2-2---2-2-|
D  :0---0---0-0-0-0-0---|0-0-0-0-0-0-----0-0---0-0-|
    *   *   * * * * *    * * * * * *     * *   * *
============================================================================

D  :----------------------------|--------------------------|
A  :----------------------------|--------------------------|
F  :----------------------------|--------------------------|
C  :----------------------------|-------9-10---7-9---------|
G  :----------------------7---6-|7---10------------9---10--|
D  :0-0-0-0-0-3-2-0-7-8---------|--------------------------|

D  :----------------------------|--------------------------|
A  :----------------------------|--------------------------|
F  :----------------------------|--------------------------|
C  :2-2-2-2-2---------2-2---2-2-|2-2--2-2--2-2-2---2-2--2-2|
G  :2-2-2-2-2---------2-2---2-2-|2-2--2-2--2-2-2---2-2--2-2|
D  :0-0-0-0-0---------0-0---0-0-|0-0--0-0--0-0-0---0-0--0-0|
    * * * * *         * *   * *  * *  * *  * * *   * *  * *
============================================================================

D  :------------------------|--------------------|
A  :------------------------|--------------------|
F  :------------------------|------------------7-|
C  :------------10-10-9-9-7-|--5-4-7-----7---5---|
G  :6---9-7-----------------|3-------5-----------|
D  :--------7-8-------------|--------------------|

D  :------------------------|--------------------|
A  :------------------------|--------------------|
F  :------------------------|--------------------|
C  :2-2-2-2------2--2-2-2-2-|2---2---2-2-2-2-2---|
G  :2-2-2-2------2--2-2-2-2-|2---2---2-2-2-2-2---|
D  :0-0-0-0------0--0-0-0-0-|0---0---0-0-0-0-0---|
    * * * *      *  * * * *  *   *   * * * * *
============================================================================

D  :--------------------------|----------------------------|
A  :5---0---1---0-3-0---7-----|----------------------------|
F  :------------------------8-|----------------------------|
C  :--------------------------|----------------------------|
G  :--------------------------|----------------------7---6-|
D  :--------------------------|0-0-0-0-0-3-2-0-7-8---------|

D  :--------------------------|----------------------------|
A  :--------------------------|----------------------------|
F  :--------------------------|----------------------------|
C  :2-2-2-2-2-2-----2-2---2-2-|2-2-2-2-2---------2-2-2-2-2-|
G  :2-2-2-2-2-2-----2-2---2-2-|2-2-2-2-2---------2-2-2-2-2-|
D  :0-0-0-0-0-0-----0-0---0-0-|0-0-0-0-0---------0-0-0-0-0-|
    * * * * * *     * *   * *  * * * * *         * * * * *
============================================================================

D  :----------------|----------------|----------------------------|
A  :----------------|----------------|----------------------------|
F  :----------------|----------------|----------------------------|
C  :----------------|----------------|-2--------------------------|
G  :----------------|----------------|-2--------------------------|
D  :----------------|----------------|-0--------------------------|

D  :----------------|----------------|12-0-0-12-0-0-15-0-0-14-0-0-|
A  :----------------|----------------|----------------------------|
F  :----------------|----------------|----------------------------|
C  :2---------------|----------------|----------------------------|
G  :2---------------|----------------|----------------------------|
D  :0---------------|----------------|----------------------------|
    *
============================================================================

D  :-0--------------------------|----------------------------|
A  :-0--------------------------|----------------------------|
F  :----------------------------|----------------------------|
C  :----------------------------|-2--------------------------|
G  :----------------------------|-2--------------------------|
D  :----------------------------|-0--------------------------|

D  :12-0-0-12-0-0-15-0-0-14-0-0-|12-0-0-12-0-0-15-0-0-14-0-0-|
A  :----------------------------|----------------------------|
F  :----------------------------|----------------------------|
C  :----------------------------|----------------------------|
G  :----------------------------|----------------------------|
D  :----------------------------|----------------------------|

============================================================================

D  :-------------------------|----------------------------|
A  :-------------------------|----------------------------|
F  :5-----------7------------|----------------------------|
C  :5-----------7------------|-2--------------------------|
G  :3-----------5------------|-2--------------------------|
D  :-------------------------|-0--------------------------|

D  :7-0-0-7-0-0-8-0-0-10-0-0-|12-0-0-12-0-0-15-0-0-14-0-0-|
A  :-------------------------|----------------------------|
F  :-------------------------|----------------------------|
C  :-------------------------|----------------------------|
G  :-------------------------|----------------------------|
D  :-------------------------|----------------------------|

============================================================================

D  :-0--------------------------|----------------------------|
A  :-0--------------------------|----------------------------|
F  :----------------------------|----------------------------|
C  :----------------------------|-2--------------------------|
G  :----------------------------|-2--------------------------|
D  :----------------------------|-0--------------------------|

D  :12-0-0-12-0-0-15-0-0-14-0-0-|12-0-0-12-0-0-15-0-0-14-0-0-|
A  :----------------------------|----------------------------|
F  :----------------------------|----------------------------|
C  :----------------------------|----------------------------|
G  :----------------------------|----------------------------|
D  :----------------------------|----------------------------|

============================================================================

D  :-------------------------|----------------------------|
A  :-------------------------|----------------------------|
F  :5-----------7------------|----------------------------|
C  :5-----------7------------|----------------------------|
G  :3-----------5------------|2-2-2-2-------2-2-2-2-----2-|
D  :-------------------------|0-0-0-0-------0-0-0-0-----0-|
                              * * * *       * * * *     *
D  :7-0-0-7-0-0-8-0-0-10-0-0-|3-0-0---3-0-0-7-0-0---5-0-0-|
A  :-------------------------|----------------------------|
F  :-------------------------|----------------------------|
C  :-------------------------|----------------------------|
G  :-------------------------|----------------------------|
D  :-------------------------|----------------------------|

============================================================================

D  :----------------------------|--------------------------|
A  :----------------------------|--------------------------|
F  :----------------------------|--------------------------|
C  :----------------------------|--------------------------|
G  :----2-2---2-2-----2-2---2-2-|------------2-2-2-2-----2-|
D  :----0-0---0-0-----0-0---0-0-|------------0-0-0-0-----0-|
        * *   * *     * *   * *              * * * *     *
D  :3-0-0---3-0-0-7-0-0---5-0-0-|3-0-0-3-0-0-7-0-0---5-0-0-|
A  :----------------------------|--------------------------|
F  :----------------------------|--------------------------|
C  :----------------------------|--------------------------|
G  :----------------------------|--------------------------|
D  :----------------------------|--------------------------|

============================================================================

D  :----------------------------|----------------------------|
A  :----------------------------|----------------------------|
F  :----------------------------|----------------------------|
C  :----------------------------|----------------------------|
G  :----2-2---2-2-2-2-2-2-2---2-|2-2-2-2-------2-2-2-2-----2-|
D  :----0-0---0-0-0-0-0-0-0---0-|0-0-0-0-------0-0-0-0-----0-|
        * *   * * * * * * *   *  * * * *       * * * *     *
D  :2-0-0---2-0-0-3-0-0---5-0-0-|3-0-0---3-0-0-7-0-0---5-0-0-|
A  :----------------------------|----------------------------|
F  :----------------------------|----------------------------|
C  :----------------------------|----------------------------|
G  :----------------------------|----------------------------|
D  :----------------------------|----------------------------|

============================================================================

D  :----------------------------|--------------------------|
A  :----------------------------|--------------------------|
F  :----------------------------|--------------------------|
C  :----------------------------|--------------------------|
G  :----2-2---2-2-----2-2---2-2-|------------2-2-2-2-----2-|
D  :----0-0---0-0-----0-0---0-0-|------------0-0-0-0-----0-|
        * *   * *     * *   * *              * * * *     *
D  :3-0-0---3-0-0-7-0-0---5-0-0-|3-0-0-3-0-0-7-0-0---5-0-0-|
A  :----------------------------|--------------------------|
F  :----------------------------|--------------------------|
C  :----------------------------|--------------------------|
G  :----------------------------|--------------------------|
D  :----------------------------|--------------------------|

============================================================================

D  :----------------------------|------------------------|-----------------|
A  :----------------------------|------------------------|-----------------|
F  :----------------------------|------------------------|-----------------|
C  :----------------------------|-9--9--9----------------|--------------5-5|
G  :----2-2---2-2-2-2-2-2-2---2-|-7--7--7----------------|--------------3-3|
D  :----0-0---0-0-0-0-0-0-0---0-|------------------------|-----------------|
        * *   * * * * * * *   *   *  *                                  * *
D  :2-0-0---2-0-0-3-0-0---5-0-0-|------------------------|-----------------|
A  :----------------------------|------------------------|-----------------|
F  :----------------------------|12-12-12-12-------------|-----------------|
C  :----------------------------|------------10-10-10-10-|9-9-9-9-9-9-9-9--|
G  :----------------------------|------------------------|-----------------|
D  :----------------------------|------------------------|-----------------|
                                  *  *  *  *  *  *  *  *  * * * * * * * *
============================================================================

D  :------------------------|----------------|------------------------|
A  :------------------------|----------------|------------------------|
F  :------------------------|----------------|------------------------|
C  :-5--5--5----------------|----------------|-7--7--7----------------|
G  :-3--3--3----------------|----------------|-5--5--5----------------|
D  :------------------------|----------------|------------------------|
     *  *                                      *  * 
D  :------------------------|----------------|------------------------|
A  :------------------------|----------------|------------------------|
F  :12-12-12-12-------------|----------------|12-12-12-12-------------|
C  :------------10-10-10-10-|9-9-9-9-9-9-9-9-|------------10-10-10-10-|
G  :------------------------|----------------|------------------------|
D  :------------------------|----------------|------------------------|
     *  *  *  *  *  *  *  *  * * * * * * * *   *  *  *  *  *  *  *  *
============================================================================

D  :----------------|------------------------|----------------|
A  :----------------|------------------------|----------------|
F  :----------------|------------------------|----------------|
C  :----------------|-------9-----9--------7-|------5-----5-5-|
G  :----------------|-7--7--7--7--7--7--7--5-|5-5-5-3-3-3-3-3-|
D  :----------------|------------------------|----------------|
                      *  *     *     *  *     * * *   * *
D  :----------------|------------------------|----------------|
A  :----------------|------------------------|----------------|
F  :----------------|12-12-12-12-------------|----------------|
C  :9-9-9-9-9-9-9-9-|------------10-10-10-10-|9-9-9-9-9-9-9-9-|
G  :----------------|------------------------|----------------|
D  :----------------|------------------------|----------------|
    * * * * * * * *   *  *  *  *  *  *  *  *  * * * * * * * *
============================================================================

D  :------------------------|----------------|------------------------|
A  :------------------------|----------------|------------------------|
F  :-------------0----------|--------0-------|-------------5--------4-|
C  :-------9--------9-----9-|----9-----9---9-|-------5----------------|
G  :-7--7-----7--------7----|7-7---7-----7---|-3--3-----3-----3--3----|
D  :------------------------|----------------|------------------------|
     *  *     *              * *   *           *  *     *     *  *     
D  :------------------------|----------------|------------------------|
A  :------------------------|----------------|------------------------|
F  :12-12-12-12-------------|----------------|12-12-12-12-------------|
C  :------------10-10-10-10-|9-9-9-9-9-9-9-9-|------------10-10-10-10-|
G  :------------------------|----------------|------------------------|
D  :------------------------|----------------|------------------------|

============================================================================

D  :----------------|------------------------|----------------|
A  :----------------|------------------------|----------------|
F  :----0-----0-----|------------------------|----7---5---4---|
C  :------5-----5---|-------4-----7--------5-|----------------|
G  :3-3-----3-----3-|-5--5-----5-----5--5----|5-5---5---5---5-|
D  :----------------|------------------------|----------------|
    * *               *  *     *     *  *     * *   *   *   *
D  :----------------|------------------------|----------------|
A  :----------------|------------------------|----------------|
F  :----------------|12-12-12-12-------------|----------------|
C  :9-9-9-9-9-9-9-9-|------------10-10-10-10-|9-9-9-9-9-9-9-9-|
G  :----------------|------------------------|----------------|
D  :----------------|------------------------|----------------|

============================================================================

D  :------------------------|----------------|-----------------------|
A  :------------------------|----------------|-----------------------|
F  :------------------------|----------------|------------0----------|
C  :-------9-----9--------7-|------5-----5-5-|------9--------9-----9-|
G  :-7--7--7--7--7--7--7--5-|5-5-5-3-3-3-3-3-|-7--7----7--------7----|
D  :------------------------|----------------|-----------------------|
     *  *     *     *  *     * * *   * *       *  *    *        
D  :------------------------|----------------|-----------------------|
A  :------------------------|----------------|-----------------------|
F  :12-12-12-12-------------|----------------|12------------------12-|
C  :------------10-10-10-10-|9-9-9-9-9-9-9-9-|---10-9-------12-10----|
G  :------------------------|----------------|--------10-12----------|
D  :------------------------|----------------|-----------------------|

============================================================================

D  :---------------------|-----------------------|---------------------|
A  :---------------------|-----------------------|---------------------|
F  :------------0--------|------------5--------4-|------0--------0-----|
C  :------9------------9-|------5----------------|---------5-------5---|
G  :-7-7-----7-----7-7---|-3--3----3-----3--3----|-3-3--------3------3-|
D  :---------------------|-----------------------|---------------------|
     * *     *     * *     *  *    *     *  *      * *
D  :---------------------|-----------------------|---------------------|
A  :---------------------|-----------------------|---------------------|
F  :---------------------|12------------------12-|---------------------|
C  :10-9-------12-10-9---|---10-9-------12-10----|10-9-------12-10-9---|
G  :-----10-12---------9-|--------10-12----------|-----10-12---------9-|
D  :---------------------|-----------------------|---------------------|

============================================================================

D  :-----------------------|---------------------|-----------------------|
A  :-----------------------|---------------------|-----------------------|
F  :-----------------------|------7-----5----4---|-----------------------|
C  :------4-----7--------5-|---------------------|------9-----9--------7-|
G  :-5--5----5-----5--5----|-5-5-----5-----5---5-|-7--7-7--7--7--7--7--5-|
D  :-----------------------|---------------------|-----------------------|
     *  *    *     * *       * *     *     *   *   *  *    *     *  *
D  :-----------------------|---------------------|-----------------------|
A  :-----------------------|---------------------|-----------------------|
F  :12------------------12-|---------------------|12------------------12-|
C  :---10-9-------12-10----|10-9-------12-10-9---|---10-9-------12-10----|
G  :--------10-12----------|-----10-12---------9-|--------10-12----------|
D  :-----------------------|---------------------|-----------------------|

============================================================================

D  :---------------------|-------------------|------------------|
A  :---------------------|-------------------|------------------|
F  :---------------------|-------------------|------------------|
C  :---------5-------5-5-|9-9-9-9-10-10-10-9-|9-9-7-7-9-9--9--9-|
G  :-5-5--5--3--3--3-3-3-|7-7-7-7--7--7--7-7-|7-7-7-7-7-7-10-10-|
D  :---------------------|-------------------|------------------|
     * *  *     *  *      
D  :---------------------|-------------------|------------------|
A  :---------------------|-------------------|------------------|
F  :---------------------|-------------------|------------------|
C  :10-9-------12-10-9---|2------------------|------------------|
G  :-----10-12---------9-|2------------------|------------------|
D  :---------------------|0------------------|------------------|

============================================================================

D  :-------------------|------------------|-----------------------|
A  :-------------------|------------------|-----------------------|
F  :-------------------|------------------|-----------------------|
C  :9-9-9-9-10-10-10-9-|9-9-7-7-9-9--9--9-|-5--5-5--5--7--7--7--5-|
G  :7-7-7-7--7--7--7-7-|7-7-7-7-7-7-10-10-|-3--3-3--3--3--3--3--3-|
D  :-------------------|------------------|-----------------------|

D  :-------------------|------------------|-----------------------|
A  :-------------------|------------------|-----------------------|
F  :-------------------|------------------|12------------------12-|
C  :-------------------|------------------|---10-9-------12-10----|
G  :-------------------|------------------|--------10-12----------|
D  :-------------------|------------------|-----------------------|

============================================================================

D  :---------------------|-----------------------|---------------------|
A  :---------------------|-----------------------|---------------------|
F  :---------------------|-----------------------|---------------------|
C  :-5-5--4--4--5--5-4-4-|-4--4-4--4--4--4--4--1-|---1--1--1--1--1-1-1-|
G  :-3-3--3--3--3--3-3-3-|-3--3-3--3--3--3--3--0-|---0--0--0--0--0-0-0-|
D  :---------------------|-----------------------|---------------------|

D  :---------------------|-----------------------|---------------------|
A  :---------------------|-----------------------|---------------------|
F  :---------------------|12------------------12-|---------------------|
C  :10-9-------12-10-9---|---10-9-------12-10----|10-9-------12-10-9---|
G  :-----10-12---------9-|--------10-12----------|-----10-12---------9-|
D  :---------------------|-----------------------|---------------------|

============================================================================

D  :-----------------------|-----------------------|-----------------------|
A  :-----------------------|-----------------------|-----------------------|
F  :-----------------------|-----------------------|-----------------------|
C  :-9--9-9--9-10-10-10--9-|-9-9--7--7--9--9--9--9-|-9--9-9--9-10-10-10--9-|
G  :-7--7-7--7--7--7--7--7-|-7-7--7--7--7--7-10-10-|-7--7-7--7--7--7--7--7-|
D  :-----------------------|-----------------------|-----------------------|

D  :-----------------------|-----------------------|-----------------------|
A  :-----------------------|-----------------------|-----------------------|
F  :12------------------12-|-----------------------|12------------------12-|
C  :---10-9-------12-10----|10-9-------12-10--9----|---10-9-------12-10----|
G  :--------10-12----------|-----10-12-----------9-|--------10-12----------|
D  :-----------------------|-----------------------|-----------------------|

============================================================================

D  :-----------------------|-----------------------|---------------------|
A  :-----------------------|-----------------------|---------------------|
F  :-----------------------|-----------------------|---------------------|
C  :-9-9--7--7--9--9--9--9-|-5--5-5--5--7--7--7--5-|-5-5--4--4--5--5-4-4-|
G  :-7-7--7--7--7--7-10-10-|-3--3-3--3--3--3--3--3-|-3-3--3--3--3--3-3-3-|
D  :-----------------------|-----------------------|---------------------|

D  :-----------------------|-----------------------|---------------------|
A  :-----------------------|-----------------------|---------------------|
F  :-----------------------|12------------------12-|---------------------|
C  :10-9-------12-10--9----|---10-9-------12-10----|10-9-------12-10-9---|
G  :-----10-12-----------9-|--------10-12----------|-----10-12---------9-|
D  :-----------------------|-----------------------|---------------------|

============================================================================

D  :-----------------------|---------------------|-----------------|
A  :-----------------------|---------------------|-----------------|
F  :-----------------------|---------------------|-----------------|
C  :-4--4-4--4--4--4--4--1-|---1--1--1--1--1-1-1-|----9---10-----9-|
G  :-3--3-3--3--3--3--3--0-|---0--0--0--0--0-0-0-|7-7-7-7--7-7-7-7-|
D  :-----------------------|---------------------|-----------------|
                                                  * *   *    * * 
D  :-----------------------|---------------------|-----------------|
A  :-----------------------|---------------------|-----------------|
F  :12------------------12-|---------------------|-----------------|
C  :---10-9-------12-10----|10-9-------12-10-9---|-----------------|
G  :--------10-12----------|-----10-12---------9-|-----------------|
D  :-----------------------|---------------------|-----------------|

============================================================================

D  :-----------------|------------------|-----------------|----------------|
A  :-----------------|------------------|-----------------|----------------|
F  :-----------------|------------------|-----------------|----------------|
C  :----7---9----9---|----9---10-----12-|----10---9---7---|----5---7-----5-|
G  :7-7-7-7-7-7-10-7-|7-7-7-7--7-7-7--7-|7-7--7-7-7-7-7-7-|3-3-3-3-3-3-3-3-|
D  :-----------------|------------------|-----------------|----------------|
    * *   *   *    *  * *   *    * *     * *    *   *   *  * *   *   * *
D  :-----------------|------------------|-----------------|----------------|
A  :-----------------|------------------|-----------------|----------------|
F  :-----------------|------------------|-----------------|----------------|
C  :-----------------|------------------|-----------------|----------------|
G  :-----------------|------------------|-----------------|----------------|
D  :-----------------|------------------|-----------------|----------------|

============================================================================

D  :----------------|----------------|----------------|
A  :----------------|----------------|----------------|
F  :----------------|----------------|----------------|
C  :----4---5---4---|----4---4-----1-|----1---1-1-1-1-|
G  :3-3-3-3-3-3-3-3-|3-3-3-3-3-3-3-0-|0-0-0-0-0-0-0-0-|
D  :----------------|----------------|----------------|
    * *   *   *   *  * *   *   * *    * *   *
D  :----------------|----------------|----------------|
A  :----------------|----------------|----------------|
F  :----------------|----------------|----------------|
C  :----------------|----------------|----------------|
G  :----------------|----------------|----------------|
D  :----------------|----------------|----------------|

============================================================================

D  :------------------------|-----------------------|
A  :------------------------|-----------------------|
F  :------------------------|-----------------------|
C  :------9-----10-------9--|----7-----9------9-----|
G  :7---7-7---7--7---7-7-7--|7-7-7---7-7---7-10---7-|
D  :------------------------|-----------------------|
    *   *     *      * *     * *     *     *      *
D  :3-0-0-7-0-0--8-0-0-0-7-0|0-0-5-0-0-7-0-0--3-0-0-|
A  :------------------------|-----------------------|
F  :------------------------|-----------------------|
C  :------------------------|-----------------------|
G  :------------------------|-----------------------|
D  :------------------------|-----------------------|

============================================================================

D  :-------------------------|-----------------------|
A  :-------------------------|-----------------------|
F  :-------------------------|-----------------------|
C  :------9-----10-------12--|----10-----9-----7-----|
G  :7---7-7---7--7---7-7--7--|7-7--7---7-7---7-7---7-|
D  :-------------------------|-----------------------|
    *   *     *      * *      * *      *     *     *
D  :3-0-0-7-0-0--8-0-0-0-10-0|0-0--8-0-0-7-0-0-5-0-0-|
A  :-------------------------|-----------------------|
F  :-------------------------|-----------------------|
C  :-------------------------|-----------------------|
G  :-------------------------|-----------------------|
D  :-------------------------|-----------------------|

============================================================================

D  :-----------------------|----------------------|----------------------|
A  :-----------------------|----------------------|----------------------|
F  :-----------------------|----------------------|----------------------|
C  :------5-----7-------5--|----4-----5-----4-----|------4-----4-------1-|
G  :3---3-3---3-3---3-3-3--|3-3-3---3-3---3-3---3-|3---3-3---3-3---3-3-0-|
D  :-----------------------|----------------------|----------------------|
    *   *     *     * *     * *     *     *     *  *   *     *     * *
D  :3-0-0-3-0-0-5-0-0-0-3-0|0-0-2-0-0-3-0-0-2-0-0-|2-0-0-2-0-0-2-0-0-0-7-|
A  :-----------------------|----------------------|----------------------|
F  :-----------------------|----------------------|----------------------|
C  :-----------------------|----------------------|----------------------|
G  :-----------------------|----------------------|----------------------|
D  :-----------------------|----------------------|----------------------|

============================================================================

D  :----------------------|------------------------|----------------|
A  :----------------------|------------------------|----------------|
F  :----------------------|------------------------|----------5-4-2-|
C  :----1-----1---1-1---1-|------------------------|------4-2-------|
G  :0-0-0---0-0---0-0---0-|2-2-2-2-2-2-2-2-2-------|5-3-2-----------|
D  :----------------------|0-0-0-0-0-0-0-0-0-3-2-0-|----------------|
    * *     *              * * * * * * * * *
D  :--0-7-0-0-7-0-0-7-0-0-|------------------------|----------------|
A  :----------------------|------------------------|----------------|
F  :----------------------|------------------------|----------------|
C  :----------------------|------------------------|----------------|
G  :----------------------|------------------------|----------------|
D  :----------------------|------------------------|----------------|

============================================================================

D  :--------------------|-------------------------------|
A  :--------------------|-------------------------------|
F  :--------------------|5-5-4-4-2-2-0-0----------------|
C  :--------------------|----------------1-1-2-2-4-4-5-5|
G  :2-2-2-2-2-2-2-2-2-2-|-------------------------------|
D  :0-0-0-0-0-0-0-0-0-0-|-------------------------------|
    * * * * * * * * * *
D  :--------------------|-------------------------------|
A  :--------------------|-------------------------------|
F  :--------------------|-------------------------------|
C  :--------------------|-------------------------------|
G  :--------------------|-------------------------------|
D  :--------------------|-------------------------------|

============================================================================

D  :------------------------|----------------|--------------------|
A  :------------------------|----------------|--------------------|
F  :------------------------|----------5-4-2-|--------------------|
C  :------------------------|------4-2-------|--------------------|
G  :2-2-2-2-2-2-2-2-2-------|5-3-2-----------|2-2-2-2-2-2-2-2-2-2-|
D  :0-0-0-0-0-0-0-0-0-3-2-0-|----------------|0-0-0-0-0-0-0-0-0-0-|
    * * * * * * * * *                         * * * * * * * * * *
D  :------------------------|----------------|--------------------|
A  :------------------------|----------------|--------------------|
F  :------------------------|----------------|--------------------|
C  :------------------------|----------------|--------------------|
G  :------------------------|----------------|--------------------|
D  :------------------------|----------------|--------------------|

============================================================================

D  :-------------------------------|------------------------|
A  :-------------------------------|------------------------|
F  :5-5-4-4-2-2-0-0----------------|------------------------|
C  :----------------1-1-2-2-4-4-5-5|------------------------|
G  :-------------------------------|2-2-2-2-2-2-2-2-2-------|
D  :-------------------------------|0-0-0-0-0-0-0-0-0-3-2-0-|
                                    * * * * * * * * *
D  :-------------------------------|------------------------|
A  :-------------------------------|------------------------|
F  :-------------------------------|------------------------|
C  :-------------------------------|------------------------|
G  :-------------------------------|------------------------|
D  :-------------------------------|------------------------|

============================================================================

D  :----------------|--------------------|-------------------------------|
A  :----------------|--------------------|-------------------------------|
F  :----------5-4-2-|--------------------|5-5-4-4-2-2-0-0----------------|
C  :------4-2-------|--------------------|----------------1-1-2-2-4-4-5-5|
G  :5-3-2-----------|2-2-2-2-2-2-2-2-2-2-|-------------------------------|
D  :----------------|0-0-0-0-0-0-0-0-0-0-|-------------------------------|
                     * * * * * * * * * *
D  :----------------|--------------------|-------------------------------|
A  :----------------|--------------------|-------------------------------|
F  :----------------|--------------------|-------------------------------|
C  :----------------|--------------------|-------------------------------|
G  :----------------|--------------------|-------------------------------|
D  :----------------|--------------------|-------------------------------|

============================================================================

D  :------------------------|----------------|--------------------|
A  :------------------------|----------------|--------------------|
F  :------------------------|----------5-4-2-|--------------------|
C  :------------------------|------4-2-------|--------------------|
G  :2-2-2-2-2-2-2-2-2-------|5-3-2-----------|2-2-2-2-2-2-2-2-2-2-|
D  :0-0-0-0-0-0-0-0-0-3-2-0-|----------------|0-0-0-0-0-0-0-0-0-0-|
    * * * * * * * * *                         * * * * * * * * * *
D  :------------------------|----------------|--------------------|
A  :------------------------|----------------|--------------------|
F  :------------------------|----------------|--------------------|
C  :------------------------|----------------|--------------------|
G  :------------------------|----------------|--------------------|
D  :------------------------|----------------|--------------------|

============================================================================

D  :-------------------------------|-------------------------------|
A  :-------------------------------|-------------------------------|
F  :5-5-4-4-2-2-0-0----------------|-------------------------------|
C  :----------------1-1-2-2-4-4-5-5|5-5-5-5-5-5-5-5-5-5-5-5-5-5-5-5|
G  :-------------------------------|-------------------------------|
D  :-------------------------------|-------------------------------|

D  :-------------------------------|-------------------------------|
A  :-------------------------------|-------------------------------|
F  :-------------------------------|-------------------------------|
C  :-------------------------------|-------------------------------|
G  :-------------------------------|-------------------------------|
D  :-------------------------------|-------------------------------|

============================================================================

D  :-------------------------------|----------------|----------------|
A  :-------------------------------|----------------|----------------|
F  :-------------------------------|--5-2-4---5-2-4-|--5-2-4---5-4-2-|
C  :1-1-1-1-1-1-1-1-1-1-1-1-1-1-1-1|2-------2-------|2-------2-------|
G  :-------------------------------|----------------|----------------|
D  :-------------------------------|----------------|----------------|

D  :-------------------------------|----------------|----------------|
A  :-------------------------------|----------------|----------------|
F  :-------------------------------|----------------|----------------|
C  :9-9-9-9-9-9-9-9-9-9-9-9-9-9-9-9|----------------|----------------|
G  :-------------------------------|----------------|----------------|
D  :-------------------------------|----------------|----------------|

============================================================================

D  :-------------------------------|-------------------------------|
A  :-------------------------------|-------------------------------|
F  :----0---4---0-------0---5---4--|----0---5---4---2---0----------|
C  :-------------------------------|------------------------4---1--|
G  :3---------------3--------------|3------------------------------|
D  :-------------------------------|-------------------------------|

D  :-------------------------------|-------------------------------|
A  :0-0-1-1-3-3-5-5-0-0-1-1-3-3-5-5|0-0-1-1-3-3-5-5-0-0-1-1-3-3-5-5|
F  :-------------------------------|-------------------------------|
C  :-------------------------------|-------------------------------|
G  :-------------------------------|-------------------------------|
D  :-------------------------------|-------------------------------|

============================================================================

D  :----------------|----------------|-------------------------------|
A  :----------------|----------------|-------------------------------|
F  :--5-2-4---5-2-4-|--5-2-4---5-4-2-|----0---4---0-------0---5---4--|
C  :2-------2-------|2-------2-------|-------------------------------|
G  :----------------|----------------|3---------------3--------------|
D  :----------------|----------------|-------------------------------|

D  :----------------|----------------|-------------------------------|
A  :----------------|----------------|0-0-1-1-3-3-5-5-0-0-1-1-3-3-5-5|
F  :----------------|----------------|-------------------------------|
C  :----------------|----------------|-------------------------------|
G  :----------------|----------------|-------------------------------|
D  :----------------|----------------|-------------------------------|

============================================================================

D  :-------------------------------|--------------------|
A  :-------------------------------|--------------------|
F  :----0---5---4---2---0----------|--5-2-4-----5---2-4-|
C  :------------------------4---1--|2-------2-----------|
G  :3------------------------------|--------------------|
D  :-------------------------------|--------------------|

D  :-------------------------------|--------------------|
A  :0-0-1-1-3-3-5-5-0-0-1-1-3-3-5-5|--------------------|
F  :-------------------------------|--------------------|
C  :-------------------------------|--------------------|
G  :-------------------------------|7---7---7-7---7---7-|
D  :-------------------------------|5---5---5-5---5---5-|
                                    *   *   * *   *   *
============================================================================

D  :-------------------------|--------------------|
A  :-------------------------|--------------------|
F  :----5---2-4-----5---4-2--|--0-4-0-----0---5-4-|
C  :2-----------2------------|--------------------|
G  :-------------------------|2-------2-----------|
D  :-------------------------|--------------------|

D  :-------------------------|--------------------|
A  :-------------------------|--------------------|
F  :-------------------------|--------------------|
C  :-------------------------|--------------------|
G  :7-7---7---7-7-7---7---7-7|9---9---9-9---9---9-|
D  :5-5---5---5-5-5---5---5-5|7---7---7-7---7---7-|
    * *   *   * * *   *   * * *   *   * *   *   *
============================================================================

D  :-------------------------|--------------------------|
A  :-------------------------|--------------------------|
F  :----0---5-4-2---0--------|---5--2-4-------5----2--4-|
C  :--------------------4-1--|-2---------2--------------|
G  :2------------------------|--------------------------|
D  :-------------------------|--------------------------|

D  :-------------------------|--------------------------|
A  :-------------------------|--------------------------|
F  :-------------------------|--------------------------|
C  :-------------------------|--------------------------|
G  :9-9---9---9-9-9---9---9-9|10---10---10-10---10---10-|
D  :7-7---7---7-7-7---7---7-7|-8----8----8--8----8----8-|
    * *   *   * * *   *   * *  *    *    *  *    *    *
============================================================================

D  :----------------------------------|--------------------|
A  :----------------------------------|--------------------|
F  :------5----2--4-------5----4--2---|--0-4-0-----0---5-4-|
C  :-2---------------2----------------|--------------------|
G  :----------------------------------|3-------3-----------|
D  :----------------------------------|--------------------|

D  :----------------------------------|--------------------|
A  :----------------------------------|--------------------|
F  :----------------------------------|--------------------|
C  :----------------------------------|--------------------|
G  :10-10---10---10-10-10---10---10-10|2---2---2-2---2---2-|
D  :-8--8----8----8--8--8----8----8--8|0---0---0-0---0---0-|
     *  *    *    *  *  *    *    *  * *   *   * *   *   *
============================================================================

D  :-------------------------|----------------------|--------------------|
A  :-------------------------|----------------------|------4-------------|
F  :----0---5-4-2---0--------|----------------------|--------------------|
C  :--------------------4-1--|------------1---------|----------1---------|
G  :3------------------------|2-2-2-2-2-2-2---2-2-2-|2-2-2-----2---2-2-2-|
D  :-------------------------|0-0-0-0-0-0-0---0-0-0-|0-0-0---------0-0-0-|
                              * * * * * *     * * *  * * *         * * *
D  :-------------------------|----------------------|--------------------|
A  :-------------------------|----------------------|--------------------|
F  :-------------------------|----------------------|--------------------|
C  :-------------------------|----------------------|--------------------|
G  :2-2---2---2-2-2---2---2-2|----------------------|--------------------|
D  :0-0---0---0-0-0---0---0-0|----------------------|--------------------|
    * *   *   * * *   *   * *
============================================================================

D  :----------------------|--------------------|--------------------|
A  :----------------------|4-------------------|----------------4---|
F  :----------------------|--------------------|--------------------|
C  :------1---------------|----1---------------|1-------------------|
G  :2-2-2-2---2-2-2-2-2-2-|----2---2-2-2-2-2-2-|2---2-2-2-2-2-2-----|
D  :0-0-0-0---0-0-0-0-0-0-|--------0-0-0-0-0-0-|0---0-0-0-0-0-0-----|
    * * *     * * * * * *          * * * * * *      * * * * * *
D  :----------------------|--------------------|--------------------|
A  :----------------------|--------------------|--------------------|
F  :----------------------|--------------------|--------------------|
C  :----------------------|--------------------|--------------------|
G  :----------------------|--------------------|--------------------|
D  :----------------------|--------------------|--------------------|

============================================================================

D  :--------------------|--------------------|----------------|
A  :--------------------|------------4-------|----------------|
F  :--------------------|--------------------|----------------|
C  :1---------------1---|----------------1---|----------------|
G  :2---2-2-2-2-2-2-2---|2-2-2-2-2-2-----2---|----------------|
D  :----0-0-0-0-0-0-0---|0-0-0-0-0-0---------|----------------|
        * * * * * *      * * * * * *
D  :--------------------|--------------------|----------------|
A  :--------------------|--------------------|----------------|
F  :--------------------|--------------------|----------------|
C  :--------------------|--------------------|----------------|
G  :--------------------|--------------------|----------------|
D  :--------------------|--------------------|----------------|

============================================================================

D  :------------------|------------------|------------------|
A  :------------------|------------------|------------------|
F  :------------------|------------------|------------------|
C  :------------1-1-1-|1---1---1-1-1---1-|--1---------1-1-1-|
G  :------------2-2-2-|2---2---2-2-2---2-|--2-3-2-1-0-2-2-2-|
D  :------------0-0-0-|0---0---0-0-0---0-|--0-3-2-1-0-0-0-0-|
                * * *  *   *   * * *   *    * * * * * * * * 
D  :------------------|------------------|------------------|
A  :------------------|------------------|------------------|
F  :------------------|------------------|------------------|
C  :------------------|------------------|------------------|
G  :------------------|------------------|------------------|
D  :------------------|------------------|------------------|

============================================================================

D  :------------------|------------------|------------------|
A  :------------------|----4-4-4---------|------------------|
F  :------------------|------------------|------------------|
C  :1---1---1-1-1---1-|--1-1-1-1---1-1-1-|1---1---1-1-1---1-|
G  :2---2---2-2-2---2-|--2-2-2-2---2-2-2-|2---2---2-2-2---2-|
D  :0---0---0-0-0---0-|--0---------0-0-0-|0---0---0-0-0---0-|
    *   *   * * *   *    *         * * *  *   *   * * *   *
D  :------------------|------------------|------------------|
A  :------------------|------------------|------------------|
F  :------------------|------------------|------------------|
C  :------------------|------------------|------------------|
G  :------------------|------------------|------------------|
D  :------------------|------------------|------------------|

============================================================================

D  :------------------|------------------|------------------|
A  :------------------|------------------|----4-4-4---------|
F  :------------------|------------------|------------------|
C  :--1---------1-1-1-|1---1---1-1-1---1-|--1-1-1-1---1-1-1-|
G  :--2-3-2-1-0-2-2-2-|2---2---2-2-2---2-|--2-2-2-2---2-2-2-|
D  :--0-3-2-1-0-0-0-0-|0---0---0-0-0---0-|--0---------0-0-0-|
      * * * * * * * *  *   *   * * *   *    *         * * *
D  :------------------|------------------|------------------|
A  :------------------|------------------|------------------|
F  :------------------|------------------|------------------|
C  :------------------|------------------|------------------|
G  :------------------|------------------|------------------|
D  :------------------|------------------|------------------|

============================================================================

D  :------------------|------------------|------------------|
A  :------------------|------------------|------------------|
F  :------------------|------------------|------------------|
C  :1---1---1-1-1---1-|*-----------1-1-1-|1---1---1-1-1---1-|
G  :2---2---2-2-2---2-|*---3-2-1-0-2-2-2-|2---2---2-2-2---2-|
D  :0---0---0-0-0---0-|*---3-2-1-0-0-0-0-|0---0---0-0-0---0-|
    *   *   * * *   *      * * * * * * *  *   *   * * *   *
D  :------------------|------------------|------------------|
A  :------------------|------------------|------------------|
F  :------------------|------------------|------------------|
C  :------------------|------------------|------------------|
G  :------------------|------------------|------------------|
D  :------------------|------------------|------------------|

============================================================================

D  :------------------|------------------|----------------|
A  :----4-4-4---------|------------------|----------------|
F  :------------------|------------------|----------------|
C  :--1-1-1-1---1-1-1-|1---1---1-1-1---1-|*---------------|
G  :--2-2-2-2---2-2-2-|2---2---2-2-2---2-|*---3-2-1-0-3-2-|
D  :--0---------0-0-0-|0---0---0-0-0---0-|*---3-2-1-0-3-2-|
      *         * * *  *   *   * * *   *      * * * * * *
D  :------------------|------------------|----------------|
A  :------------------|------------------|----------------|
F  :------------------|------------------|----------------|
C  :------------------|------------------|----------------|
G  :------------------|------------------|----------------|
D  :------------------|------------------|----------------|

============================================================================

D  :------------------|------------------|----------------|----------------|
A  :------------------|--------------4-4-|4---------------|----------------|
F  :------------------|------------------|----------------|----------------|
C  :----1-1-1-1---1---|1-1-1---1---1-1-1-|1---------------|----------------|
G  :1-0-2-2-2-2---2---|2-2-2---2---2-2-2-|2---------------|----------------|
D  :1-0-0-0-0-0---0---|0-0-0---0---0-----|----------------|----------------|
    * * * * * *   *    * * *   *   *
D  :------------------|------------------|----------------|----------------|
A  :------------------|------------------|----------------|----------------|
F  :------------------|------------------|----------------|----------------|
C  :------------------|------------------|----------------|----------------|
G  :------------------|------------------|----------------|----------------|
D  :------------------|------------------|----------------|----------------|

============================================================================

D  :---------------*|
A  :---------------*|
F  :---------------*|
C  :---------------*|
G  :---------------*|
D  :---------------*|

D  :---------------*|
A  :---------------*|
F  :---------------*|
C  :---------------*|
G  :---------------*|
D  :---------------*|
comments
We did not receive enough feedback on this tab! Please rate:
print report bad tab
1 2 3 4 5
2 comments total.
0 reply
sochoii wrote on June 3 2010, 06:53 pm

you really think they tuned a drop below standard? they always go drop C it seems like

0 reply
Izzojj wrote on June 3 2010, 10:41 pm

Yeah the normally do, but they had a couple songs where they were in D standard. They tune before they play this song live, and or switch guitars.

I want to post or [tab]
guest
You may want to rate the tab now too:
select rating
Please do not post tabs as comments. Select "correction" instead!