Oops, an error
Loading. Please wait.

An American Dream Tab

ver2
ver2

Whole song

More versions @911Tabs.com
2,401 views 1 this week
no commentswrite comment
1 2 3 4 5
excellent!
x 1
Autoscroll
+/-
esc
set tempo
stop
Contributor
Hey! There's an official Ultimate Guitar app which is ideal
for learning songs when you're away from computer. Get the app
WARNING: You are trying to view
                                    content from Ultimate-Guitar.com
                                    in an unauthorized application,
                                    which is prohibited.

                                    Please use an official Ultimate
                                    Guitar Tabs application for iPhone,
                                    iPad or Android to access legitimate
                                    chords, guitar, bass, and drum tabs
                                    from Ultimate-Guitar.com database.

                                    Type "ultimate guitar tabs" in Apple
                                    App Store's or Android Market's
                                    search to find the application.
This tab is 100% correct due to the fact that I got them from the JB (guitarist)

D  :------------------|------------------|------------------|
A  :------------------|-----------7-8-10-|------------------|
F  :------------------|--7---------------|------------------|
C  :4-5-7-5-0-8-7-----|0---8----0--------|4-5-7-5-0-8-7-----|
G  :--------------6-5-|0-----10-0--------|--------------6-5-|
C  :------------------|0--------0--------|------------------|
                       *        *
D  :------------------|------------------|------------------|
A  :------------------|------------------|------------------|
F  :------------------|------------------|------------------|
C  :------------------|0-----------------|0---*-------------|
G  :------------------|0-----------------|0---*-------------|
C  :------------------|0-----------------|0---*-------------|
                       *                  *
============================================================================

D  :--------------------|------------------|------------------|
A  :-------------7-8-10-|------------------|-----------7-8-10-|
F  :----7---------------|------------------|--7---------------|
C  :0-----8----0--------|4-5-7-5-0-8-7-----|0---8----0--------|
G  :0-------10-0--------|--------------6-5-|0-----10-0--------|
C  :0----------0--------|------------------|0--------0--------|
               *                                     *
D  :--------------------|------------------|------------------|
A  :--------------------|------------------|------------------|
F  :--------------------|------------------|------------------|
C  :0-0-0-0----0--------|------------------|0-----------------|
G  :0-0-0-0----0--------|------------------|0-----------------|
C  :0-0-0-0----0--------|------------------|0-----------------|
    * * * *    *                            *
============================================================================

D  :------------------|--------------------|--------------------------|
A  :------------------|-------------7-8-10-|--------------------------|
F  :------------------|----7---------------|--------------------------|
C  :4-5-7-5-0-8-7-----|0-----8----0--------|4-5-7-5-0---8---7---------|
G  :--------------6-5-|0-------10-0--------|--------------------6---5-|
C  :------------------|0----------0--------|--------------------------|
                       *          *
D  :------------------|--------------------|--------------------------|
A  :------------------|--------------------|--------------------------|
F  :------------------|--------------------|--------------------------|
C  :0---*-------------|0-0-0-0----0--------|0-0-0---0-0-0-0-0-0-0-0---|
G  :0---*-------------|0-0-0-0----0--------|0-0-0---0-0-0-0-0-0-0-0---|
C  :0---*-------------|0-0-0-0----0--------|0-0-0---0-0-0-0-0-0-0-0---|
    *                  * * * *    *         * * *   * * * * * * * *
============================================================================

D  :--------------------------|--------------------------|
A  :-----------------7---8-10-|--------------------------|
F  :--7-----------------------|--------------------------|
C  :0-----8------0------------|4-5-7-5-0---8---7---------|
G  :0---------10-0------------|--------------------6---5-|
C  :0------------0------------|--------------------------|
                 *
D  :--------------------------|--------------------------|
A  :--------------------------|--------------------------|
F  :--------------------------|--------------------------|
C  :--0-0-0-0----0-0-0-0-0----|0-0-0---0-0-0-0-0-0-0-0---|
G  :--0-0-0-0----0-0-0-0-0----|0-0-0---0-0-0-0-0-0-0-0---|
C  :--0-0-0-0----0-0-0-0-0----|0-0-0---0-0-0-0-0-0-0-0---|
      * * * *    * * * * *     * * *   * * * * * * * *
============================================================================

D  :--------------------------|--------------------------|
A  :-----------------7---8-10-|--------------------------|
F  :--7-----------------------|--------------------------|
C  :0-----8------0------------|4-5-7-5-0---8---7---------|
G  :0---------10-0------------|--------------------6---5-|
C  :0------------0------------|--------------------------|
                 *
D  :--------------------------|--------------------------|
A  :--------------------------|--------------------------|
F  :--------------------------|--------------------------|
C  :--0-0-0-0----0-0-0-0-0----|0-0-0---0-0-0-0-0-0-0-0---|
G  :--0-0-0-0----0-0-0-0-0----|0-0-0---0-0-0-0-0-0-0-0---|
C  :--0-0-0-0----0-0-0-0-0----|0-0-0---0-0-0-0-0-0-0-0---|
      * * * *    * * * * *     * * *   * * * * * * * *
============================================================================

D  :--------------------------|--------------------------|
A  :-----------------7---8-10-|--------------------------|
F  :--7-----------------------|--------------------------|
C  :0-----8------0------------|4-5-7-5-0---8---7---------|
G  :0---------10-0------------|--------------------6---5-|
C  :0------------0------------|--------------------------|
                 *
D  :--------------------------|--------------------------|
A  :--------------------------|--------------------------|
F  :--------------------------|--------------------------|
C  :--0-0-0-0----0-0-0-0-0----|0-0-0---0-0-0-0-0-0-0-0---|
G  :--0-0-0-0----0-0-0-0-0----|0-0-0---0-0-0-0-0-0-0-0---|
C  :--0-0-0-0----0-0-0-0-0----|0-0-0---0-0-0-0-0-0-0-0---|
      * * * *    * * * * *     * * *   * * * * * * * *
============================================================================

D  :--------------------------|------------------|--------------------|
A  :-----------------7---8-10-|------------------|--------------------|
F  :--7-----------------------|------------------|--------------------|
C  :0-----8------0------------|0-0-0-0-0-7-0-5-0-|-8-0-7-0-0-0-0-0-0-0|
G  :0---------10-0------------|0-0-0-0-0-8-0-7-0-|10-0-8-0-0-0-0-0-0-0|
C  :0------------0------------|0-0-0-0-0---0---0-|---0---0-0-0-0-0-0-0|
                 *             * * * * *   *   *     *   * * * * * * *
D  :--------------------------|------------------|--------------------|
A  :--------------------------|------------------|--------------------|
F  :--------------------------|------------------|--------------------|
C  :--0-0-0-0----0-0-0-0-0----|------------------|--------------------|
G  :--0-0-0-0----0-0-0-0-0----|------------------|--------------------|
C  :--0-0-0-0----0-0-0-0-0----|------------------|--------------------|
      * * * *    * * * * *
============================================================================

D  :-------------------|---------------------|------------------|
A  :-------------------|---------------------|------------------|
F  :----10----9---12---|10-------------------|------------------|
C  :0-0-12-0-11-0-14-0-|12-0-0-0-0-0-0-0-0-0-|0-0-0-0-0-7-0-5-0-|
G  :0-0----0----0----0-|---0-0-0-0-0-0-0-0-0-|0-0-0-0-0-8-0-7-0-|
C  :0-0----0----0----0-|---0-0-0-0-0-0-0-0-0-|0-0-0-0-0---0---0-|
    * *    *    *    *     * * * * * * * * *  * * * * *   *   *
D  :-------------------|---------------------|------------------|
A  :-------------------|---------------------|------------------|
F  :-------------------|---------------------|------------------|
C  :-------------------|---------------------|------------------|
G  :-------------------|---------------------|------------------|
C  :-------------------|---------------------|------------------|

============================================================================

D  :--------------------|-------------------|---------------------|
A  :--------------------|-------------------|---------------------|
F  :--------------------|----10----9---12---|10-------------------|
C  :-8-0-7-0-0-0-0-0-0-0|0-0-12-0-11-0-14-0-|12-0-0-0-0-0-0-0-0---|
G  :10-0-8-0-0-0-0-0-0-0|0-0----0----0----0-|---0-0-0-0-0-0-0-0---|
C  :---0---0-0-0-0-0-0-0|0-0----0----0----0-|---0-0-0-0-0-0-0-0---|
       *   * * * * * * * * *    *    *    *     * * * * * * * *
D  :--------------------|-------------------|---------------------|
A  :--------------------|-------------------|---------------------|
F  :--------------------|-------------------|---------------------|
C  :--------------------|-------------------|---------------------|
G  :--------------------|-------------------|---------------------|
C  :--------------------|-------------------|---------------------|

============================================================================

D  :------------------|--------------------|----------------------|
A  :------------------|--------------------|----------------------|
F  :------------------|--------------------|----------------------|
C  :0-0-0-0-0-3-0-2-0-|0-0-0-0-0-----0-----|0-0-0-0-0-0-7-6-0---0-|
G  :0-0-0-0-0---0---0-|0-0-0-0-0-1-0-0-4-7-|0-0-0-0-0-0-------7-0-|
C  :0-0-0-0-0---0---0-|0-0-0-0-0-----0-----|0-0-0-0-0-0---------0-|
    * * * * *   *   *  * * * * *     *      * * * * * *         *
D  :------------------|--------------------|----------------------|
A  :------------------|--------------------|----------------------|
F  :------------------|--------------------|----------------------|
C  :------------------|--------------------|----------------------|
G  :------------------|--------------------|----------------------|
C  :------------------|--------------------|----------------------|

============================================================================

D  :------------------|--------------------|--------------------|
A  :------------------|--------------------|--------------------|
F  :------------------|--------------------|--------------------|
C  :--6---0-0-0-0-0-0-|3-0-2-0-0-0-0-0-0---|--0-----0-0-0-0-0-0-|
G  :8---7-0-0-0-0-0-0-|--0---0-0-0-0-0-0-1-|0-0-4-7-0-0-0-0-0-0-|
C  :------0-0-0-0-0-0-|--0---0-0-0-0-0-0---|--0-----0-0-0-0-0-0-|
          * * * * * *    *   * * * * * *      *     * * * * * *
D  :------------------|--------------------|--------------------|
A  :------------------|--------------------|--------------------|
F  :------------------|--------------------|--------------------|
C  :------------------|--------------------|--------------------|
G  :------------------|--------------------|--------------------|
C  :------------------|--------------------|--------------------|

============================================================================

D  :------------------|------------------|--------------------|
A  :------------------|------------------|--------------------|
F  :------------------|------------------|--------------------|
C  :7-6-0---0---6---0-|0-0-0-0-0-3-0-2-0-|0-0-0-0-0-----0-----|
G  :------7-0-8---7-0-|0-0-0-0-0---0---0-|0-0-0-0-0-1-0-0-4-7-|
C  :--------0-------0-|0-0-0-0-0---0---0-|0-0-0-0-0-----0-----|
            *       *  * * * * *   *   *  * * * * *     *
D  :------------------|------------------|--------------------|
A  :------------------|------------------|--------------------|
F  :------------------|------------------|--------------------|
C  :------------------|------------------|--------------------|
G  :------------------|------------------|--------------------|
C  :------------------|------------------|--------------------|

============================================================================

D  :----------------------|------------------|--------------------|
A  :----------------------|------------------|--------------------|
F  :----------------------|------------------|--------------------|
C  :0-0-0-0-0-0-7-6-0---0-|--6---0-0-0-0-0-0-|3-0-2-0-0-0-0-0-0---|
G  :0-0-0-0-0-0-------7-0-|8---7-0-0-0-0-0-0-|--0---0-0-0-0-0-0-1-|
C  :0-0-0-0-0-0---------0-|------0-0-0-0-0-0-|--0---0-0-0-0-0-0---|
    * * * * * *         *        * * * * * *    *   * * * * * *
D  :----------------------|------------------|--------------------|
A  :----------------------|------------------|--------------------|
F  :----------------------|------------------|--------------------|
C  :----------------------|------------------|--------------------|
G  :----------------------|------------------|--------------------|
C  :----------------------|------------------|--------------------|

============================================================================

D  :--------------------|------------------|--------------------|
A  :--------------------|------------------|--------------------|
F  :--------------------|------------------|--------------------|
C  :--0-----0-0-0-0-0-0-|7-6-0---0---6---0-|--------------------|
G  :0-0-4-7-0-0-0-0-0-0-|------7-0-8---7-0-|--------------------|
C  :--0-----0-0-0-0-0-0-|--------0-------0-|--------------------|
      *     * * * * * *          *       *
D  :--------------------|------------------|--------------------|
A  :--------------------|------------------|--------------------|
F  :--------------------|------------------|--------------------|
C  :--------------------|------------------|0-0-0-0-0-----0-0-0-|
G  :--------------------|------------------|0-0-0-0-0-----0-0-0-|
C  :--------------------|------------------|0-0-0-0-0-----0-0-0-|
                                            * * * * *     * * *
============================================================================

D  :----------------------|--------------------|--------------------|
A  :----------------------|--------------------|--------------------|
F  :----------------------|--------------------|--------------------|
C  :----------------------|--------------------|--------------------|
G  :----------------------|--------------------|--------------------|
C  :----------------------|--------------------|--------------------|

D  :----------------------|--------------------|--------------------|
A  :----------------------|--------------------|--------------------|
F  :----------------------|--------------------|--------------------|
C  :--0-0-0-0-0-0-0-0-0---|0-0-0-0-0-0-0-0-0-0-|----0-0-0---0-0-0-0-|
G  :--0-0-0-0-0-0-0-0-0---|0-0-0-0-0-0-0-0-0-0-|----0-0-0---0-0-0-0-|
C  :--0-0-0-0-0-0-0-0-0---|0-0-0-0-0-0-0-0-0-0-|----0-0-0---0-0-0-0-|
      * * * * * * * * *    * * * * * * * * * *      * * *   * * * *
============================================================================

D  :----------------------|--------------------|----------------------|
A  :----------------------|--------------------|----------------------|
F  :----------------------|--------------------|----------------------|
C  :----------------------|--------------------|----------------------|
G  :----------------------|--------------------|----------------------|
C  :----------------------|--------------------|----------------------|

D  :----------------------|--------------------|----------------------|
A  :----------------------|--------------------|----------------------|
F  :----------------------|--------------------|----------------------|
C  :0-0-0-0-0---0-0-0-0-0-|0-0-0-0-0-----0-0-0-|--0-0-0-0-0-0-0-0-0---|
G  :0-0-0-0-0---0-0-0-0-0-|0-0-0-0-0-----0-0-0-|--0-0-0-0-0-0-0-0-0---|
C  :0-0-0-0-0---0-0-0-0-0-|0-0-0-0-0-----0-0-0-|--0-0-0-0-0-0-0-0-0---|
    * * * * *   * * * * *  * * * * *     * * *    * * * * * * * * *
============================================================================

D  :--------------------|------------------|------------------|
A  :--------------------|------------------|------------------|
F  :--------------------|------------------|------------------|
C  :--------------------|------------------|------------------|
G  :--------------------|------------------|------------------|
C  :--------------------|------------------|------------------|

D  :--------------------|------------------|------------------|
A  :--------------------|------------------|------------------|
F  :--------------------|6---------3-7---7-|--6-6-------------|
C  :0-0-0-0-0-0-0-0-0-0-|------0-0-----0---|0-----0-0-0-0-0-0-|
G  :0-0-0-0-0-0-0-0-0-0-|4-----0-0-1-5-0-5-|0-4-0-0-0-0-0-0-0-|
C  :0-0-0-0-0-0-0-0-0-0-|------0-0-----0---|0-----0-0-0-0-0-0-|
    * * * * * * * * * *        * *     *    *     * * * * * *
============================================================================

D  :------------------|------------------|--------------------|
A  :------------------|------------------|--------------------|
F  :------------------|------------------|9---------6-10---10-|
C  :------------------|------------------|--------------------|
G  :------------------|------------------|7---------4--8----8-|
C  :------------------|------------------|--------------------|

D  :------------------|------------------|--------------------|
A  :------------------|------------------|--------------------|
F  :6---------3-7---7-|--6-6-------------|6---------3--7----7-|
C  :------0-0-----0---|0-----0-0-0-0-0-0-|------0-0------0----|
G  :4-----0-0-1-5-0-5-|0-4-0-0-0-0-0-0-0-|4-----0-0-1--5-0--5-|
C  :------0-0-----0---|0-----0-0-0-0-0-0-|------0-0------0----|
          * *     *    *     * * * * * *        * *      *
============================================================================

D  :------------------|--------------------|------------------|
A  :------------------|--------------------|------------------|
F  :--9-9-------------|9---------6-10---10-|--9-9-------------|
C  :------------------|--------------------|------------------|
G  :--7-0-------------|7---------4--8----8-|--7-0-------------|
C  :------------------|--------------------|------------------|

D  :------------------|--------------------|------------------|
A  :------------------|--------------------|------------------|
F  :--6-6-------------|6---------3--7----7-|--6-6-------------|
C  :0-----0-0-0-0-0-0-|------0-0------0----|0-----0-0-0-0-0-0-|
G  :0-4-0-0-0-0-0-0-0-|4-----0-0-1--5-0--5-|0-4-0-0-0-0-0-0-0-|
C  :0-----0-0-0-0-0-0-|------0-0------0----|0-----0-0-0-0-0-0-|
    *     * * * * * *        * *      *     *     * * * * * *
============================================================================

D  :--------------------|------------------|--------------------|
A  :--------------------|------------------|--------------------|
F  :9---------6-10---10-|--9-9-------------|9---------6-10---10-|
C  :--------------------|------------------|--------------------|
G  :7---------4--8----8-|--7-0-------------|7---------4--8----8-|
C  :--------------------|------------------|--------------------|

D  :--------------------|------------------|--------------------|
A  :--------------------|------------------|--------------------|
F  :6---------3--7----7-|--6-6-------------|6---------3--7----7-|
C  :------0-0------0----|0-----0-0-0-0-0-0-|------0-0------0----|
G  :4-----0-0-1--5-0--5-|0-4-0-0-0-0-0-0-0-|4-----0-0-1--5-0--5-|
C  :------0-0------0----|0-----0-0-0-0-0-0-|------0-0------0----|
          * *      *     *     * * * * * *        * *      *
============================================================================

D  :----------------------|----------------------|----------------------|
A  :----------------------|----------------------|----------------------|
F  :--9-9-----------------|----------------------|----------------------|
C  :------0-5-8-0-4-7-0-0-|5-4-----5-8-0-4-7-0-0-|5-4-----5-8-0-4-7-0-0-|
G  :--7-0-0-------------0-|----6-5-------------0-|----6-5-------------0-|
C  :------0-------------0-|--------------------0-|--------------------0-|
          *             *                      *                      *
D  :----------------------|----------------------|----------------------|
A  :----------------------|----------------------|----------------------|
F  :--6-6-----------------|----------------------|----------------------|
C  :0---------------------|----------------------|----------------------|
G  :0-4-0-----------------|----------------------|----------------------|
C  :0---------------------|----------------------|----------------------|
    *
============================================================================

D  :----------------------|------------------------|
A  :----------------------|------------------------|
F  :----------------------|------------------------|
C  :5-4-----5-8-0-4-7-0-0-|4-7-1-0-5--8-0-4--7-0-0-|
G  :----6-5-------------0-|4-7-1-0---------------0-|
C  :--------------------0-|4-7-1-0---------------0-|
                        *  * * * *               *
D  :----------------------|------------------------|
A  :----------------------|------------------------|
F  :----------------------|------------------------|
C  :----------------------|--------8-11-0-7-10-0---|
G  :----------------------|------------------------|
C  :----------------------|------------------------|

============================================================================

D  :-------------------------|-------------------------|
A  :-------------------------|-------------------------|
F  :-------------------------|-------------------------|
C  :5-4------5--8-0-4--7-0-0-|5-4------5--8-0-4--7-0-0-|
G  :-----6-5---------------0-|-----6-5---------------0-|
C  :-----------------------0-|-----------------------0-|
                           *                         *
D  :-------------------------|-------------------------|
A  :-------------------------|-------------------------|
F  :-------------------------|-------------------------|
C  :8-7------8-11-0-7-10-0---|8-7------8-11-0-7-10-0---|
G  :----10-9-----------------|----10-9-----------------|
C  :-------------------------|-------------------------|

============================================================================

D  :-------------------------|----------------------|
A  :-------------------------|----------------------|
F  :-------------------------|----------------------|
C  :5-4------5--8-0-4--7-0-0-|4-7-1-0-5-8-0-4-7-0-0-|
G  :-----6-5---------------0-|4-7-1-0-------------0-|
C  :-----------------------0-|4-7-1-0-------------0-|
                           *  * * * *             *
D  :-------------------------|----------------------|
A  :-------------------------|----------------------|
F  :-------------------------|----------------------|
C  :8-7------8-11-0-7-10-0---|----------------------|
G  :----10-9-----------------|----------------------|
C  :-------------------------|----------------------|

============================================================================

D  :----------------------------|----------------------|
A  :----------------------------|----------------------|
F  :----------------------------|----------------------|
C  :5-8-0-4-7-0-0-5-8-0-4-7-0-0-|5-4-----5-8-0-4-7-0-0-|
G  :------------0-------------0-|----6-5-------------0-|
C  :------------0-------------0-|--------------------0-|
                *             *                      *
D  :----------------------------|----------------------|
A  :----------------------------|----------------------|
F  :----------------------------|----------------------|
C  :----------------------------|----------------------|
G  :----------------------------|----------------------|
C  :----------------------------|----------------------|

============================================================================

D  :----------------------------|------------------------|
A  :----------------------------|------------------------|
F  :----------------------------|------------------------|
C  :5-8-0-4-7-0-0-5-8-0-4-7-0-0-|4-7-1-0-5--8-0-4--7-0-0-|
G  :------------0-------------0-|4-7-1-0---------------0-|
C  :------------0-------------0-|4-7-1-0---------------0-|
                *             *  * * * *               *
D  :----------------------------|------------------------|
A  :----------------------------|------------------------|
F  :----------------------------|------------------------|
C  :----------------------------|--------8-11-0-7-10-0---|
G  :----------------------------|------------------------|
C  :----------------------------|------------------------|

============================================================================

D  :--------------------------------|-------------------------|
A  :--------------------------------|-------------------------|
F  :--------------------------------|-------------------------|
C  :5--8-0-4--7-0-0-5--8-0-4--7-0-0-|5-4------5--8-0-4--7-0-0-|
G  :--------------0---------------0-|-----6-5---------------0-|
C  :--------------0---------------0-|-----------------------0-|
                  *               *                         *
D  :--------------------------------|-------------------------|
A  :--------------------------------|-------------------------|
F  :--------------------------------|-------------------------|
C  :8-11-0-7-10-0---8-11-0-7-10-0---|8-7--------11-0-7-10-0---|
G  :--------------------------------|----10-9-----------------|
C  :--------------------------------|-------------------------|

============================================================================

D  :--------------------------------|----------------|------------------|
A  :--------------------------------|----------------|------------------|
F  :--------------------------------|----------------|------------------|
C  :5--8-0-4--7-0-0-5--8-0-4--7-0-0-|4-7-1-0-4-7---0-|4-7-1-0-4-0-0-0-0-|
G  :--------------0---------------0-|4-7-1-0-4-7---0-|4-7-1-0-4-0-0-0-0-|
C  :--------------0---------------0-|4-7-1-0-4-7---0-|4-7-1-0-4-0-0-0-0-|
                  *               *  * * * * * *   *  * * * * * * * * *
D  :--------------------------------|----------------|------------------|
A  :--------------------------------|----------------|------------------|
F  :--------------------------------|----------------|------------------|
C  :8-11-0-7-10-0---8-11-0-7-10-0---|----------------|------------------|
G  :--------------------------------|----------------|------------------|
C  :--------------------------------|----------------|------------------|

============================================================================

D  :----------------|------------------|----------------|------------------|
A  :----------------|------------------|----------------|------------------|
F  :----------------|------------------|----------------|------------------|
C  :4-7-1-0-4-7---0-|4-7-1-0-4-0-0-0-0-|5-8-1-0-5-8---0-|5-8-1-0-5-0-0-0-0-|
G  :4-7-1-0-4-7---0-|4-7-1-0-4-0-0-0-0-|5-8-1-0-5-8---0-|5-8-1-0-5-0-0-0-0-|
C  :4-7-1-0-4-7---0-|4-7-1-0-4-0-0-0-0-|5-8-1-0-5-8---0-|5-8-1-0-5-0-0-0-0-|
    * * * * * *   *  * * * * * * * * *  * * * * * *   *  * * * * * * * * *
D  :----------------|------------------|----------------|------------------|
A  :----------------|------------------|----------------|------------------|
F  :----------------|------------------|----------------|------------------|
C  :----------------|------------------|----------------|------------------|
G  :----------------|------------------|----------------|------------------|
C  :----------------|------------------|----------------|------------------|

============================================================================

D  :----------------|------------------|----------------|------------------|
A  :----------------|------------------|----------------|------------------|
F  :----------------|------------------|----------------|------------------|
C  :5-8-1-0-5-8---0-|5-8-1-0-5-0-0-0-0-|4-7-1-0-4-7---0-|4-7-1-0-4-0-0-0-0-|
G  :5-8-1-0-5-8---0-|5-8-1-0-5-0-0-0-0-|4-7-1-0-4-7---0-|4-7-1-0-4-0-0-0-0-|
C  :5-8-1-0-5-8---0-|5-8-1-0-5-0-0-0-0-|4-7-1-0-4-7---0-|4-7-1-0-4-0-0-0-0-|
    * * * * * *   *  * * * * * * * * *  * * * * * *   *  * * * * * * * * *
D  :----------------|------------------|----------------|------------------|
A  :----------------|------------------|----------------|------------------|
F  :----------------|------------------|----------------|------------------|
C  :----------------|------------------|----------------|------------------|
G  :----------------|------------------|----------------|------------------|
C  :----------------|------------------|----------------|------------------|

============================================================================

D  :----------------|------------------|----------------|------------------|
A  :----------------|------------------|----------------|------------------|
F  :----------------|------------------|----------------|------------------|
C  :4-7-1-0-4-7---0-|4-7-1-0-4-0-0-0-0-|5-8-1-0-5-8---0-|5-8-1-0-5-0-0-0-0-|
G  :4-7-1-0-4-7---0-|4-7-1-0-4-0-0-0-0-|5-8-1-0-5-8---0-|5-8-1-0-5-0-0-0-0-|
C  :4-7-1-0-4-7---0-|4-7-1-0-4-0-0-0-0-|5-8-1-0-5-8---0-|5-8-1-0-5-0-0-0-0-|
    * * * * * *   *  * * * * * * * * *  * * * * * *   *  * * * * * * * * *
D  :----------------|------------------|----------------|------------------|
A  :----------------|------------------|----------------|------------------|
F  :----------------|------------------|----------------|------------------|
C  :----------------|------------------|----------------|------------------|
G  :----------------|------------------|----------------|------------------|
C  :----------------|------------------|----------------|------------------|

============================================================================

D  :----------------|------------------|----------------|----------------|
A  :----------------|------------------|----------------|----------------|
F  :----------------|------------------|----------------|----------------|
C  :5-8-1-0-5-8---0-|5-8-1-0-5-0-0-0-0-|5-----5-----5---|--5-----8-----8-|
G  :5-8-1-0-5-8---0-|5-8-1-0-5-0-0-0-0-|--5-5---5-5---5-|5---5-5---5-5---|
C  :5-8-1-0-5-8---0-|5-8-1-0-5-0-0-0-0-|--5-5---5-5---5-|5---5-5---5-5---|
    * * * * * *   *  * * * * * * * * *    * *   * *   *  *   * *   * *
D  :----------------|------------------|----------------|----------------|
A  :----------------|------------------|----------------|----------------|
F  :----------------|------------------|----------------|--------7-----7-|
C  :----------------|------------------|----------------|----------------|
G  :----------------|------------------|----------------|----------------|
C  :----------------|------------------|----------------|----------------|

============================================================================

D  :----------------|----------------|--5------6-5-------|
A  :----------------|------------6---|--------------6----|
F  :----------------|7-----7---------|-----------------7-|
C  :----8-----8-----|----------------|-------------------|
G  :5-5---5-5---5-5-|--0-0---0-0---0-|0---0-0------------|
C  :5-5---5-5---5-5-|--0-0---0-0---0-|0---0-0------------|
    * *   * *   * *    * *   * *   *  *   * *
D  :----------------|------------5---|--8-----10-8-------|
A  :----------------|6-----6---------|-------------10----|
F  :----7-----7-----|----------------|----------------10-|
C  :----------------|----------------|-------------------|
G  :----------------|----------------|-------------------|
C  :----------------|----------------|-------------------|

============================================================================

D  :-----6-5-----------|------------------------|--------------------|
A  :----------6--------|------------------------|--------------------|
F  :-------------7-----|-7--7--7--7--7--7-10-10-|10-10-10-10-7-7-7-7-|
C  :-------------------|-8--8--8--8--8--8--8--8-|-8--8--8--8-5-5-5-5-|
G  :0-0------------0-0-|-8--8--8--8--8--8--8--8-|-8--8--8--8-5-5-5-5-|
C  :0-0------------0-0-|-8--8--8--8--8--8--8--8-|-8--8--8--8-5-5-5-5-|
    * *            * *
D  :----10-8-----------|------------------------|--------------------|
A  :---------10--------|10-10-10----------10-10-|10----------6-6-6---|
F  :------------10-----|---------10-10-10-------|---10-10-10---------|
C  :-------------------|------------------------|------------------7-|
G  :-------------------|------------------------|--------------------|
C  :-------------------|------------------------|--------------------|

============================================================================

D  :----------------|-----------------|----------6-5-------|
A  :----6-6-6-6-6-6-|-----------------|---------------6----|
F  :7-7-7-7-7-7-7-7-|-----------------|------------------7-|
C  :5-5-5-5-5-5-5-5-|0-0-0-3-0-0--7-0-|0-5--8-0------------|
G  :5-5-5-5-5-5-5-5-|0-0-0-----0------|0-------------------|
C  :5-5-5-5-5-5-5-5-|0-0-0-----0------|0-------------------|
                     * * *     *       *
D  :----------------|-----------------|---------10-8-------|
A  :----6-6-6-------|-----------------|--------------10----|
F  :----------------|-----------------|-----------------10-|
C  :7-7-------7-7-7-|------7-0---10-0-|--8-12-0------------|
G  :----------------|-----------------|--------------------|
C  :----------------|-----------------|--------------------|

============================================================================

D  :-----6-5-----------|----------------|----------------|----------------|
A  :----------6--------|----------------|----------------|----------------|
F  :-------------7-----|----------------|----------------|----------------|
C  :-------------------|5-----5-----5---|--5-----8-----8-|----8-----8-----|
G  :0-0------------0-0-|--5-5---5-5---5-|5---5-5---5-5---|5-5---5-5---5-5-|
C  :0-0------------0-0-|--5-5---5-5---5-|5---5-5---5-5---|5-5---5-5---5-5-|
    * *            * *    * *   * *   *  *   * *   * *    * *   * *   * *
D  :----10-8-----------|----------------|----------------|----------------|
A  :---------10--------|----------------|----------------|----------------|
F  :------------10-----|----------------|--------7-----7-|----7-----7-----|
C  :-------------------|----------------|----------------|----------------|
G  :-------------------|----------------|----------------|----------------|
C  :-------------------|----------------|----------------|----------------|

============================================================================

D  :----------------|--5------6-5-------|-----6-5-----------|
A  :------------6---|--------------6----|----------6--------|
F  :7-----7---------|-----------------7-|-------------7-----|
C  :----------------|-------------------|-------------------|
G  :--0-0---0-0---0-|0---0-0------------|0-0------------0-0-|
C  :--0-0---0-0---0-|0---0-0------------|0-0------------0-0-|
      * *   * *   *  *   * *             * *            * *
D  :------------5---|--8-----10-8-------|----10-8-----------|
A  :6-----6---------|-------------10----|---------10--------|
F  :----------------|----------------10-|------------10-----|
C  :----------------|-------------------|-------------------|
G  :----------------|-------------------|-------------------|
C  :----------------|-------------------|-------------------|

============================================================================

D  :------------------------|--------------------|----------------|
A  :------------------------|--------------------|----6-6-6-6-6-6-|
F  :-7--7--7--7--7--7-10-10-|10-10-10-10-7-7-7-7-|7-7-7-7-7-7-7-7-|
C  :-8--8--8--8--8--8--8--8-|-8--8--8--8-5-5-5-5-|5-5-5-5-5-5-5-5-|
G  :-8--8--8--8--8--8--8--8-|-8--8--8--8-5-5-5-5-|5-5-5-5-5-5-5-5-|
C  :-8--8--8--8--8--8--8--8-|-8--8--8--8-5-5-5-5-|5-5-5-5-5-5-5-5-|

D  :------------------------|--------------------|----------------|
A  :10-10-10----------10-10-|10----------6-6-6---|----6-6-6-------|
F  :---------10-10-10-------|---10-10-10---------|----------------|
C  :------------------------|------------------7-|7-7-------7-7-7-|
G  :------------------------|--------------------|----------------|
C  :------------------------|--------------------|----------------|

============================================================================

D  :-----------------|----------6-5-------|-----6-5-----------|
A  :-----------------|---------------6----|----------6--------|
F  :-----------------|------------------7-|-------------7-----|
C  :0-0-0-3-0-0--7-0-|0-5--8-0------------|-------------------|
G  :0-0-0-----0------|0-------------------|0-0----------------|
C  :0-0-0-----0------|0-------------------|0-0----------------|
    * * *     *       *                    * *
D  :-----------------|---------10-8-------|----10-8-----------|
A  :-----------------|--------------10----|---------10--------|
F  :-----------------|-----------------10-|------------10-----|
C  :------7-0---10-0-|--8-12-0------------|---------------0-0-|
G  :-----------------|--------------------|---------------0-0-|
C  :-----------------|--------------------|---------------0-0-|
                                                          * *
============================================================================

D  :------------------|-----------------|------------------|
A  :------------------|-----------------|------------------|
F  :------------------|-----------------|------------------|
C  :------------------|-----------------|------------------|
G  :------------------|-----------------|------------------|
C  :------------------|-----------------|------------------|

D  :------------------|-----------------|------------------|
A  :------------------|-----------------|------------------|
F  :------------------|-----------------|------------------|
C  :0-0-0-0-0-0-0-7-0-|0-5-0-0--8-0-0-7-|0-0-0-0-0-0-0-0-0-|
G  :0-0-0-0-0-0-0-8-0-|0-7-0-0-10-0-0-8-|0-0-0-0-0-0-0-0-0-|
C  :0-0-0-0-0-0-0---0-|0---0-0----0-0---|0-0-0-0-0-0-0-0-0-|
    * * * * * * *   *  *   * *    * *    * * * * * * * * *
============================================================================

D  :------------------------|--------------------|----------------|
A  :------------------------|--------------------|----------------|
F  :------------------------|--------------------|----------------|
C  :------------------------|--------------------|----------------|
G  :------------------------|--------------------|----------------|
C  :------------------------|--------------------|----------------|

D  :------------------------|--------------------|----------------|
A  :------------------------|--------------------|----------------|
F  :------------10------9---|--12-----10---------|----------------|
C  :0-0-0-0-0-0-12-0-0-11-0-|0-14-0-0-12-0-0-0-0-|0-0-----5-8-7---|
G  :0-0-0-0-0-0----0-0----0-|0----0-0----0-0-0-0-|0-0-8-7-------5-|
C  :0-0-0-0-0-0----0-0----0-|0----0-0----0-0-0-0-|0-0-------------|
    * * * * * *    * *    *  *    * *    * * * *  * *
============================================================================

D  :------------------|-----------------|------------------|
A  :------------------|-----------------|------------------|
F  :------------------|-----------------|------------------|
C  :------------------|-----------------|------------------|
G  :------------------|-----------------|------------------|
C  :------------------|-----------------|------------------|

D  :------------------|-----------------|------------------|
A  :------------------|-----------------|------------------|
F  :------------------|-----------------|------------------|
C  :0-0-0-0-0-0-0-7-0-|0-5-0-0--8-0-0-7-|0-0-0-0-0-0-0-0-0-|
G  :0-0-0-0-0-0-0-8-0-|0-7-0-0-10-0-0-8-|0-0-0-0-0-0-0-0-0-|
C  :0-0-0-0-0-0-0---0-|0---0-0----0-0---|0-0-0-0-0-0-0-0-0-|
    * * * * * * *   *  *   * *    * *    * * * * * * * * *
============================================================================

D  :------------------------|--------------------|----------------|
A  :------------------------|--------------------|----------------|
F  :------------------------|--------------------|----------------|
C  :------------------------|--------------------|----------------|
G  :------------------------|--------------------|----------------|
C  :------------------------|--------------------|----------------|
                                            Some sort of slide/
D  :------------------------|--------------------|----------------|
A  :------------------------|--------------------|----------------|
F  :------------10------9---|--12-----10---------|----------------|
C  :0-0-0-0-0-0-12-0-0-11-0-|0-14-0-0-12-0-0-0-0-|0-0-0-0-0-------|
G  :0-0-0-0-0-0----0-0----0-|0----0-0----0-0-0-0-|0-0-0-0-0-------|
C  :0-0-0-0-0-0----0-0----0-|0----0-0----0-0-0-0-|0-0-0-0-0-------|
    * * * * * *    * *    *  *    * *    * * * *  * * * * *
============================================================================

D  :--------------------|------------------|----------------|
A  :--------------------|------------------|----------------|
F  :10--------10--------|9--------9--------|7-------7-------|
C  :---12-0-0----12-0-0-|--10-0-0---10-0-0-|--8-0-0---8-0-0-|
G  :------0-0-------0-0-|-----0-0------0-0-|----0-0-----0-0-|
C  :------0-0-------0-0-|-----0-0------0-0-|----0-0-----0-0-|
          * *       * *       * *      * *      * *     * *
    Stop to transition here.
D  :--------------------|------------------|----------------|
A  :--------------------|------------------|----------------|
F  :--------------------|------------------|----------------|
C  :-3------------------|2-----------------|0---------------|
G  :-5------------------|3-----------------|1---------------|
C  :--------------------|------------------|----------------|

============================================================================

D  :----------------|--------------------|-------------------|
A  :----------------|--------------------|-------------------|
F  :7-------7-------|10--------12--------|9--------10--------|
C  :--7-0-0---7-0-0-|---12-0-0----12-0-0-|--10-0-0----10-0-0-|
G  :----0-0-----0-0-|------0-0-------0-0-|-----0-0-------0-0-|
C  :----0-0-----0-0-|------0-0-------0-0-|-----0-0-------0-0-|
        * *     * *        * *       * *       * *       * *
D  :----------------|--------------------|-------------------|
A  :----------------|--------------------|-------------------|
F  :----------------|--------------------|-------------------|
C  :0---------------|-3--3-3-3--3--3-3-3-|2--2-2-2--2--2-2-2-|
G  :0---------------|-5--5-5-5--5--5-5-5-|3--3-3-3--3--3-3-3-|
C  :0---------------|--------------------|-------------------|

============================================================================

D  :----------------|-----------------|----------------------|
A  :----------------|-----------------|----------------------|
F  :7-------9-------|7-------10-------|10--------12----------|
C  :--8-0-0---8-0-0-|--7-0-0----7-0-0-|---12-0-0----12-0-0-0-|
G  :----0-0-----0-0-|----0-0------0-0-|------0-0-------0-0-0-|
C  :----0-0-----0-0-|----0-0------0-0-|------0-0-------0-0-0-|
        * *     * *      * *      * *        * *       * * *
D  :----------------|-----------------|----------------------|
A  :----------------|-----------------|10--------11----------|
F  :----------------|-----------------|---10--------10-------|
C  :0-0-0-0-0-0-0-0-|0-0-0-0--0-0-0-0-|----------------------|
G  :1-1-1-1-1-1-1-1-|0-0-0-0--0-0-0-0-|----------------------|
C  :----------------|-----------------|----------------------|

============================================================================

D  :-------------------|------------------|------------------|
A  :-------------------|------------------|------------------|
F  :--9------10----9---|7-----------9-----|--7-------10------|
C  :0---10-0----10---0-|--8-0-0-0-0---8-0-|0---7-0-0----7-0-0|
G  :0------0---------0-|----0-0-0-0-----0-|0-----0-0------0-0|
C  :0------0---------0-|----0-0-0-0-----0-|0-----0-0------0-0|
    *      *         *      * * * *     *  *     * *      * *
D  :-------------------|------------------|------------------|
A  :--8------10----8---|6-----------8-----|--6-------10------|
F  :-----9-------9-----|--7-----------7---|----7--------7----|
C  :-------------------|------------------|------------------|
G  :-------------------|------------------|------------------|
C  :-------------------|------------------|------------------|

============================================================================

D  :---------------------|--------------------|-----------------|
A  :---------------------|--------------------|-----------------|
F  :--10--------12-------|--9--------10-------|--7-------9------|
C  :0----12-0-0----12-0-0|0---10-0-0----10-0-0|0---8-0-0---8-0-0|
G  :0-------0-0-------0-0|0------0-0-------0-0|0-----0-0-----0-0|
C  :0-------0-0-------0-0|0------0-0-------0-0|0-----0-0-----0-0|
    *       * *       * * *      * *       * * *     * *     * *
D  :---------------------|--------------------|-----------------|
A  :--10--------11-------|--8--------10-------|--6-------8------|
F  :-----10--------10----|-----9---------9----|----7-------7----|
C  :---------------------|--------------------|-----------------|
G  :---------------------|--------------------|-----------------|
C  :---------------------|--------------------|-----------------|

============================================================================

D  :------------------|-----------------------|------------------|
A  :---------------11-|-----------------------|------------------|
F  :--7-------10------|------------------7-10-|6-----------------|
C  :0---7-0-0----7----|--0---------0-0-0------|--0-8-7-0-0-0-6-7-|
G  :0-----0-0---------|--0-1-0-1-0-0-0-0------|--0-----0-0-0-----|
C  :0-----0-0---------|--0---------0-0-0------|--0-----0-0-0-----|
    *     * *            *         * * *         *     * * *
D  :---------------10-|-----------------------|------------------|
A  :--6-------10------|-----------------------|------------------|
F  :----7--------7----|-----------------------|------------------|
C  :------------------|-----------------------|------------------|
G  :------------------|-----------------------|------------------|
C  :------------------|-----------------------|------------------|

============================================================================

D  :------------------------|------------------|------------------------|
A  :------------------------|------------------|------------------------|
F  :10-----------------7-10-|6-----------------|10-----------------7-10-|
C  :---0---------0-0-0------|--0-8-7-0-0-0-6-7-|---0---------0-0-0------|
G  :---0-1-0-1-0-0-0-0------|--0-----0-0-0-----|---0-1-0-1-0-0-0-0------|
C  :---0---------0-0-0------|--0-----0-0-0-----|---0---------0-0-0------|
       *         * * *         *     * * *         *         * * *
D  :------------------------|------------------|------------------------|
A  :------------------------|------------------|------------------------|
F  :------------------------|------------------|------------------------|
C  :------------------------|------------------|------------------------|
G  :------------------------|------------------|------------------------|
C  :------------------------|------------------|------------------------|

============================================================================

D  :------------------|------------------------|------------------|
A  :------------------|------------------------|------------------|
F  :6-----------------|10-----------------7-10-|6-----------------|
C  :--0-8-7-0-0-0-6-7-|---0---------0-0-0------|--0-8-7-0-0-0-6-7-|
G  :--0-----0-0-0-----|---0-1-0-1-0-0-0-0------|--0-----0-0-0-----|
C  :--0-----0-0-0-----|---0---------0-0-0------|--0-----0-0-0-----|
      *     * * *         *         * * *         *     * * *
D  :------------------|------------------------|------------------|
A  :------------------|------------------------|------------------|
F  :------------------|------------------------|------------------|
C  :------------------|------------------------|------------------|
G  :------------------|------------------------|------------------|
C  :------------------|------------------------|------------------|

============================================================================

D  :--------------------|-----------------|----------------------|
A  :--------------------|-----------------|----------------------|
F  :10------------------|-----------------|----------------------|
C  :---0-----0-0-0-0-0--|----0-0-0--0-----|0-0-0-0-0----0-0-0-0-0|
G  :---0-----0-0-0-0-0--|----0-0-0--0-----|0-0-0-0-0----0-0-0-0-0|
C  :---0-----0-0-0-0-0--|----0-0-0--0-----|0-0-0-0-0----0-0-0-0-0|
       *     * * * * *       * * *  *      * * * * *    * * * * *
D  :--------------------|-----------------|----------------------|
A  :--------------------|-----------------|----------------------|
F  :--------------------|-----------------|----------------------|
C  :--------------------|-----------------|----------------------|
G  :--------------------|-----------------|----------------------|
C  :--------------------|-----------------|----------------------|

============================================================================

D  :-------------------|-----------------|----------------------|
A  :-------------------|-----------------|----------------------|
F  :-------------------|-----------------|----------------------|
C  :--0-----0-0-0-0-0--|----0-0-0--0-----|0-0-0-0-0----0-0-0-0-0|
G  :--0-----0-0-0-0-0--|----0-0-0--0-----|0-0-0-0-0----0-0-0-0-0|
C  :--0-----0-0-0-0-0--|----0-0-0--0-----|0-0-0-0-0----0-0-0-0-0|
      *     * * * * *       * * *  *      * * * * *    * * * * *
D  :-------------------|-----------------|----------------------|
A  :-------------------|-----------------|----------------------|
F  :-------------------|-----------------|----------------------|
C  :-------------------|-----------------|----------------------|
G  :-------------------|-----------------|----------------------|
C  :-------------------|-----------------|----------------------|

============================================================================

D  :-------------------|-----------------|----------------------|
A  :-------------------|-----------------|----------------------|
F  :-------------------|-----------------|----------------------|
C  :--0-----0-0-0-0-0--|----0-0-0--0-----|0-0-0-0-0----0-0-0-0-0|
G  :--0-----0-0-0-0-0--|----0-0-0--0-----|0-0-0-0-0----0-0-0-0-0|
C  :--0-----0-0-0-0-0--|----0-0-0--0-----|0-0-0-0-0----0-0-0-0-0|
      *     * * * * *       * * *  *      * * * * *    * * * * *
D  :-------------------|-----------------|----------------------|
A  :-------------------|-----------------|----------------------|
F  :-------------------|-----------------|----------------------|
C  :-------------------|-----------------|----------------------|
G  :-------------------|-----------------|----------------------|
C  :-------------------|-----------------|----------------------|

============================================================================

D  :---------------------------|-----------------------|
A  :---------------------------|-----------------------|
F  :---------------------------|-----------------------|
C  :---0--------0-0--0--0-0----|------0-0-0-----0------|
G  :---0--------0-0--0--0-0----|------0-0-0-----0------|
C  :---0--------0-0--0--0-0----|------0-0-0-----0------|
       *        * *  *  * *           * * *     *
D  :---------------------------|-----------------------|
A  :---------------------------|-----------------------|
F  :--10----10------12------10-|---9----9------10----9-|
C  :-----12----12------12------|12---10-----10----10---|
G  :---------------------------|-----------------------|
C  :---------------------------|-----------------------|

============================================================================

D  :-------------------------|---------------------|
A  :-------------------------|---------------------|
F  :-------------------------|---------------------|
C  :-0-0-0-0-0------0-0-0-0-0|--0-----0-0--0-0-0---|
G  :-0-0-0-0-0------0-0-0-0-0|--0-----0-0--0-0-0---|
C  :-0-0-0-0-0------0-0-0-0-0|--0-----0-0--0-0-0---|
     * * * * *      * * * * *   *     * *  * * *
D  :-------------------------|---------------------|
A  :-------------------------|---------------------|
F  :-----7-----7---10-----7--|--7---7-----10-----7-|
C  :10-----8-----8------8----|8---7---7------7-----|
G  :-------------------------|---------------------|
C  :-------------------------|---------------------|

============================================================================

D  :-------------------------|----------------------------|
A  :-------------------------|----------------------------|
F  :-------------------------|----------------------------|
C  :------0--0-0-----0-------|-0-0-0--0-0-------0-0--0-0-0|
G  :------0--0-0-----0-------|-0-0-0--0-0-------0-0--0-0-0|
C  :------0--0-0-----0-------|-0-0-0--0-0-------0-0--0-0-0|
          *  * *     *         * * *  * *       * *  * * *
D  :-------------------------|----------------------------|
A  :-------------------------|----------------------------|
F  :--10----10------12----10-|-----9------9----10------9--|
C  :7----12------12----12----|12-----10-----10------10----|
G  :-------------------------|----------------------------|
C  :-------------------------|----------------------------|

============================================================================

D  :----------------------|-------------------|
A  :----------------------|-------------------|
F  :----------------------|-------------------|
C  :---0-----0-0--0-0-0---|----0-0-0----0-----|
G  :---0-----0-0--0-0-0---|----0-0-0----0-----|
C  :---0-----0-0--0-0-0---|----0-0-0----0-----|
       *     * *  * * *        * * *    *
D  :----------------------|-------------------|
A  :----------------------|-------------------|
F  :---7---7-----10-----7-|--7---7-----10---7-|
C  :10---8---8------8-----|8---7-----7----7---|
G  :----------------------|-------------------|
C  :----------------------|-------------------|

============================================================================

D  :------------------------------|-------------------------|
A  :------------------------------|-------------------------|
F  :------------------------------|-------------------------|
C  :0-0--0--0-0--------0-0--0--0-0|---0-------0-0--0--0-0---|
G  :0-0--0--0-0--------0-0--0--0-0|---0-------0-0--0--0-0---|
C  :0-0--0--0-0--------0-0--0--0-0|---0-------0-0--0--0-0---|
    * *  *  * *        * *  *  * *    *       * *  *  * *
D  :------------------------------|-------------------------|
A  :------------------------------|-------------------------|
F  :----10------10----12------10--|---9----9------10------9-|
C  :7------12------12------12-----|12---10---10------10-----|
G  :------------------------------|-------------------------|
C  :------------------------------|-------------------------|

============================================================================

D  :--------------------|------------------------|
A  :--------------------|------------------------|
F  :--------------------|------------------------|
C  :-----0-0-0----0-----|0-0-0-0-0------0-0-0-0-0|
G  :-----0-0-0----0-----|0-0-0-0-0------0-0-0-0-0|
C  :-----0-0-0----0-----|0-0-0-0-0------0-0-0-0-0|
         * * *    *      * * * * *      * * * * *
D  :--------------------|------------------------|
A  :--------------------|------------------------|
F  :---7---7-----10---7-|----7-----7---10-----7--|
C  :10---8-----8----8---|8-----7-----7------7----|
G  :--------------------|------------------------|
C  :--------------------|------------------------|

============================================================================

D  :---------------------------|-----------------------|
A  :---------------------------|-----------------------|
F  :---------------------------|-----------------------|
C  :---0--------0-0--0--0-0----|------0-0-0-----0------|
G  :---0--------0-0--0--0-0----|------0-0-0-----0------|
C  :---0--------0-0--0--0-0----|------0-0-0-----0------|
       *        * *  *  * *           * * *     *
D  :---------------------------|-----------------------|
A  :---------------------------|-----------------------|
F  :--10----10------12------10-|---9----9------10----9-|
C  :7----12----12------12------|12---10-----10----10---|
G  :---------------------------|-----------------------|
C  :---------------------------|-----------------------|

============================================================================

D  :-------------------------|---------------------|
A  :-------------------------|---------------------|
F  :-------------------------|---------------------|
C  :-0-0-0-0-0------0-0-0-0-0|--0-----0-0--0-0-0---|
G  :-0-0-0-0-0------0-0-0-0-0|--0-----0-0--0-0-0---|
C  :-0-0-0-0-0------0-0-0-0-0|--0-----0-0--0-0-0---|
     * * * * *      * * * * *   *     * *  * * *
D  :-------------------------|---------------------|
A  :-------------------------|---------------------|
F  :-----7-----7---10-----7--|--7---7-----10-----7-|
C  :10-----8-----8------8----|8---7---7------7-----|
G  :-------------------------|---------------------|
C  :-------------------------|---------------------|
comments
We did not receive enough feedback on this tab! Please rate:
print report bad tab
1 2 3 4 5
I want to post or [tab]
guest
You may want to rate the tab now too:
select rating
Please do not post tabs as comments. Select "correction" instead!