Oops, an error
Loading. Please wait.

Animals Tab

3,219 views 42 this week
no commentswrite comment
1 2 3 4 5
excellent!
x 5
Autoscroll
+/-
esc
set tempo
stop
Contributor
WARNING: You are trying to view
                                    content from Ultimate-Guitar.com
                                    in an unauthorized application,
                                    which is prohibited.

                                    Please use an official Ultimate
                                    Guitar Tabs application for iPhone,
                                    iPad or Android to access legitimate
                                    chords, guitar, bass, and drum tabs
                                    from Ultimate-Guitar.com database.

                                    Type "ultimate guitar tabs" in Apple
                                    App Store's or Android Market's
                                    search to find the application.

AUGUST BURNS RED

ANIMALS

C-G-C-F-A-D

TABBED BY BY andherembrace






GT1
----------------------------_-------------------------------|
---------------___---------/ \------------------------------|
---------------) (--------7-8-7------^-----^----------------|
--^--4-5-7~~~-7----5-4~~~-------8-7-5-7-5-5-7-8-5-4---------|
-5-6------------------------------------------------3-5~~-~-|
------------------------------------------------------------|

GT2
-2-----------------------3----------------------------------|
-3-----------------------3----------------------------------|
-2-----------------------3----------------------------------|
-0-----------------------1----------------------------------|
-0-----------------------1----------------------------------|
-0-----------------------1----------------------------------|



0:07


GT1
--------------S-------------_---------------------------------|
--------------P___---------/ \--------------------------------|
--------------H) (--------7-8-7------^-----^------------------|
--^--4-5-7~~~-7----5-4~~~-------8-7-5-7-5-5-7-8-5-4-------4-5-|
-5-6------------------------------------------------3-5-6-----|
--------------------------------------------------------------|

GT2
-2-----------------------3------------------------------------|
-3-----------------------3------------------------------------|
-2-----------------------3-------P----------------------------|
-0-----------------------1--------S---------------------------|
-0---------------------0-1---------\--------------------------|
-0---------------------0-1----------\-------------------------|
                       *




0:13

GT1
----------------------------_-------------------------------|
---------------___---------/ \------------------------P-----|
---------------) (--------7-8-7------^-----^----------H-----|
--^--4-5-7~~~-7----5-4~~~-------8-7-5-7-5-5-7-8-5-4---------|
-5-6------------------------------------------------3-5~~~--|
------------------------------------------------------------|

GT2
-2-----------------2----------------3-----------------3----------------|
-3-----------------3----------------3-----------------3----------------|
-2-----------------2----------------3-----------------3----------------|
-0-----------------0----------------1-----------------1----------------|
-0--0-0-0-0-0-0-00-0--0-0-0-00000-0-1--1-1-1-1-1-1-11-1--1-1-1-1-111-1-|
-0--0-0-0-0-0-0-00-0--0-0-0-00000-0-1--1-1-1-1-1-1-11-1--1-1-1-1-111-1-|
    * * * * * * **    * * * ***** *    * * * * * * **    * * * * *** *



0:19

GT1
----------------------------_-------------------------------|
---------------___---------/ \------------------------------|
---------------) (--------7-8-7------^-----^----------------|
--^--4-5-7~~~-7----5-4~~~-------8-7-5-7-5-5-7-8-5-4---------|
-5-6------------------------------------------------3-5~~~--|
------------------------------------------------------------|

GT2
-2-----------------2----------------3-----------------3----------------|
-3-----------------3----------------3-----------------3----------------|
-2-----------------2----------------3-----------------3----------------|
-0-----------------0----------------1-----------------1----------------|
-0--0-0-0-0-0-0-00-0--0-0-0-00000-0-1--1-1-1-1-1-1-11-1--1-1-1-1-111-1-|
-0--0-0-0-0-0-0-00-0--0-0-0-00000-0-1--1-1-1-1-1-1-11-1--1-1-1-1-111-1-|
    * * * * * * **    * * * ***** *    * * * * * * **    * * * * *** *





0:26


B                                                  __      __
--------------------------------------------------/  \----/  \---10-|
--------------------------------------------10---8-10-11-8-10-11----|
3--------/\---^-----------/\------7--8--7/8----8--------------------|
1-------7870-4-0---------4540-4/5-----------------------------------|
1-000-0----------000-0-0--------------------------------------------|
1-000-0----------000-0-0--------------------------------------------|
  *** *          *** * *



0:31

    __
L  /  \
-10-11-10-----------------^------------------------------|
----------11-10----------8-7--^-----------------^--------|
----------------11~----------8-7---------------8-7---^---|
---------------------------------1----7-------------8-7--|
--------------------0-0----------1-00-7-00-0-0-----------|
--------------------0-0----------1-00-7-00-0-0-----------|
                    * *            **   ** * *
    __
R  /  \
-10-11-10-----------------^------------------------------|
----------11-10----------8-7--^--------------------------|
----------------11~----------8-7----------------^--------|
---------------------------------1----7--------8-7--^----|
--------------------0-0----------1-00-7-00-0-0-----6-5---|
--------------------0-0----------1-00-7-00-0-0-----------|
                    * *            **   ** * *



0:34

B                                                 __      __
-------------------------------------------------/  \----/  \---10--|
-------------------------------------------10---8-10-11-8-10-11-----|
3--------/\---^-----------/\------7-8--7/8----8---------------------|
1-------7870-4-0---------4540-4/5-----------------------------------|
1-000-0----------000-0-0--------------------------------------------|
1-000-0----------000-0-0--------------------------------------------|
  *** *          *** * *


0:38

    __
L  /  \
-10-11-10-----------------^------------------------------|
----------11-10----------8-7--^-----------------^--------|
----------------11~----------8-7---------------8-7---^---|
---------------------------------1----7-------------8-7--|
--------------------0-0----------1-00-7-00-0-0-----------|
--------------------0-0----------1-00-7-00-0-0-----------|
                    * *            **   ** * *
    __
R  /  \
-10-11-10-----------------^------------------------------|
----------11-10----------8-7--^--------------------------|
----------------11~----------8-7----------------^--------|
---------------------------------1----7--------8-7--^----|
--------------------0-0----------1-00-7-00-0-0-----6-5---|
--------------------0-0----------1-00-7-00-0-0-----------|
                    * *            **   ** * *





0:42



SOLO                                   _____
                      ^               /     \
--------11/14-------15-14-----------14-15-14-15|
-15-----------------------15-------------------|
-----------------------------------------------|
-----------------------------------------------|
-----------------------------------------------|
-----------------------------------------------|

GTL
-----------------------------------------------|
-----------------------------------------------|
-------------------------------^---------------|
---------------------^--------8-7--^-----------|
-000-000-0------000-1-0-0--0------6-5--000-000-|
-000-000-0------000-1-0-0--0-----------000-000-|
 *** ***  |     ***     *  *           *** ***

GTR
-----------------------------------------------|
------------------------------^----------------|
-----------------------------8-7--^------------|
---------------------^-----------8-7-----------|
-000-000-0------000-1-0-0--0----------000-000--|
-000-000-0------000-1-0-0--0----------000-000--|
 *** ***  |     ***     *  *          *** ***



0:46


SOLO_____       __
   )  | (      /  \
-17--21---~~~17-22-18-17-14---------------------|
---------------------------15~~~--15------------|
-------------------------------------14-15-11---|
------------------------------------------------|
------------------------------------------------|
------------------------------------------------|
      T            T

GTL
-------------------------------------------------|
---------------------------------------^---------|
-------------------------------^------8-7--^-----|
---------------------^--------8-7--^------8-7----|
-000-000-0------000-1-0-0--0------6-5------------|
-000-000-0------000-1-0-0--0---------------------|
 *** ***  |     ***     *  *                  

GTR
--------------------------------------^---------|
------------------------------^------8-7--^-----|
-----------------------------8-7--^------8-7----|
---------------------^-----------8-7------------|
-000-000-0------000-1-0-0--0--------------------|
-000-000-0------000-1-0-0--0--------------------|
 *** ***  |     ***     *  *        



0:50

SOLO

-------------------------------------17--------|
------------------) (----------14-15-----------|
----------11/12-14----12-14/15-----------------|
-12~-------------------------------------------|
-----------------------------------------------|
-----------------------------------------------|

GTL
-----------------------------------------------|
-----------------------------------------------|
-------------------------------^---------------|
---------------------^--------8-7--^-----------|
-000-000-0------000-1-0-0--0------6-5--000-000-|
-000-000-0------000-1-0-0--0-----------000-000-|
 *** ***  |     ***     *  *           *** ***

GTR
-----------------------------------------------|
------------------------------^----------------|
-----------------------------8-7--^------------|
---------------------^-----------8-7-----------|
-000-000-0------000-1-0-0--0----------000-000--|
-000-000-0------000-1-0-0--0----------000-000--|
 *** ***  |     ***     *  *          *** ***




0:54

SOLO________         _________________ 
   /        \       /                 \      _____
-17-18-22-18-17~--17-18-21/22\21-18-17------/     \-------|
---------------------------------------18-17-18-17\14-15--|
----------------------------------------------------------|
----------------------------------------------------------|
----------------------------------------------------------|
----------------------------------------------------------|
       T                 

GTL
--------------------------------------------------------|
---------------------------------------^----------------|
-------------------------------^------8-7--^------------|
---------0-----------^--------8-7--^------8-7-8-7--^--0-|
-000-000-0------000-1-0-0--0------6-5-------------8-7---|
-000-000-0------000-1-0-0--0----------------------------|
 *** ***  |     ***     *  *                  

GTR
--------------------------------------^----------------|
------------------------------^------8-7--^---^--------|
-----------------------------8-7--^------8-7-8-7--^----|
---------0-----------^-----------8-7-------------8-7-0-|
-000-000-0------000-1-0-0--0---------------------------|
-000-000-0------000-1-0-0--0---------------------------|
 *** ***  |     ***     *  *        






0:59


B
-------------------------------------------------|
-------------------------------------------------|
-------------------------------------------------|
----------------^--4-----------------------------|
--^------------5-6----^--------------------------|
-7-0-000-000-0-------7-0-000-0-10-10-8-8-7-7-8-8-|
     *** *** *           *** *  *  * * * * * * *


-----------------------------------------------|
-----------------------------------------------|
-----------------------------------------------|
----------------^--4-------------___-----------|
--^------------5-6----^---------/   \---^---6--|
-7-0-000-000-0-------7-0-000-0-4-5-4-0-4-5-----|
     *** *** *           *** *  




-------------------------------------------------|
-------------------------------------------------|
-------------------------------------------------|
----------------^--4-----------------------------|
--^------------5-6----^--------------------------|
-7-0-000-000-0-------7-0-000-0-10-10-8-8-7-7-8-8-|
     *** *** *           *** *  *  * * * * * * *


-----------------------------------------------|
-----------------------------------------------|
-----------------------------------------------|
----------------^--4-------------___-----------|
--^------------5-6----^---------/   \---^---6--|
-7-0-000-000-0-------7-0-000-0-4-5-4-0-4-5-----|
     *** *** *           *** *  



1:11


-------------------------------------------------|
-------------------------------------------------|
-------------------------------------------------|
-------------------------------------------------|
--^-------------------^--------------------------|
-7-0-000-000---------7-0-000-0-10-10-8-8-7-7-8-8-|
     *** ***             *** *  *  * * * * * * *


-----------------------------------------------|
-----------------------------------------------|
-----------------------------------------------|
---------------------------------___-----------|
--^-------------------^---------/   \---^---6--|
-7-0-000-000---------7-0-000-0-4-5-4-0-4-5-----|
     *** ***             *** *  



1:17

-------------------------------------------------|
-------------------------------------------------|
-------------------------------------------------|
----------------^--4-----------------------------|
--^------------5-6----^--------------------------|
-7-0-000-000-0-------7-0-000-0-10-10-8-8-7-7-8-8-|
     *** *** *           *** *  *  * * * * * * *


-----------------------------------------------|
-----------------------------------------------|
-----------------------------------------------|
----------------^--4-------------___-----------|
--^------------5-6----^---------/   \---^---6--|
-7-0-000-000-0-------7-0-000-0-4-5-4-0-4-5-----|
     *** *** *           *** *  






1:24

-------------------------------------------------------|
-------------------------------------------------------|
-------------------------------------------------------|
--------------------------------------------_----------|
-7-00--0000---0000--0000--000---0000--00---/ \--7/8-12-|
-7-00--0000---0000--0000--000---0000--00--0-7-8--------|
   **| ****|  ****| ****| ***|  ****| **|


---------------------------------------------------|
---------------------------------------------------|
---------------------------------------------------|
---------------------------------------_-----------|
-00-00---0000--0000--000---0000--00---/ \--7/8-12--|
-00-00---0000--0000--000---0000--00--0-7-8---------|
 **|**|  ****| ****| ***|  ****| **|       


-----------------------------------------------------|
-----------------------------------------------------|
-----------------------------------------------------|
------------------------------------------_----------|
-00--0000---0000--0000--000---0000--00---/ \--7/8-12-|
-00--0000---0000--0000--000---0000--00--0-7-8--------|
 **| ****|  ****| ****| ***|  ****| **|


---------------------------------------------------|
---------------------------------------------------|
---------------------------------------------------|
---------------------------------------_-----------|
-00-00---0000--0000--000---0000--00---/ \--7/8-12--|
-00-00---0000--0000--000---0000--00--0-7-8---------|
 **|**|  ****| ****| ***|  ****| **|      


1:41

L                    _
--------------------/ \--------|
---____------------7-8-7-------|
--/    \--7--------------8-7---|
-8-12-7-8---8-7-8--------------|
-------------------------------|
-------------------------------|

R
--------------------_----------|
-------------------/ \---------|
------------------7-8-7--------|
------^--7--------------8-7----|
-8\7-7-8---8-7-8---------------|
-------------------------------|




1:42


---------------------------------------------------------------|
---------------------------------------------------------------|
---------------------------------------------------------------|
-0-------------------------------------------------------0-----|
-0-------------------------------0-----------------------0-----|
-0-------------------------------0--------------------00-0-----|
                                 *                    **





1:55

clean
GT1 w/delay
----------------------18------------------------10---18-17-15-14--14--14--|
---10----------11-----20----10-------10~~--10-------------------16--16--15|
-------11------12-----19----11--11/12----12--12---------------------------|
-----------12--13-----------12--------------------------------------------|
--------------------------------------------------------------------------|
--------------------------------------------------------------------------|

GT2
2--------------3------------2-------------------3-----------------------2|
3--------------3------------3-------------------3-----------------------3|
2--------------3------------2-------------------3-----------------------2|
0--------------1------------0-------------------1-----------------------0|
-------------------------------------------------------------------------|
-------------------------------------------------------------------------|



2:10

GT1
-17-17--14-14-----------------------------------------------_--------------|
---------------15--16--------------------------------------/ \---------10--|
-----------------------------12-12-/15-15-----------------7-8-7----7-8-----|
-------------------------------------------13--12----8-10-------10---------|
---------------------------------------------------------------------------|
---------------------------------------------------------------------------|

GT2
------------------3-----------------------------2-----------------------3--|
------------------3-----------------------------3-----------------------3--|
------------------3-----------------------------2-----------------------3--|
------------------1-----------------------------0-----------------------1--|
---------------------------------------------------------------------------|
---------------------------------------------------------------------------|


2:19

GT1
-------------------------|
-11-10-8-----------------|
---------11-8-11-8-11-7--|
-------------------------|
-------------------------|
-------------------------|






2:21
                               __
L                             /  \
-----------------) (--------10-11-10--------^------^-----------------|
-----7-8-10~~~-10----8-7~~~----------11-10-8-10-8-8-10-11-8-7--------|
-7-8----------------------------------------------------------5-7~~~-|
---------------------------------------------------------------------|
---------------------------------------------------------------------|
---------------------------------------------------------------------|

R                              __
------------------------------/  \-----------------------------------|
-----------------) (--------10-11-10---------------------------------|
-----7-8-11~~~-11----8-7~~~---------12-11--------------12--------11~~|
8-10-------------------------------------12/13-12-12-13--13-12-10----|
---------------------------------------------------------------------|
---------------------------------------------------------------------|

RYTHM
-2---------------------------3---------------------------------------|
-3---------------------------3---------------------------------------|
-2---------------------------3---------------------------------------|
-0---------------------------1---------------------------------------|
-0---------------------------1---------------------------------------|
-0---------------------------1---------------------------------------|






                               __
L                             /  \
-----------------) (---PH---10-11-10--------^------^--------------------|
-----7-8-10~~~-10----8-7~~~----------11-10-8-10-8-8-10-11-8-7-------7-8-|
-7-8----------------------------------------------------------5-7/8-----|
------------------------------------------------------------------------|
------------------------------------------------------------------------|
------------------------------------------------------------------------|

R                              __
-----------------------P------/  \--------------------------------------|
-----------------) (---H----10-11-10------------------------------------|
-----7-8-11~~~-11----8-7~~~---------12-11--------------12------------7-8|
8-10-------------------------------------12/13-12-12-13--13-12-7-8/10---|
------------------------------------------------------------------------|
------------------------------------------------------------------------|

RYTHM
-2---------------------------3------------------------------------------|
-3---------------------------3------------------------------------------|
-2---------------------------3------------------------------------------|
-0---------------------------1------------------------------------------|
-0---------------------------1------------------------------------------|
-0---------------------------1------------------------------------------|





2:34
                               __
L                             /  \
-----------------) (--------10-11-10--------^------^-----------------|
-----7-8-10~~~-10----8-7~~~----------11-10-8-10-8-8-10-11-8-7--------|
-7-8----------------------------------------------------------5-7~~~-|
---------------------------------------------------------------------|
---------------------------------------------------------------------|
---------------------------------------------------------------------|

R                             __
-----------------------------/  \------------------------------------|
-----------------) (-------10-11-10----------------------------------|
-----7-8-11~~~-11----8-7~~~--------12-11--------------12--------11~~~|
8-10------------------------------------12/13-12-12-13--13-12-10-----|
---------------------------------------------------------------------|
---------------------------------------------------------------------|

RYTHM
-2----------------2---------------3----------------3----------------|
-3----------------3---------------3----------------3----------------|
-2----------------2---------------3----------------3----------------|
-0----------------0---------------1----------------1----------------|
-0--0-0-0-0----00-0--0-0-0-0----0-1--1-1-1-1----11-1--1-1-1-1----1--|
-0--0-0-0-0----00-0--0-0-0-0----0-1--1-1-1-1----11-1--1-1-1-1----1--|
    * * * *    **    * * * *    *    * * * *    **    * * * *    *



                               __
L                             /  \
-----------------) (--------10-11-10--------^------^--------------------|
-----7-8-10~~~-10----8-7~~~----------11-10-8-10-8-8-10-11-8-7-------7-8-|
-7-8----------------------------------------------------------5-7/8-----|
------------------------------------------------------------------------|
------------------------------------------------------------------------|
------------------------------------------------------------------------|

R                              __
------------------------------/  \--------------------------------------|
-----------------) (--------10-11-10------------------------------------|
-----7-8-11~~~-11----8-7~~~---------12-11--------------12------------7-8|
8-10-------------------------------------12/13-12-12-13--13-12-7-8/10---|
------------------------------------------------------------------------|
------------------------------------------------------------------------|

RYTHM
-2----------------2---------------3----------------3----------------|
-3----------------3---------------3----------------3----------------|
-2----------------2---------------3----------------3----------------|
-0----------------0---------------1----------------1----------------|
-0--0-0-0-0----00-0--0-0-0-0----0-1--1-1-1-1----11-1--1-1-1-1----1--|
-0--0-0-0-0----00-0--0-0-0-0----0-1--1-1-1-1----11-1--1-1-1-1----1--|
    * * * *    **    * * * *    *    * * * *    **    * * * *    *




2:47


GT1                                    
---------------------17---------------------14--15--|
--15------------------------------------------------|
----------------------------------------------------|
----------------------------------------------------|
----------------------------------------------------|
----------------------------------------------------|
 
GT2          __
------------/  \-------------------__---------------|
----------10-11-10----------------/  \--------------|
------------------11------------11-12-11------------|
--------------------12-------------------12-10-12---|
-000-000------------------000-----------------------|
-000-000------------------000-----------------------|
 *** ***                  ***                    


2:49


GT1)  (
-17---------15-17-18-22-------------------------22-------------|
---------------------------------------------------------------|
---------------------------------------------------------------|
---------------------------------------------------------------|
---------------------------------------------------------------|
---------------------------------------------------------------|

GT2
---------------------------------------------------------------|
--------------------------------11\10--------------------------|
---------------11----11/12------------12-11/12-----14----------|
------------12----12-------------------------------------------|
-0----12/13-----------------0-------------------0--------------|
-0--------------------------0-------------------0--------------|
 *                          *                   *


2:53

GT1        
--22/23-----------22-20-----------------22---------|
---------------------------------------------------|
---------------------------------------------------|
---------------------------------------------------|
---------------------------------------------------|
---------------------------------------------------|

GT2          __
------------/  \-------------------__---------------|
----------10-11-10----------------/  \--------------|
------------------11------------11-12-11------------|
--------------------12-------------------12-10-12---|
-000-000------------------000-----------------------|
-000-000------------------000-----------------------|
 *** ***                  ***                    


     __          __
GT1 /  \        /  \
--20-22-20-18-17-18-17-15----------15-17-15---------|
-----------------------------15-19----------19-16---|
----------------------------------------------------|
----------------------------------------------------|
----------------------------------------------------|
----------------------------------------------------|

GT2
----------------------------------------------------|
--------------------------------11\10---------------|
---------------11----11/12------------12-11/12--14--|
------------12----12--------------------------------|
-0----12/13-----------------0-----------------------|
-0--------------------------0-----------------------|
 *                          *                   




2:59

GT1                                    )    (
--------------------------17-------[17]-----------15-----18-------|
-15----------13-15------------------------------------------------|
------------------------------------------------------------------|
------------------------------------------------------------------|
------------------------------------------------------------------|
------------------------------------------------------------------|


GT2
--2-2-2-2-2-2-2--2--2-2-2-2-2-2-2-3-3-3-3-3-3-3--3--3-3-3-3-3-3-3-|
--3-3-3-3-3-3-3--3--3-3-3-3-3-3-3-3-3-3-3-3-3-3--3--3-3-3-3-3-3-3-|
--2-2-2-2-2-2-2--2--2-2-2-2-2-2-2-3-3-3-3-3-3-3--3--3-3-3-3-3-3-3-|
--0-0-0-0-0-0-0--0--0-0-0-0-0-0-0-1-1-1-1-1-1-1--1--1-1-1-1-1-1-1-|
--0-0-0-0-0-0-0--0--0-0-0-0-0-0-0-1-1-1-1-1-1-1--1--1-1-1-1-1-1-1-|
--0-0-0-0-0-0-0--0--0-0-0-0-0-0-0-1-1-1-1-1-1-1--1--1-1-1-1-1-1-1-|





3:06

GT1                                    )    (
--------------------------22-------[22]-----------20-----23-------|
-15----------13-15------------------------------------------------|
------------------------------------------------------------------|
------------------------------------------------------------------|
------------------------------------------------------------------|
------------------------------------------------------------------|


GT2
--2-2-2-2-2-2-2--2--2-2-2-2-2-2-2-3-3-3-3-3-3-3--3--3-3-3-3-3-3-3-|
--3-3-3-3-3-3-3--3--3-3-3-3-3-3-3-3-3-3-3-3-3-3--3--3-3-3-3-3-3-3-|
--2-2-2-2-2-2-2--2--2-2-2-2-2-2-2-3-3-3-3-3-3-3--3--3-3-3-3-3-3-3-|
--0-0-0-0-0-0-0--0--0-0-0-0-0-0-0-1-1-1-1-1-1-1--1--1-1-1-1-1-1-1-|
--0-0-0-0-0-0-0--0--0-0-0-0-0-0-0-1-1-1-1-1-1-1--1--1-1-1-1-1-1-1-|
--0-0-0-0-0-0-0--0--0-0-0-0-0-0-0-1-1-1-1-1-1-1--1--1-1-1-1-1-1-1-|




3:13

GT1                                    )    (
--------------------------17-------[17]-----------15-----18-------|
-15----------13-15------------------------------------------------|
------------------------------------------------------------------|
------------------------------------------------------------------|
------------------------------------------------------------------|
------------------------------------------------------------------|


GT2
----------2-2-2-2--2-2-2-2-2-2-2-3-3-3-3-3-3-3-3-3-3-3-3-3-3-3-3-|
----------3-3-3-3--3-3-3-3-3-3-3-3-3-3-3-3-3-3-3-3-3-3-3-3-3-3-3-|
----------2-2-2-2--2-2-2-2-2-2-2-3-3-3-3-3-3-3-3-3-3-3-3-3-3-3-3-|
----------0-0-0-0--0-0-0-0-0-0-0-1-1-1-1-1-1-1-1-1-1-1-1-1-1-1-1-|
--000-000-0-0-0-0--0-0-0-0-0-0-0-1-1-1-1-1-1-1-1-1-1-1-1-1-1-1-1-|
--000-000-0-0-0-0--0-0-0-0-0-0-0-1-1-1-1-1-1-1-1-1-1-1-1-1-1-1-1-|



3:19

GT1                                    )    
--------------------------22-------[22]-------------------------22\------|
-15----------13-15-------------------------------------------------------|
-------------------------------------------------------------------------|
-------------------------------------------------------------------------|
-------------------------------------------------------------------------|
-------------------------------------------------------------------------|


GT2
-2-2-2-2-2-2-2-2-2-2-2-2-2-2-2-2-3-3-3-3-3-3-3-3-3-3-3-3-3-3-3-3----------|
-3-3-3-3-3-3-3-3-3-3-3-3-3-3-3-3-3-3-3-3-3-3-3-3-3-3-3-3-3-3-3-3----------|
-2-2-2-2-2-2-2-2-2-2-2-2-2-2-2-2-3-3-3-3-3-3-3-3-3-3-3-3-3-3-3-3----------|
-0-0-0-0-0-0-0-0-0-0-0-0-0-0-0-0-1-1-1-1-1-1-1-1-1-1-1-1-1-1-1-1---------0|
-0-0-0-0-0-0-0-0-0-0-0-0-0-0-0-0-1-1-1-1-1-1-1-1-1-1-1-1-1-1-1-1-000-000-0|
-0-0-0-0-0-0-0-0-0-0-0-0-0-0-0-0-1-1-1-1-1-1-1-1-1-1-1-1-1-1-1-1-000-000-0|
                                                                 *** ***
comments
print report bad tab
I want to post or [tab]
guest
You may want to rate the tab now too:
select rating
Please do not post tabs as comments. Select "correction" instead!