Oops, an error
Loading. Please wait.

Baby One More Time Bass Tab

ver2
ver2

Whole song

More versions @911Tabs.com
1,270 views 1 this week
no commentswrite comment
1 2 3 4 5
worth learning
x 1
add to favorites launch autoscroll
font size
0
reset
Autoscroll
+/-
esc
set tempo
stop
Contributor
Difficulty
Tuning
intermediate
C F A# D# G C
WARNING: You are trying to view
                                    content from Ultimate-Guitar.com
                                    in an unauthorized application,
                                    which is prohibited.

                                    Please use an official Ultimate
                                    Guitar Tabs application for iPhone,
                                    iPad or Android to access legitimate
                                    chords, guitar, bass, and drum tabs
                                    from Ultimate-Guitar.com database.

                                    Type "ultimate guitar tabs" in Apple
                                    App Store's or Android Market's
                                    search to find the application.
Tabbed by Trevor Winchenbaugh

Aim-BelowCreationLG

                  
Dustin Davidson



             S S S S S S S S S S S S S S S S    E  S S S S S S S E  S S S S S  
F||-------|----------------------------------|--------------------------------|
C||-------|----------------------------------|--------------------------------|
G||-------|----------------------------------|--------------------------------|
C||-------|--0-0-0-0-0-------0-0-0---0-0-0---|-----0-0-0-0-0-0-0------0-0-0---|


  S S S S S S S S S S S S S S S S    Q     Q     Q     Q     
----------------------------------|-------------------------|
----------------------------------|-------------------------|
----------------------------------|-------------------------|
--0-0-0-------0---0-0-0---0-0-0---|-------10----12----12----|


  S S S S S S S S S S S S S S S S    E  S S S S S S S E  S S S S S  
----------------------------------|--------------------------------|
----------------------------------|--------------------------------|
----------------------------------|--------------------------------|
--0-0-0-0-0-------0-0-0---0-0-0---|-----0-0-0-0-0-0-0------0-0-0---|


  S S S S S S S S S S S S S S S S    Q     Q     Q    Q     
----------------------------------|------------------------|
----------------------------------|------------------------|
----------------------------------|------------------------|
--0-0-0-------0---0-0-0---0-0-0---|-------10----12---------|


  E  E  E  E  E  E  E  E     E  E  E  E  E  E  E  E   
--------------------------|--------------------------|
--------------------------|--------------------------|
--5--------5-----5--------|--5-----5-----------5--5--|
-----0--0-----0-----0--0--|-----0-----0--0--0--------|


  E  E  E  E  E  E  E  E     E  E  E  E   E  E   E  E   
--------------------------|----------------------------|
--------------------------|----------------------------|
--7-----3-----0-----0-----|--------------10-----12-----|
-----0-----0-----0-----0--|--0--0--0--0------0------0--|


  E  E  E  E  E  E  E  E     E  E  E  E  E  E  E  E   
--------------------------|--------------------------|
--------------------------|--------------------------|
--------------------------|--------------------------|
--3--3--3--3--3--3--3--3--|--3--3--3--3--3--3--3--3--|


  E  E  E  E  E  E  E  E     E  E  E  E  E  E  E  E   
--------------------------|--------------------------|
--------------------------|--------------------------|
--------------------------|--------------------------|
--5--5--5--5--5--5--5--5--|--7--7--7--7--7--7--7--7--|


  E  E  E  E  E  E  E  E     E  E  E  E  E  E  E  E   
--------------------------|--------------------------|
--------------------------|--------------------------|
--5--------5-----5--------|--5-----5-----------5--5--|
-----0--0-----0-----0--0--|-----0-----0--0--0--------|


  E  E  E  E  E  E  E  E     E  E  E  E   E  E   E  E   
--------------------------|----------------------------|
--------------------------|----------------------------|
--7-----3-----0-----0-----|--------------10-----12-----|
-----0-----0-----0-----0--|--0--0--0--0------0------0--|


  E  E  E  E  E  E  E  E     E  E  E  E  E  E  E  E   
--------------------------|--------------------------|
--------------------------|--------------------------|
--------------------------|--------------------------|
--3--3--3--3--3--3--3--3--|--3--3--3--3--3--3--3--3--|


                                                        TP                
  E  E  E  E  E  E  E  E     E  E   Q     Q     Q       W                 
--------------------------|--------------------------|-------------------|
--------------------------|--------------------------|-------------------|
--------------------------|--------------------------|--5----------------|
--5--5--5--5--5--5--5--5--|--7--7--10----12----12----|-------------------|


                        TP                                      
  H        Q    Q       W                   H        Q    Q     
---------------------|-------------------|---------------------|
---------------------|-------------------|---------------------|
--L--------7----5----|--4----------------|--L--------1----3----|
---------------------|-------------------|---------------------|


  TP                                        TP                
  W                   H        Q    Q       W                 
-------------------|---------------------|-------------------|
-------------------|---------------------|-------------------|
--5----------------|--L--------7----5----|--8----------------|
-------------------|---------------------|-------------------|


  W                   E  E  E  E  E  E  E  E     E  E  E  E  E  E  E  E   
-------------------|--------------------------|--------------------------|
-------------------|--------------------------|--------------------------|
--8----------------|--5--5--5--5--5--5--5--5--|--5--5--5--5--5--5--5--5--|
-------------------|--------------------------|--------------------------|


  E  E  E  E  E  E  E  E     E  E  E  E  E  E  E  E   
--------------------------|--------------------------|
--------------------------|--------------------------|
--5--5--5--5--5--5--5--5--|--3--3--3--3--------------|
--------------------------|--------------1--1--1--1--|


  E  E  E  E  E  E  E  E     E  E  E  E  E  E  E  E   
--------------------------|--------------------------|
--------------------------|--------------------------|
--------------------------|--------------------------|
--2--2--2--2--2--2--2--2--|--2--2--2--2--2--2--2--2--|


  E  E  E  E  E  E  E  E     E  E  E  E  E  E  E  E   
--------------------------|--------------------------|
--------------------------|--------------------------|
--------------------------|--------------------------|
--4--4--4--4--4--4--4--4--|--6--6--6--6--6--6--6--6--|


  E  E  E  E  E  E  E  E     E  E  E  E  E  E  E  E   
--------------------------|--------------------------|
--------------------------|--------------------------|
--5--5--5--5--5--5--5--5--|--5--5--5--5--5--5--5--5--|
--------------------------|--------------------------|


  E  E  E  E  E  E  E  E     E  E  E  E  E  E  E  E   
--------------------------|--------------------------|
--------------------------|--------------------------|
--5--5--5--5--5--5--5--5--|--3--3--3--3--------------|
--------------------------|--------------2--2--2--2--|


  E  E  E  E  E  E  E  E     E  E  E  E  E  E  E  E   
--------------------------|--------------------------|
--------------------------|--------------------------|
--------------------------|--------------------------|
--3--3--3--3--3--3--3--3--|--3--3--3--3--3--3--3--3--|


  E  E  E  E  E  E  E  E     Q     Q     Q     Q       E  E  E  E  E  E  E  E   
--------------------------|-------------------------|--------------------------|
--------------------------|-------------------------|--------------------------|
--------------------------|-------------------------|--5--------5-----5--------|
--5--5--5--5--5--5--5--5--|--7----10----12----12----|-----0--0-----0-----0--0--|


  E  E  E  E  E  E  E  E     E  E  E  E  E  E  E  E   
--------------------------|--------------------------|
--------------------------|--------------------------|
--5-----5-----------5--5--|--7-----3-----0-----0-----|
-----0-----0--0--0--------|-----0-----0-----0-----0--|


  E  E  E  E   E  E   E  E     E  E  E  E  E  E  E  E   
----------------------------|--------------------------|
----------------------------|--------------------------|
--------------10-----12-----|--------------------------|
--0--0--0--0------0------0--|--3--3--3--3--3--3--3--3--|


  E  E  E  E  E  E  E  E     E  E  E  E  E  E  E  E   
--------------------------|--------------------------|
--------------------------|--------------------------|
--------------------------|--------------------------|
--3--3--3--3--3--3--3--3--|--5--5--5--5--5--5--5--5--|


  E  E  E  E  E  E  E  E     E  E  E  E  E  E  E  E   
--------------------------|--------------------------|
--------------------------|--------------------------|
--------------------------|--5--------5-----5--------|
--7--7--7--7--7--7--7--7--|-----0--0-----0-----0--0--|


  E  E  E  E  E  E  E  E     E  E  E  E  E  E  E  E   
--------------------------|--------------------------|
--------------------------|--------------------------|
--5-----5-----------5--5--|--7-----3-----0-----0-----|
-----0-----0--0--0--------|-----0-----0-----0-----0--|


  E  E  E  E   E  E   E  E     E  E  E  E  E  E  E  E   
----------------------------|--------------------------|
----------------------------|--------------------------|
--------------10-----12-----|--------------------------|
--0--0--0--0------0------0--|--3--3--3--3--3--3--3--3--|


  E  E  E  E  E  E  E  E     E  E  E  E  E  E  E  E   
--------------------------|--------------------------|
--------------------------|--------------------------|
--------------------------|--------------------------|
--3--3--3--3--3--3--3--3--|--5--5--5--5--5--5--5--5--|


                             TP                                      
  E  E  E  E  E  E  E  E     W                   H        Q    Q     
--------------------------|-------------------|---------------------|
--------------------------|-------------------|---------------------|
--------------------------|--5----------------|--L--------7----5----|
--7-----------------------|-------------------|---------------------|


  TP                                        TP                
  W                   H        Q    Q       W                 
-------------------|---------------------|-------------------|
-------------------|---------------------|-------------------|
--4----------------|--L--------1----3----|--5----------------|
-------------------|---------------------|-------------------|


                        TP                                       
  H        Q    Q       W                   Q    Q    Q    Q     
---------------------|-------------------|----------------------|
---------------------|-------------------|----------------------|
--L--------7----5----|--8----------------|--8-------------------|
---------------------|-------------------|----------------------|


  E  E  E  E  E  E  E  E     E  E  E  E  E  E  E  E   
--------------------------|--------------------------|
--------------------------|--------------------------|
--5--5--5--5--5--5--5--5--|--5--5--5--5--5--5--5--5--|
--------------------------|--------------------------|


  E  E  E  E  E  E  E  E     E  E  E  E  E  E  E  E   
--------------------------|--------------------------|
--------------------------|--------------------------|
--5--5--5--5--5--5--5--5--|--3--3--3--3--------------|
--------------------------|--------------1--1--1--1--|


  E  E  E  E  E  E  E  E     E  E  E  E  E  E  E  E   
--------------------------|--------------------------|
--------------------------|--------------------------|
--------------------------|--------------------------|
--2--2--2--2--2--2--2--2--|--2--2--2--2--2--2--2--2--|


  E  E  E  E  E  E  E  E     E  E  E  E  E  E  E  E   
--------------------------|--------------------------|
--------------------------|--------------------------|
--------------------------|--------------------------|
--4--4--4--4--4--4--4--4--|--6--6--6--6--6--6--6--6--|


  E  E  E  E  E  E  E  E     E  E  E  E  E  E  E  E   
--------------------------|--------------------------|
--------------------------|--------------------------|
--5--5--5--5--5--5--5--5--|--5--5--5--5--5--5--5--5--|
--------------------------|--------------------------|


  E  E  E  E  E  E  E  E     E  E  E  E  E  E  E  E   
--------------------------|--------------------------|
--------------------------|--------------------------|
--5--5--5--5--5--5--5--5--|--3--3--3--3--------------|
--------------------------|--------------2--2--2--2--|


  E  E  E  E  E  E  E  E     E  E  E  E  E  E  E  E   
--------------------------|--------------------------|
--------------------------|--------------------------|
--------------------------|--------------------------|
--3--3--3--3--3--3--3--3--|--3--3--3--3--3--3--3--3--|


  E  E  E  E  E  E  E  E     Q     Q     Q     Q     
--------------------------|-------------------------|
--------------------------|-------------------------|
--------------------------|-------------------------|
--5--5--5--5--5--5--5--5--|--7----10----12----12----|


  S S S S S S S S S S S S S S S S    E  S S S S S S S E  S S S S S  
----------------------------------|--------------------------------|
----------------------------------|--------------------------------|
----------------------------------|--------------------------------|
--0-0-0-0-0-------0-0-0---0-0-0---|-----0-0-0-0-0-0-0------0-0-0---|


  S S S S S S S S S S S S S S S S    Q     Q     Q     Q     
----------------------------------|-------------------------|
----------------------------------|-------------------------|
----------------------------------|-------------------------|
--0-0-0-------0---0-0-0---0-0-0---|-------10----12----12----|


  S S S S S S S S S S S S S S S S    E  S S S S S S S E  S S S S S  
----------------------------------|--------------------------------|
----------------------------------|--------------------------------|
----------------------------------|--------------------------------|
--0-0-0-0-0-----L-0-0-0-L-0-0-0-L-|--L--0-0-0-0-0-0-0----L-0-0-0-L-|


  S S S S S S S S S S S S S S S S    Q     Q     Q     Q     
----------------------------------|-------------------------|
----------------------------------|-------------------------|
----------------------------------|-------------------------|
--0-0-0-----L-0-L-0-0-0-L-0-0-0-L-|--L----10----12----12----|


  W                   W                   Q    Q    Q    Q     
-------------------|-------------------|----------------------|
-------------------|-------------------|----------------------|
-------------------|-------------------|----------------------|
--0----------------|--L----------------|--L----L----L----L----|


  W                                                   Q    Q    Q    Q     
-------------------|-------|-------|-------|-------|----------------------|
-------------------|-------|-------|-------|-------|----------------------|
-------------------|-------|-------|-------|-------|----------------------|
--L----------------|-------|-------|-------|-------|--8----8----8----8----|


  Q    Q    Q    Q        Q     Q     Q     Q        Q     Q     Q     Q     
----------------------|--------------------------|--------------------------|
----------------------|--------------------------|--------------------------|
----------------------|--------------------------|--------------------------|
--8----8----8----8----|--10----10----10----10----|--10----10----10----10----|


  Q    Q    Q    Q       Q    Q    Q    Q        Q     Q     Q     Q     
----------------------|----------------------|--------------------------|
----------------------|----------------------|--------------------------|
----------------------|----------------------|--------------------------|
--8----8----8----8----|--8----8----8----8----|--10----10----10----10----|


   Q     Q     Q     Q       Q    Q    Q    Q       Q    Q    Q    Q     
--------------------------|----------------------|----------------------|
--------------------------|----------------------|----------------------|
--------------------------|--5-------------------|------------5---------|
--10----10----10----10----|-------0----0----0----|--0----0---------0----|


  Q    Q    Q    Q       Q    Q    Q    Q       Q    Q    Q    Q     
----------------------|----------------------|----------------------|
----------------------|----------------------|----------------------|
--4-------------------|------------4---------|----------------------|
-------0----0----0----|--0----0---------0----|--3----3----3----3----|


  Q    Q    Q    Q       Q    Q    Q    Q       Q    Q    Q    Q     
----------------------|----------------------|----------------------|
----------------------|----------------------|----------------------|
----------------------|----------------------|----------------------|
--3----3----3----3----|--5----5----5----5----|--7----7----7----7----|


  E  E  E  E  E  E  E  E     E  E  E  E  E  E  E  E   
--------------------------|--------------------------|
--------------------------|--------------------------|
--------------------------|--------------------------|
--8--8--8--8--8--8--8--8--|--8--8--8--8--8--8--8--8--|


   E   E   E   E   E   E   E   E      E   E   E   E   E   E   E   E   
----------------------------------|----------------------------------|
----------------------------------|----------------------------------|
----------------------------------|----------------------------------|
--10--10--10--10--10--10--10--10--|--10--10--10--10--10--10--10--10--|


  E  E  E  E  E  E  E  E     E  E  E  E  E  E  E  E   
--------------------------|--------------------------|
--------------------------|--------------------------|
--------------------------|--------------------------|
--8--8--8--8--8--8--8--8--|--8--8--8--8--7--7--7--7--|


  E  E  E  E  E  E  E  E     W                   E  E  E  E  E  E  E  E   
--------------------------|-------------------|--------------------------|
--------------------------|-------------------|--------------------------|
--------------------------|--3----------------|--5--5--5--5--5--5--5--5--|
--5--5--5--5--5--5--5--5--|-------------------|--------------------------|


  E  E  E  E  E  E  E  E     E  E  E  E  E  E  E  E   
--------------------------|--------------------------|
--------------------------|--------------------------|
--5--5--5--5--5--5--5--5--|--5--5--5--5--5--5--5--5--|
--------------------------|--------------------------|


  E  E  E  E  E  E  E  E     E  E  E  E  E  E  E  E   
--------------------------|--------------------------|
--------------------------|--------------------------|
--3--3--3--3--------------|--------------------------|
--------------1--1--1--1--|--2--2--2--2--2--2--2--2--|


  E  E  E  E  E  E  E  E     E  E  E  E  E  E  E  E   
--------------------------|--------------------------|
--------------------------|--------------------------|
--------------------------|--------------------------|
--2--2--2--2--2--2--2--2--|--4--4--4--4--4--4--4--4--|


  E  E  E  E  E  E  E  E     S S S S S S S S S S S S S S S S  
--------------------------|----------------------------------|
--------------------------|----------------------------------|
--------------------------|----------------------------------|
--6--6--6--6--6--6--6--6--|--0-0-0-0-0-------0-0-0-0-0-------|


  S S S S S S S S S S S S S S S S    E  S S S S S S S E  S S S S S  
----------------------------------|--------------------------------|
----------------------------------|--------------------------------|
----------------------------------|--------------------------------|
--0-------0---0-------0-------0---|-----0-0-0-0-0-0-0------0-0-0---|


  S S S S S S S S S S S S S S S S    S S S S S S S S S S S S S S S S  
----------------------------------|----------------------------------|
----------------------------------|----------------------------------|
----------------------------------|----------------------------------|
--0-0-0---0---0-------0-------0---|--3-3-3-3-3-------3-3-3-3-3-------|


  S S S S S S S S S S S S S S S S    E  S S S S S S S S S S S S S S  
----------------------------------|---------------------------------|
----------------------------------|---------------------------------|
----------------------------------|---------------------------------|
--3-------3---3-------3-------3---|-----5-5-5-5-5-5-5-------5-5-5-5-|


  Q     Q     Q     Q       W                                 
-------------------------|-------------------|-------|-------|
-------------------------|-------------------|-------|-------|
-------------------------|-------------------|-------|-------|
--7----10----12----12----|--0----------------|-------|-------|


  W                  
-------------------||
-------------------||
-------------------||
--L----------------||




Duration Legend
---------------
W - whole
H - half
Q - quarter
E - 8th
S - 16th
T - 32nd
X - 64th
. - note dotted
|-n-|  - n-tuplets


Tablature Legend
----------------
L - tied note
x - dead note
g - grace note
(n) - ghost note
> - accentuded note
NH - natural harmonic
AH - artificial harmonic
TH - tapped harmonic
SH - semi harmonic
PH - pitch harmonic
h - hammer on
p - pull off
b - bend
br - bendRelease
pb - preBend
pbr - preBendRelease
brb - bendReleaseBend
\n/ - tremolo bar dip
\n - tremolo bar dive
-/n - tremolo bar Release up
/n\ - tremolo bar inverted dip
/n - tremolo bar return
-\n - tremolo bar Release down
S - shift slide
s - legato slide
/ -  slide into from below or out of upwards
\ -  slide into from above or out of downwards
~ - vibrato
W - wide vibrato
tr - trill
TP - tremolo picking
T - tapping
S - slap
P - pop
< - fade in
^ - brush up
v - brush down
comments
We did not receive enough feedback on this tab! Please rate:
print report bad tab
1 2 3 4 5
I want to post or [tab]
guest
You may want to rate the tab now too:
select rating
Please do not post tabs as comments. Select "correction" instead!