Oops, an error
Loading. Please wait.

Baby One More Time Tab

ver2
ver2

Whole song

Interactive

More versions @911Tabs.com
7,613 views 12 this week
no commentswrite comment
1 2 3 4 5
accurate
x 3
Autoscroll
+/-
esc
set tempo
stop
Contributor
Difficulty
Tuning
intermediate
C G C F A D
Hey! There's an official Ultimate Guitar app which is ideal
for learning songs when you're away from computer. Get the app
WARNING: You are trying to view
                                    content from Ultimate-Guitar.com
                                    in an unauthorized application,
                                    which is prohibited.

                                    Please use an official Ultimate
                                    Guitar Tabs application for iPhone,
                                    iPad or Android to access legitimate
                                    chords, guitar, bass, and drum tabs
                                    from Ultimate-Guitar.com database.

                                    Type "ultimate guitar tabs" in Apple
                                    App Store's or Android Market's
                                    search to find the application.
Tabbed by Trevor Winchenbaugh

Nobody seemed to have the right tabs, so I thought I'd tab it out.

I'm pretty sure everything is 99% accurate.

AIM-BelowCreationLG

Lead Guitar is tabbed at the top, rhythm at the bottom.



                   
JB Brubaker (Lead Guitar)



                               PM PM PM PM PM     PM PM PM   PM PM PM    
     Q     Q     Q     Q       S  S  S  S  S  E.  S  S  S  S S  S  S  S  
D||-------------------------|-------------------------------------------|
A||-------------------------|-------------------------------------------|
F||-------------------------|-------------------------------------------|
C||-------10----12----12----|-------------------------------------------|
G||-------10----12----12----|--0--0--0--0--0------0--0--0----0--0--0----|
C||-------10----12----12----|--0--0--0--0--0------0--0--0----0--0--0----|


     PM PM PM PM PM PM PM     PM PM PM    
  E  S  S  S  S  S  S  S  E.  S  S  S  S  
-----------------------------------------|
-----------------------------------------|
-----------------------------------------|
-----------------------------------------|
-----0--0--0--0--0--0--0------0--0--0----|
-----0--0--0--0--0--0--0------0--0--0----|


  PM PM PM     PM   PM PM PM   PM PM PM                              
  S  S  S  E.  S  S S  S  S  S S  S  S  S    Q     Q     Q     Q     
------------------------------------------|-------------------------|
------------------------------------------|-------------------------|
------------------------------------------|-------------------------|
------------------------------------------|-------10----12----12----|
--0--0--0------0----0--0--0----0--0--0----|-------10----12----12----|
--0--0--0------0----0--0--0----0--0--0----|-------10----12----12----|


  PM PM PM PM PM     PM PM PM   PM PM PM    
  S  S  S  S  S  E.  S  S  S  S S  S  S  S  
-------------------------------------------|
-------------------------------------------|
-------------------------------------------|
-------------------------------------------|
--0--0--0--0--0------0--0--0----0--0--0----|
--0--0--0--0--0------0--0--0----0--0--0----|


     PM PM PM PM PM PM PM     PM PM PM    
  E  S  S  S  S  S  S  S  E.  S  S  S  S  
-----------------------------------------|
-----------------------------------------|
-----------------------------------------|
-----------------------------------------|
-----0--0--0--0--0--0--0------0--0--0----|
-----0--0--0--0--0--0--0------0--0--0----|


  PM PM PM     PM   PM PM PM   PM PM PM                             
  S  S  S  E.  S  S S  S  S  S S  S  S  S    Q     Q     Q    Q     
------------------------------------------|------------------------|
------------------------------------------|------------------------|
------------------------------------------|------------------------|
------------------------------------------|-------10----12---------|
--0--0--0------0----0--0--0----0--0--0----|-------10----12---------|
--0--0--0------0----0--0--0----0--0--0----|-------10----12---------|


     PM PM    PM    PM PM       PM    PM PM PM        
  E  E  E  E  E  E  E  E     E  E  E  E  E  E  E  E   
--------------------------|--------------------------|
--------------------------|--------------------------|
--------------------------|--------------------------|
--------------------------|--------------------------|
--5--------5-----5--------|--5-----5-----------5--5--|
-----0--0-----0-----0--0--|-----0-----0--0--0--------|


     PM    PM    PM    PM    PM PM PM                 
  E  E  E  E  E  E  E  E     E  E  E  E  E  E  E  E   
--------------------------|--------------------------|
--------------------------|--------------------------|
--------------------------|--------------------------|
--------------------------|--------------5-----7-----|
--7-----3-----0-----0-----|--------------------------|
-----0-----0-----0-----0--|--0--0--0--0-----0-----0--|


     PM PM    PM    PM PM       PM    PM    PM PM PM  
  E  E  E  E  E  E  E  E     E  E  E  E  E  E  E  E   
--------------------------|--------------------------|
--------------------------|--------------------------|
--------------------------|--------------------------|
--3--------3-----3--------|--------------3-----------|
--------------------------|--3-----3-----------------|
-----3--3-----3-----3--3--|-----3-----3-----3--3--3--|


     PM    PM    PM    PM       PM PM PM               
  E  E  E  E  E  E  E  E     E  E  E  E  E  E   E  E   
--------------------------|---------------------------|
--------------------------|---------------------------|
--------------------------|--------------7-----10-----|
--5-----5-----7-----8-----|--7------------------------|
--------------------------|---------------------------|
-----5-----5-----5-----5--|-----7--7--7-----7------7--|


     PM PM    PM    PM PM       PM    PM PM PM        
  E  E  E  E  E  E  E  E     E  E  E  E  E  E  E  E   
--------------------------|--------------------------|
--------------------------|--------------------------|
--------------------------|--------------------------|
--------------------------|--------------------------|
--5--------5-----5--------|--5-----5-----------5--5--|
-----0--0-----0-----0--0--|-----0-----0--0--0--------|


     PM    PM    PM    PM    PM PM PM PM              
  E  E  E  E  E  E  E  E     E  E  E  E  E  E  E  E   
--------------------------|--------------------------|
--------------------------|--------------------------|
--------------------------|--------------------------|
--------------------------|--------------5-----7-----|
--7-----3-----0-----0-----|--------------------------|
-----0-----0-----0-----0--|--0--0--0--0-----0-----0--|


     PM PM    PM    PM PM       PM    PM    PM PM PM  
  E  E  E  E  E  E  E  E     E  E  E  E  E  E  E  E   
--------------------------|--------------------------|
--------------------------|--------------------------|
--------------------------|--------------------------|
--3--------3-----3--------|--------------3-----------|
--------------------------|--3-----3-----------------|
-----3--3-----3-----3--3--|-----3-----3-----3--3--3--|


     PM    PM    PM    PM                               TP                
  E  E  E  E  E  E  E  E     E  E   Q     Q     Q       W                 
--------------------------|--------------------------|-------------------|
--------------------------|--------------------------|-------------------|
--------------------------|--------------------------|-------------------|
--5-----5-----7-----8-----|--7-----10----12----12----|-------------------|
--------------------------|--------10----12----12----|--8----------------|
-----5-----5-----5-----5--|-----7--10----12----12----|-------------------|


            TP   TP      TP                           TP   TP    
  H         Q    Q       W                   H        Q    Q     
----------------------|-------------------|---------------------|
----------------------|-------------------|---------------------|
----------------------|-------------------|---------------------|
----------------------|-------------------|---------------------|
--L--------10----8----|--7----------------|--L--------5----7----|
----------------------|-------------------|---------------------|


  TP                            TP   TP       TP                
  W                   H         Q    Q        W                 
-------------------|----------------------|--------------------|
-------------------|----------------------|--------------------|
-------------------|----------------------|--------------------|
-------------------|----------------------|--------------------|
--8----------------|--L--------10----8----|--12----------------|
-------------------|----------------------|--------------------|


  Q     Q    E    E  Q       E  E  E  E  E  E  E  E   
--------------------------|--------------------------|
--------------------------|--------------------------|
--------------------------|--7--7--7--7--7--7--7--7--|
--8-----------------------|--x--x--x--x--x--x--x--x--|
-------10----8h--10--8----|--5--5--5--5--5--5--5--5--|
--------------------------|--------------------------|


  E  E  E  E  E  E  E  E     E  E  E  E  E  E  E  E   
--------------------------|--------------------------|
--------------------------|--------------------------|
--7--7--7--7--7--7--7--7--|--7--7--7--7--7--7--7--7--|
--x--x--x--x--x--x--x--x--|--x--x--x--x--x--x--x--x--|
--5--5--5--5--5--5--5--5--|--5--5--5--5--5--5--5--5--|
--------------------------|--------------------------|


  E  E  E  E   E   E   E   E      E   E   E   E   E   E   E   E   
------------------------------|----------------------------------|
------------------------------|----------------------------------|
--5--5--5--5--12--12--12--12--|--14--14--14--14--14--14--14--14--|
--x--x--x--x---x---x---x---x--|---x---x---x---x---x---x---x---x--|
--3--3--3--3--10--10--10--10--|--12--12--12--12--12--12--12--12--|
------------------------------|----------------------------------|


   E   E   E   E   E   E   E   E      E   E   E   E   E   E   E   E   
----------------------------------|----------------------------------|
----------------------------------|----------------------------------|
--14--14--14--14--14--14--14--14--|--12--12--12--12--12--12--12--12--|
---x---x---x---x---x---x---x---x--|---x---x---x---x---x---x---x---x--|
--12--12--12--12--12--12--12--12--|--10--10--10--10--10--10--10--10--|
----------------------------------|----------------------------------|


   E   E   E   E   E   E   E   E      E   E   E   E   E   E   E   E   
----------------------------------|----------------------------------|
----------------------------------|----------------------------------|
--14--14--14--14--14--14--14--14--|--19--19--19--19--19--19--14--14--|
---x---x---x---x---x---x---x---x--|---x---x---x---x---x---x---x---x--|
--12--12--12--12--12--12--12--12--|--17--17--17--17--17--17--12--12--|
----------------------------------|----------------------------------|


   E   E   E   E   E   E   E   E      E   E   E   E   E   E   E   E   
----------------------------------|----------------------------------|
----------------------------------|----------------------------------|
--14--14--14--14--14--14--14--14--|--14--14--14--14--14--14--14--14--|
---x---x---x---x---x---x---x---x--|---x---x---x---x---x---x---x---x--|
--12--12--12--12--12--12--12--12--|--12--12--12--12--12--12--12--12--|
----------------------------------|----------------------------------|


  E  E  E  E   E   E   E   E      E   E   E   E   E   E   E   E   
------------------------------|----------------------------------|
------------------------------|----------------------------------|
--9--9--9--9--12--12--12--12--|--14--14--14--14--14--14--14--14--|
--x--x--x--x---x---x---x---x--|---x---x---x---x---x---x---x---x--|
--7--7--7--7--10--10--10--10--|--12--12--12--12--12--12--12--12--|
------------------------------|----------------------------------|


   E   E   E   E   E   E   E   E      E   E   E   E   E   E   E   E   
----------------------------------|----------------------------------|
----------------------------------|----------------------------------|
--14--14--14--14--14--14--14--14--|--12--12--12--12--12--12--12--12--|
---x---x---x---x---x---x---x---x--|---x---x---x---x---x---x---x---x--|
--12--12--12--12--12--12--12--12--|--10--10--10--10--10--10--10--10--|
----------------------------------|----------------------------------|


                                PM PM     PM     PM PM  
  Q     Q     Q     Q        E  E  E   E  E   E  E  E   
-------------------------|-----------------------------|
-------------------------|-----------------------------|
-------------------------|--10--------10-----10--------|
--7----10----12----12----|-----------------------------|
--7----10----12----12----|-----------------------------|
--7----10----12----12----|------0--0------0------0--0--|


      PM     PM PM PM                PM    PM     PM     PM  
   E  E   E  E  E  E   E   E      E  E  E  E   E  E   E  E   
------------------------------|-----------------------------|
------------------------------|-----------------------------|
--10-----10-----------10--10--|--12-----9-------------------|
------------------------------|---------------10-----10-----|
------------------------------|-----------------------------|
------0------0--0--0----------|------0-----0------0------0--|


  PM PM PM                      PM PM    PM    PM PM  
  E  E  E  E  E  E  E  E     E  E  E  E  E  E  E  E   
--------------------------|--------------------------|
--------------------------|--------------------------|
--------------3-----5-----|--------------------------|
--------------------------|--3--------3-----3--------|
--------------------------|--------------------------|
--0--0--0--0-----0-----0--|-----3--3-----3-----3--3--|


     PM    PM    PM PM PM       PM    PM    PM    PM  
  E  E  E  E  E  E  E  E     E  E  E  E  E  E  E  E   
--------------------------|--------------------------|
--------------------------|--------------------------|
--------------------------|--------------------------|
--------------3-----------|--5-----5-----7-----8-----|
--3-----3-----------------|--------------------------|
-----3-----3-----3--3--3--|-----5-----5-----5-----5--|


     PM PM PM                    PM PM     PM     PM PM  
  E  E  E  E  E  E  E  E      E  E  E   E  E   E  E  E   
--------------------------|-----------------------------|
--------------------6-----|-----------------------------|
--------------7-----------|--10--------10-----10--------|
--7-----------------------|-----------------------------|
--------------------------|-----------------------------|
-----5--5--5-----5-----5--|------0--0------0------0--0--|


      PM     PM PM PM                PM    PM     PM     PM  
   E  E   E  E  E  E   E   E      E  E  E  E   E  E   E  E   
------------------------------|-----------------------------|
------------------------------|-----------------------------|
--10-----10-----------10--10--|--12-----9-------------------|
------------------------------|---------------10-----10-----|
------------------------------|-----------------------------|
------0------0--0--0----------|------0-----0------0------0--|


  PM PM PM                                            
  E  E  E  E  E  E  E  E     E  E  E  E  E  E  E  E   
--------------------------|--------------------------|
--------------------------|--------------------------|
--------------3-----5-----|--2--2--2--2--2--2--2--2--|
--------------------------|--3--3--3--3--3--3--3--3--|
--------------------------|--3--3--3--3--3--3--3--3--|
--0--0--0--0-----0-----0--|--3--3--3--3--3--3--3--3--|


  E  E  E  E  E  E  E  E     E  E  E  E  E  E  E  E      E  E  H.            
--------------------------|--------------------------|----------------------|
--------------------------|--------------------------|----------------------|
--2--2--2--2--2--2--2--2--|--4--4--4--4--4--4--4--4--|----------------------|
--3--3--3--3--3--3--3--3--|--5--5--5--5--5--5--5--5--|--11------------------|
--3--3--3--3--3--3--3--3--|--5--5--5--5--5--5--5--5--|----------------------|
--3--3--3--3--3--3--3--3--|--5--5--5--5--5--5--5--5--|----------------------|


  TP                            TP   TP      TP                
  W                   H         Q    Q       W                 
-------------------|----------------------|-------------------|
-------------------|----------------------|-------------------|
-------------------|----------------------|-------------------|
-------------------|----------------------|-------------------|
--8----------------|--L--------10----8----|--7----------------|
-------------------|----------------------|-------------------|


           TP   TP      TP                            TP   TP    
  H        Q    Q       W                   H         Q    Q     
---------------------|-------------------|----------------------|
---------------------|-------------------|----------------------|
---------------------|-------------------|----------------------|
---------------------|-------------------|----------------------|
--L--------5----7----|--8----------------|--L--------10----8----|
---------------------|-------------------|----------------------|


   TP                                                                     
   W                    Q    Q      H            E  E  E  E  E  E  E  E   
--------------------|-------------------------|--------------------------|
--------------------|-------------------------|--------------------------|
--------------------|-------------------------|--7--7--7--7--7--7--7--7--|
--------------------|--12----LS----15~--------|--x--x--x--x--x--x--x--x--|
--12----------------|-------------------------|--5--5--5--5--5--5--5--5--|
--------------------|-------------------------|--------------------------|


  E  E  E  E  E  E  E  E     E  E  E  E  E  E  E  E   
--------------------------|--------------------------|
--------------------------|--------------------------|
--7--7--7--7--7--7--7--7--|--7--7--7--7--7--7--7--7--|
--x--x--x--x--x--x--x--x--|--x--x--x--x--x--x--x--x--|
--5--5--5--5--5--5--5--5--|--5--5--5--5--5--5--5--5--|
--------------------------|--------------------------|


  E  E  E  E   E   E   E   E      E   E   E   E   E   E   E   E   
------------------------------|----------------------------------|
------------------------------|----------------------------------|
--5--5--5--5--12--12--12--12--|--14--14--14--14--14--14--14--14--|
--x--x--x--x---x---x---x---x--|---x---x---x---x---x---x---x---x--|
--3--3--3--3--10--10--10--10--|--12--12--12--12--12--12--12--12--|
------------------------------|----------------------------------|


   E   E   E   E   E   E   E   E      E   E   E   E   E   E   E   E   
----------------------------------|----------------------------------|
----------------------------------|----------------------------------|
--14--14--14--14--14--14--14--14--|--12--12--12--12--12--12--12--12--|
---x---x---x---x---x---x---x---x--|---x---x---x---x---x---x---x---x--|
--12--12--12--12--12--12--12--12--|--10--10--10--10--10--10--10--10--|
----------------------------------|----------------------------------|


   E   E   E   E   E   E   E   E      E   E   E   E   E   E   E   E   
----------------------------------|----------------------------------|
----------------------------------|----------------------------------|
--14--14--14--14--14--14--14--14--|--19--19--19--19--19--19--14--14--|
---x---x---x---x---x---x---x---x--|---x---x---x---x---x---x---x---x--|
--12--12--12--12--12--12--12--12--|--17--17--17--17--17--17--12--12--|
----------------------------------|----------------------------------|


   E   E   E   E   E   E   E   E      E   E   E   E   E   E   E   E   
----------------------------------|----------------------------------|
----------------------------------|----------------------------------|
--14--14--14--14--14--14--14--14--|--14--14--14--14--14--14--14--14--|
---x---x---x---x---x---x---x---x--|---x---x---x---x---x---x---x---x--|
--12--12--12--12--12--12--12--12--|--12--12--12--12--12--12--12--12--|
----------------------------------|----------------------------------|


  E  E  E  E   E   E   E   E      E   E   E   E   E   E   E   E   
------------------------------|----------------------------------|
------------------------------|----------------------------------|
--9--9--9--9--12--12--12--12--|--14--14--14--14--14--14--14--14--|
--x--x--x--x---x---x---x---x--|---x---x---x---x---x---x---x---x--|
--7--7--7--7--10--10--10--10--|--12--12--12--12--12--12--12--12--|
------------------------------|----------------------------------|


   E   E   E   E   E   E   E   E      E   E   E   E   E   E   E   E   
----------------------------------|----------------------------------|
----------------------------------|----------------------------------|
--14--14--14--14--14--14--14--14--|--12--12--12--12--12--12--12--12--|
---x---x---x---x---x---x---x---x--|---x---x---x---x---x---x---x---x--|
--12--12--12--12--12--12--12--12--|--10--10--10--10--10--10--10--10--|
----------------------------------|----------------------------------|


                            PM PM PM PM PM     PM PM PM   PM PM PM    
  Q     Q     Q     Q       S  S  S  S  S  E.  S  S  S  S S  S  S  S  
-------------------------|-------------------------------------------|
-------------------------|-------------------------------------------|
-------------------------|-------------------------------------------|
--7----10----12----12----|-------------------------------------------|
--7----10----12----12----|--0--0--0--0--0------0--0--0----0--0--0----|
--7----10----12----12----|--0--0--0--0--0------0--0--0----0--0--0----|


     PM PM PM PM PM PM PM     PM PM PM    
  E  S  S  S  S  S  S  S  E.  S  S  S  S  
-----------------------------------------|
-----------------------------------------|
-----------------------------------------|
-----------------------------------------|
-----0--0--0--0--0--0--0------0--0--0----|
-----0--0--0--0--0--0--0------0--0--0----|


  PM PM PM     PM   PM PM PM   PM PM PM                              
  S  S  S  E.  S  S S  S  S  S S  S  S  S    Q     Q     Q     Q     
------------------------------------------|-------------------------|
------------------------------------------|-------------------------|
------------------------------------------|-------------------------|
------------------------------------------|-------10----12----12----|
--0--0--0------0----0--0--0----0--0--0----|-------10----12----12----|
--0--0--0------0----0--0--0----0--0--0----|-------10----12----12----|


  PM PM PM PM PM     PM PM PM   PM PM PM    
  S  S  S  S  S  E.  S  S  S  S S  S  S  S  
-------------------------------------------|
-------------------------------------------|
-------------------------------------------|
-------------------------------------------|
--0--0--0--0--0--L---0--0--0--L-0--0--0--L-|
--0--0--0--0--0--L---0--0--0--L-0--0--0--L-|


     PM PM PM PM PM PM PM     PM PM PM    
  E  S  S  S  S  S  S  S  E.  S  S  S  S  
-----------------------------------------|
-----------------------------------------|
-----------------------------------------|
-----------------------------------------|
--L--0--0--0--0--0--0--0--L---0--0--0--L-|
--L--0--0--0--0--0--0--0--L---0--0--0--L-|


  PM PM PM     PM   PM PM PM   PM PM PM                              
  S  S  S  E.  S  S S  S  S  S S  S  S  S    Q     Q     Q     Q     
------------------------------------------|-------------------------|
------------------------------------------|-------------------------|
------------------------------------------|-------------------------|
------------------------------------------|-------10----12----12----|
--0--0--0--L---0--L-0--0--0--L-0--0--0--L-|--L----10----12----12----|
--0--0--0--L---0--L-0--0--0--L-0--0--0--L-|--L----10----12----12----|


  Q    Q    Q     Q       W                    Q     Q     Q    Q     
-----------------------|-------------------|-------------------------|
-----------------------|-------------------|-------------------------|
-----------------10----|--L----------------|-------------------------|
------------0----------|-------------------|--------------10----L----|
-------0---------------|-------------------|--------10---------------|
--0--------------------|-------------------|--10---------------------|


  Q    Q    Q    Q       Q    Q    Q    Q       Q    Q    Q    Q     
----------------------|----------------------|----------------------|
----------------------|----------------------|-------6--------------|
--9-------------------|-----------------5----|--L-------------------|
-------5---------5----|------------3---------|----------------------|
------------7---------|-------3--------------|-----------------3----|
----------------------|--3-------------------|------------3---------|


  Q    Q    Q      Q        Q      Q     Q      Q        W                 
------------------------|----------------------------|--------------------|
------------------------|----------------------------|--------------------|
------------------------|----------------------------|--------------------|
------------8s----11----|--12s----11----12s----14----|--12----------------|
-------5----------------|----------------------------|--------------------|
--5---------------------|----------------------------|--------------------|


  W                    W                   W                 
-------------------|--------------------|-------------------|
-------------------|--------------------|-------------------|
-------------------|--------------------|-------------------|
--L----------------|--14----------------|--L----------------|
-------------------|--------------------|-------------------|
-------------------|--------------------|-------------------|


   W                   W                    W                 
--------------------|-------------------|--------------------|
--------------------|-------------------|--------------------|
--10----------------|--L----------------|--12----------------|
--------------------|-------------------|--------------------|
--------------------|-------------------|--------------------|
--------------------|-------------------|--------------------|


   Q    Q     Q     Q        H.            Q        Q    Q     Q     Q     
-------------------------|----------------------|-------------------------|
--------8----10----10----|---L------------------|--------8----10----10----|
--10---------------------|----------------10----|--10---------------------|
-------------------------|----------------------|-------------------------|
-------------------------|----------------------|-------------------------|
-------------------------|----------------------|-------------------------|


   H.            Q        Q    Q     Q     Q        Q     Q     Q    Q     
----------------------|-------------------------|-------------------------|
---L------------------|--------8----10----10----|---L----11----10----8----|
----------------10----|--10---------------------|-------------------------|
----------------------|-------------------------|-------------------------|
----------------------|-------------------------|-------------------------|
----------------------|-------------------------|-------------------------|


   H         H            H         H            H        Q     Q     
----------------------|----------------------|-----------------------|
----------------------|--13--------11--------|--10--------8----10----|
--10--------10--------|----------------------|-----------------------|
----------------------|----------------------|-----------------------|
----------------------|----------------------|-----------------------|
----------------------|----------------------|-----------------------|


   H.            Q        Q    Q     Q     Q        H.            Q     
----------------------|-------------------------|----------------------|
---L------------------|--------8----10----10----|---L------------------|
----------------10----|--10---------------------|----------------10----|
----------------------|-------------------------|----------------------|
----------------------|-------------------------|----------------------|
----------------------|-------------------------|----------------------|


   Q    Q     Q     Q        Q     Q     Q     Q        W                 
-------------------------|--------------------------|--------------------|
--------8----10----10----|---L----11----10----11----|--10----------------|
--10---------------------|--------------------------|--------------------|
-------------------------|--------------------------|--------------------|
-------------------------|--------------------------|--------------------|
-------------------------|--------------------------|--------------------|


   Q     Q     Q     Q        Q     Q     Q    Q      
--------------------------|--------------------------|
--10----11----10----11----|--10----11----10----L\----|
--------------------------|--------------------------|
--------------------------|--------------------------|
--------------------------|--------------------------|
--------------------------|--------------------------|


  E  E  E  E  E  E  E  E     E  E  E  E  E  E  E  E   
--------------------------|--------------------------|
--------------------------|--------------------------|
--7--7--7--7--7--7--7--7--|--7--7--7--7--7--7--7--7--|
--x--x--x--x--x--x--x--x--|--x--x--x--x--x--x--x--x--|
--5--5--5--5--5--5--5--5--|--5--5--5--5--5--5--5--5--|
--------------------------|--------------------------|


  E  E  E  E  E  E  E  E     E  E  E  E   E   E   E   E   
--------------------------|------------------------------|
--------------------------|------------------------------|
--7--7--7--7--7--7--7--7--|--5--5--5--5--12--12--12--12--|
--x--x--x--x--x--x--x--x--|--x--x--x--x---x---x---x---x--|
--5--5--5--5--5--5--5--5--|--3--3--3--3--10--10--10--10--|
--------------------------|------------------------------|


   E   E   E   E   E   E   E   E      E   E   E   E   E   E   E   E   
----------------------------------|----------------------------------|
----------------------------------|----------------------------------|
--14--14--14--14--14--14--14--14--|--14--14--14--14--14--14--14--14--|
---x---x---x---x---x---x---x---x--|---x---x---x---x---x---x---x---x--|
--12--12--12--12--12--12--12--12--|--12--12--12--12--12--12--12--12--|
----------------------------------|----------------------------------|


   E   E   E   E   E   E   E   E      E   E   E   E   E   E   E   E   
----------------------------------|----------------------------------|
----------------------------------|----------------------------------|
--12--12--12--12--12--12--12--12--|--14--14--14--14--14--14--14--14--|
---x---x---x---x---x---x---x---x--|---x---x---x---x---x---x---x---x--|
--10--10--10--10--10--10--10--10--|--12--12--12--12--12--12--12--12--|
----------------------------------|----------------------------------|


  TP                                                          TP                
  W                   W                   W                   W                 
-------------------|-------------------|-------------------|-------------------|
-------------------|-------------------|-------------------|-------------------|
-------------------|-------------------|-------------------|-------------------|
--7----------------|--L----------------|--L----------------|--5----------------|
-------------------|-------------------|-------------------|-------------------|
-------------------|-------------------|-------------------|-------------------|


  TP                                      TP                
  W                   W                   W                 
-------------------|-------------------|-------------------|
-------------------|-------------------|-------------------|
-------------------|-------------------|-------------------|
--7----------------|--L----------------|--9----------------|
-------------------|-------------------|-------------------|
-------------------|-------------------|-------------------|


  Q     Q     Q     Q       W                                     
-------------------------|-------------------|-------------------|
-------------------------|-------------------|-------------------|
-------------------------|-------------------|-------------------|
--7----10----12----12----|--0----------------|-------------------|
--7----10----12----12----|--0----------------|-------------------|
--7----10----12----12----|--0----------------|-------------------|


  W                   W                  
-------------------|-------------------||
-------------------|-------------------||
-------------------|-------------------||
--L----------------|--L----------------||
--L----------------|--L----------------||
--L----------------|--L----------------||




Duration Legend
---------------
W - whole
H - half
Q - quarter
E - 8th
S - 16th
T - 32nd
X - 64th
. - note dotted
|-n-|  - n-tuplets


Tablature Legend
----------------
L - tied note
x - dead note
g - grace note
(n) - ghost note
> - accentuded note
NH - natural harmonic
AH - artificial harmonic
TH - tapped harmonic
SH - semi harmonic
PH - pitch harmonic
h - hammer on
p - pull off
b - bend
br - bendRelease
pb - preBend
pbr - preBendRelease
brb - bendReleaseBend
\n/ - tremolo bar dip
\n - tremolo bar dive
-/n - tremolo bar Release up
/n\ - tremolo bar inverted dip
/n - tremolo bar return
-\n - tremolo bar Release down
S - shift slide
s - legato slide
/ -  slide into from below or out of upwards
\ -  slide into from above or out of downwards
~ - vibrato
W - wide vibrato
tr - trill
TP - tremolo picking
T - tapping
S - slap
P - pop
< - fade in
^ - brush up
v - brush down






                                          


Brent Rambler (Rhythm Guitar)



                               PM PM PM PM PM     PM PM PM   PM PM PM    
     Q     Q     Q     Q       S  S  S  S  S  E.  S  S  S  S S  S  S  S  
D||-------------------------|-------------------------------------------|
A||-------------------------|-------------------------------------------|
F||-------------------------|-------------------------------------------|
C||-------10----12----12----|-------------------------------------------|
G||-------10----12----12----|--0--0--0--0--0------0--0--0----0--0--0----|
C||-------10----12----12----|--0--0--0--0--0------0--0--0----0--0--0----|


     PM PM PM PM PM PM PM     PM PM PM    
  E  S  S  S  S  S  S  S  E.  S  S  S  S  
-----------------------------------------|
-----------------------------------------|
-----------------------------------------|
-----------------------------------------|
-----0--0--0--0--0--0--0------0--0--0----|
-----0--0--0--0--0--0--0------0--0--0----|


  PM PM PM     PM   PM PM PM   PM PM PM                              
  S  S  S  E.  S  S S  S  S  S S  S  S  S    Q     Q     Q     Q     
------------------------------------------|-------------------------|
------------------------------------------|-------------------------|
------------------------------------------|-------------------------|
------------------------------------------|-------10----12----12----|
--0--0--0------0----0--0--0----0--0--0----|-------10----12----12----|
--0--0--0------0----0--0--0----0--0--0----|-------10----12----12----|


  PM PM PM PM PM     PM PM PM   PM PM PM    
  S  S  S  S  S  E.  S  S  S  S S  S  S  S  
-------------------------------------------|
-------------------------------------------|
-------------------------------------------|
-------------------------------------------|
--0--0--0--0--0------0--0--0----0--0--0----|
--0--0--0--0--0------0--0--0----0--0--0----|


     PM PM PM PM PM PM PM     PM PM PM    
  E  S  S  S  S  S  S  S  E.  S  S  S  S  
-----------------------------------------|
-----------------------------------------|
-----------------------------------------|
-----------------------------------------|
-----0--0--0--0--0--0--0------0--0--0----|
-----0--0--0--0--0--0--0------0--0--0----|


  PM PM PM     PM   PM PM PM   PM PM PM                             
  S  S  S  E.  S  S S  S  S  S S  S  S  S    Q     Q     Q    Q     
------------------------------------------|------------------------|
------------------------------------------|------------------------|
------------------------------------------|------------------------|
------------------------------------------|-------10----12---------|
--0--0--0------0----0--0--0----0--0--0----|-------10----12---------|
--0--0--0------0----0--0--0----0--0--0----|-------10----12---------|


     PM PM    PM    PM PM       PM    PM PM PM        
  E  E  E  E  E  E  E  E     E  E  E  E  E  E  E  E   
--------------------------|--------------------------|
--------------------------|--------------------------|
--------------------------|--------------------------|
--------------------------|--------------------------|
--5--------5-----5--------|--5-----5-----------5--5--|
-----0--0-----0-----0--0--|-----0-----0--0--0--------|


     PM    PM    PM    PM    PM PM PM                 
  E  E  E  E  E  E  E  E     E  E  E  E  E  E  E  E   
--------------------------|--------------------------|
--------------------------|--------------------------|
--------------------------|--------------------------|
--------------------------|--------------5-----7-----|
--7-----3-----0-----0-----|--------------------------|
-----0-----0-----0-----0--|--0--0--0--0-----0-----0--|


     PM PM    PM    PM PM       PM    PM    PM PM PM  
  E  E  E  E  E  E  E  E     E  E  E  E  E  E  E  E   
--------------------------|--------------------------|
--------------------------|--------------------------|
--------------------------|--------------------------|
--3--------3-----3--------|--------------3-----------|
--------------------------|--3-----3-----------------|
-----3--3-----3-----3--3--|-----3-----3-----3--3--3--|


     PM    PM    PM    PM       PM PM PM               
  E  E  E  E  E  E  E  E     E  E  E  E  E  E   E  E   
--------------------------|---------------------------|
--------------------------|---------------------------|
--------------------------|--------------7-----10-----|
--5-----5-----7-----8-----|--7------------------------|
--------------------------|---------------------------|
-----5-----5-----5-----5--|-----7--7--7-----7------7--|


     PM PM    PM    PM PM       PM    PM PM PM        
  E  E  E  E  E  E  E  E     E  E  E  E  E  E  E  E   
--------------------------|--------------------------|
--------------------------|--------------------------|
--------------------------|--------------------------|
--------------------------|--------------------------|
--5--------5-----5--------|--5-----5-----------5--5--|
-----0--0-----0-----0--0--|-----0-----0--0--0--------|


     PM    PM    PM    PM    PM PM PM PM              
  E  E  E  E  E  E  E  E     E  E  E  E  E  E  E  E   
--------------------------|--------------------------|
--------------------------|--------------------------|
--------------------------|--------------------------|
--------------------------|--------------5-----7-----|
--7-----3-----0-----0-----|--------------------------|
-----0-----0-----0-----0--|--0--0--0--0-----0-----0--|


     PM PM    PM    PM PM       PM    PM    PM PM PM  
  E  E  E  E  E  E  E  E     E  E  E  E  E  E  E  E   
--------------------------|--------------------------|
--------------------------|--------------------------|
--------------------------|--------------------------|
--3--------3-----3--------|--------------3-----------|
--------------------------|--3-----3-----------------|
-----3--3-----3-----3--3--|-----3-----3-----3--3--3--|


     PM    PM    PM    PM                               TP                
  E  E  E  E  E  E  E  E     E  E   Q     Q     Q       W                 
--------------------------|--------------------------|-------------------|
--------------------------|--------------------------|-------------------|
--------------------------|--------------------------|-------------------|
--5-----5-----7-----8-----|--7-----10----12----12----|-------------------|
--------------------------|--------10----12----12----|--5----------------|
-----5-----5-----5-----5--|-----7--10----12----12----|-------------------|


           TP   TP      TP                           TP   TP    
  H        Q    Q       W                   H        Q    Q     
---------------------|-------------------|---------------------|
---------------------|-------------------|---------------------|
---------------------|-------------------|---------------------|
---------------------|-------------------|---------------------|
--L--------7----5----|--4----------------|--L--------1----3----|
---------------------|-------------------|---------------------|


  TP                           TP   TP      TP                
  W                   H        Q    Q       W                 
-------------------|---------------------|-------------------|
-------------------|---------------------|-------------------|
-------------------|---------------------|-------------------|
-------------------|---------------------|-------------------|
--5----------------|--L--------7----5----|--8----------------|
-------------------|---------------------|-------------------|


   Q     Q     E    E   Q       E  E  E  E  E  E  E  E   
-----------------------------|--------------------------|
-----------------------------|--6--6--6--6--6--6--6--6--|
-----------------------------|--7--7--7--7--7--7--7--7--|
--12-------------------------|--x--x--x--x--x--x--x--x--|
--------13----12h--13--12----|--5--5--5--5--5--5--5--5--|
-----------------------------|--------------------------|


  E  E  E  E  E  E  E  E     E  E  E  E  E  E  E  E   
--------------------------|--------------------------|
--6--6--6--6--6--6--6--6--|--5--5--5--5--5--5--5--5--|
--7--7--7--7--7--7--7--7--|--7--7--7--7--7--7--7--7--|
--x--x--x--x--x--x--x--x--|--x--x--x--x--x--x--x--x--|
--5--5--5--5--5--5--5--5--|--5--5--5--5--5--5--5--5--|
--------------------------|--------------------------|


  E  E  E  E  E  E  E  E      E   E   E   E   E   E   E   E   
--------------------------|----------------------------------|
--------------------------|----------------------------------|
--5--5--5--5--9--9--9--9--|--10--10--10--10--10--10--10--10--|
--x--x--x--x--x--x--x--x--|---7---7---7---7---7---7---7---7--|
--3--3--3--3--7--7--7--7--|---8---8---8---8---8---8---8---8--|
--------------------------|----------------------------------|


   E   E   E   E   E   E   E   E     E  E  E  E  E  E  E  E   
----------------------------------|--------------------------|
----------------------------------|--------------------------|
--10--10--10--10--10--10--10--10--|--4--4--4--4--4--4--4--4--|
---7---7---7---7---7---7---7---7--|--5--5--5--5--5--5--5--5--|
---8---8---8---8---8---8---8---8--|--------------------------|
----------------------------------|--------------------------|


  E  E  E  E  E  E  E  E     E  E  E  E  E  E  E  E   
--------------------------|--------------------------|
--------------------------|--6--6--6--6--6--6--6--6--|
--6--6--6--6--6--6--6--6--|--7--7--7--7--7--7--7--7--|
--7--7--7--7--7--7--7--7--|--x--x--x--x--x--x--x--x--|
--------------------------|--5--5--5--5--5--5--5--5--|
--------------------------|--------------------------|


  E  E  E  E  E  E  E  E     E  E  E  E  E  E  E  E   
--------------------------|--------------------------|
--6--6--6--6--6--6--6--6--|--6--6--6--6--6--6--6--6--|
--7--7--7--7--7--7--7--7--|--7--7--7--7--7--7--7--7--|
--x--x--x--x--x--x--x--x--|--x--x--x--x--x--x--x--x--|
--5--5--5--5--5--5--5--5--|--5--5--5--5--5--5--5--5--|
--------------------------|--------------------------|


  E  E  E  E  E  E  E  E      E   E   E   E   E   E   E   E   
--------------------------|----------------------------------|
--------------------------|----------------------------------|
--5--5--5--5--9--9--9--9--|--10--10--10--10--10--10--10--10--|
--x--x--x--x--x--x--x--x--|---7---7---7---7---7---7---7---7--|
--3--3--3--3--7--7--7--7--|---8---8---8---8---8---8---8---8--|
--------------------------|----------------------------------|


   E   E   E   E   E   E   E   E     E  E  E  E  E  E  E  E   
----------------------------------|--------------------------|
----------------------------------|--------------------------|
--10--10--10--10--10--10--10--10--|--4--4--4--4--4--4--4--4--|
---7---7---7---7---7---7---7---7--|--5--5--5--5--5--5--5--5--|
---8---8---8---8---8---8---8---8--|--------------------------|
----------------------------------|--------------------------|


  Q     Q     Q     Q       E  E  E  E  E  E  E  E     E  E  E  E  E  E  E  E   
-------------------------|--------------------------|--------------------------|
-------------------------|--------------------------|--------------------------|
-------------------------|--7--------7-----7--------|--7-----7-----------7--7--|
--7----10----12----12----|--------------------------|--------------------------|
--7----10----12----12----|--------------------------|--------------------------|
--7----10----12----12----|-----0--0-----0-----0--0--|-----0-----0--0--0--------|


  E  E  E  E  E  E  E  E     E  E  E  E  E  E  E  E   
--------------------------|--------------------------|
--------------------------|--------------------------|
--9-----5-----------------|--------------------------|
--------------7-----7-----|--------------5-----7-----|
--------------------------|--------------------------|
-----0-----0-----0-----0--|--0--0--0--0-----0-----0--|


     PM PM    PM    PM PM       PM    PM    PM PM PM  
  E  E  E  E  E  E  E  E     E  E  E  E  E  E  E  E   
--------------------------|--------------------------|
--------------------------|--------------------------|
--2--------2-----2--------|--------------2-----------|
--------------------------|--3-----3-----------------|
--------------------------|--------------------------|
-----3--3-----3-----3--3--|-----3-----3-----3--3--3--|


     PM    PM    PM    PM       PM PM PM              
  E  E  E  E  E  E  E  E     E  E  E  E  E  E  E  E   
--------------------------|--------------------5-----|
--------------------------|--------------6-----------|
--------------5-----7-----|--5-----------------------|
--8-----8-----------------|--------------------------|
--------------------------|--------------------------|
-----5-----5-----5-----5--|-----5--5--5-----5-----5--|


  E  E  E  E  E  E  E  E     E  E  E  E  E  E  E  E   
--------------------------|--------------------------|
--------------------------|--------------------------|
--7--------7-----7--------|--7-----7-----------7--7--|
--------------------------|--------------------------|
--------------------------|--------------------------|
-----0--0-----0-----0--0--|-----0-----0--0--0--------|


  E  E  E  E  E  E  E  E     E  E  E  E  E  E  E  E   
--------------------------|--------------------------|
--------------------------|--------------------------|
--9-----5-----------------|--------------------------|
--------------7-----7-----|--------------5-----7-----|
--------------------------|--------------------------|
-----0-----0-----0-----0--|--0--0--0--0-----0-----0--|


  E  E  E  E  E  E  E  E     E  E  E  E  E  E  E  E   
--------------------------|--------------------------|
--------------------------|--------------------------|
--2--2--2--2--2--2--2--2--|--2--2--2--2--2--2--2--2--|
--3--3--3--3--3--3--3--3--|--3--3--3--3--3--3--3--3--|
--3--3--3--3--3--3--3--3--|--3--3--3--3--3--3--3--3--|
--3--3--3--3--3--3--3--3--|--3--3--3--3--3--3--3--3--|


                                                   TP                
  E  E  E  E  E  E  E  E     E  E  H.              W                 
--------------------------|---------------------|-------------------|
--------------------------|---------------------|-------------------|
--4--4--4--4--4--4--4--4--|---------------------|-------------------|
--5--5--5--5--5--5--5--5--|--7------------------|-------------------|
--5--5--5--5--5--5--5--5--|--7------------------|--5----------------|
--5--5--5--5--5--5--5--5--|--7------------------|-------------------|


           TP   TP      TP                           TP   TP    
  H        Q    Q       W                   H        Q    Q     
---------------------|-------------------|---------------------|
---------------------|-------------------|---------------------|
---------------------|-------------------|---------------------|
---------------------|-------------------|---------------------|
--L--------7----5----|--4----------------|--L--------1----3----|
---------------------|-------------------|---------------------|


  TP                           TP   TP      TP                
  W                   H        Q    Q       W                 
-------------------|---------------------|-------------------|
-------------------|---------------------|-------------------|
-------------------|---------------------|-------------------|
-------------------|---------------------|-------------------|
--5----------------|--L--------7----5----|--8----------------|
-------------------|---------------------|-------------------|


   Q    Q     H            E  E  E  E  E  E  E  E     E  E  E  E  E  E  E  E   
------------------------|--------------------------|--------------------------|
------------------------|--6--6--6--6--6--6--6--6--|--6--6--6--6--6--6--6--6--|
------------------------|--7--7--7--7--7--7--7--7--|--7--7--7--7--7--7--7--7--|
--12----L----15~--------|--x--x--x--x--x--x--x--x--|--x--x--x--x--x--x--x--x--|
------------------------|--5--5--5--5--5--5--5--5--|--5--5--5--5--5--5--5--5--|
------------------------|--------------------------|--------------------------|


  E  E  E  E  E  E  E  E     E  E  E  E  E  E  E  E   
--------------------------|--------------------------|
--5--5--5--5--5--5--5--5--|--------------------------|
--7--7--7--7--7--7--7--7--|--5--5--5--5--9--9--9--9--|
--x--x--x--x--x--x--x--x--|--x--x--x--x--x--x--x--x--|
--5--5--5--5--5--5--5--5--|--3--3--3--3--7--7--7--7--|
--------------------------|--------------------------|


   E   E   E   E   E   E   E   E      E   E   E   E   E   E   E   E   
----------------------------------|----------------------------------|
----------------------------------|----------------------------------|
--10--10--10--10--10--10--10--10--|--10--10--10--10--10--10--10--10--|
---7---7---7---7---7---7---7---7--|---7---7---7---7---7---7---7---7--|
---8---8---8---8---8---8---8---8--|---8---8---8---8---8---8---8---8--|
----------------------------------|----------------------------------|


  E  E  E  E  E  E  E  E     E  E  E  E  E  E  E  E   
--------------------------|--------------------------|
--------------------------|--------------------------|
--4--4--4--4--4--4--4--4--|--6--6--6--6--6--6--6--6--|
--5--5--5--5--5--5--5--5--|--7--7--7--7--7--7--7--7--|
--------------------------|--------------------------|
--------------------------|--------------------------|


  E  E  E  E  E  E  E  E     E  E  E  E  E  E  E  E   
--------------------------|--------------------------|
--6--6--6--6--6--6--6--6--|--6--6--6--6--6--6--6--6--|
--7--7--7--7--7--7--7--7--|--7--7--7--7--7--7--7--7--|
--x--x--x--x--x--x--x--x--|--x--x--x--x--x--x--x--x--|
--5--5--5--5--5--5--5--5--|--5--5--5--5--5--5--5--5--|
--------------------------|--------------------------|


  E  E  E  E  E  E  E  E     E  E  E  E  E  E  E  E   
--------------------------|--------------------------|
--6--6--6--6--6--6--6--6--|--------------------------|
--7--7--7--7--7--7--7--7--|--5--5--5--5--9--9--9--9--|
--x--x--x--x--x--x--x--x--|--x--x--x--x--x--x--x--x--|
--5--5--5--5--5--5--5--5--|--3--3--3--3--7--7--7--7--|
--------------------------|--------------------------|


   E   E   E   E   E   E   E   E      E   E   E   E   E   E   E   E   
----------------------------------|----------------------------------|
----------------------------------|----------------------------------|
--10--10--10--10--10--10--10--10--|--10--10--10--10--10--10--10--10--|
---7---7---7---7---7---7---7---7--|---7---7---7---7---7---7---7---7--|
---8---8---8---8---8---8---8---8--|---8---8---8---8---8---8---8---8--|
----------------------------------|----------------------------------|


  E  E  E  E  E  E  E  E     Q     Q     Q     Q     
--------------------------|-------------------------|
--------------------------|-------------------------|
--4--4--4--4--4--4--4--4--|-------------------------|
--5--5--5--5--5--5--5--5--|--7----10----12----12----|
--------------------------|--7----10----12----12----|
--------------------------|--7----10----12----12----|


  PM PM PM PM PM     PM PM PM   PM PM PM    
  S  S  S  S  S  E.  S  S  S  S S  S  S  S  
-------------------------------------------|
-------------------------------------------|
-------------------------------------------|
-------------------------------------------|
--0--0--0--0--0------0--0--0----0--0--0----|
--0--0--0--0--0------0--0--0----0--0--0----|


     PM PM PM PM PM PM PM     PM PM PM    
  E  S  S  S  S  S  S  S  E.  S  S  S  S  
-----------------------------------------|
-----------------------------------------|
-----------------------------------------|
-----------------------------------------|
-----0--0--0--0--0--0--0------0--0--0----|
-----0--0--0--0--0--0--0------0--0--0----|


  PM PM PM     PM   PM PM PM   PM PM PM                              
  S  S  S  E.  S  S S  S  S  S S  S  S  S    Q     Q     Q     Q     
------------------------------------------|-------------------------|
------------------------------------------|-------------------------|
------------------------------------------|-------------------------|
------------------------------------------|-------10----12----12----|
--0--0--0------0----0--0--0----0--0--0----|-------10----12----12----|
--0--0--0------0----0--0--0----0--0--0----|-------10----12----12----|


  PM PM PM PM PM     PM PM PM   PM PM PM    
  S  S  S  S  S  E.  S  S  S  S S  S  S  S  
-------------------------------------------|
-------------------------------------------|
-------------------------------------------|
-------------------------------------------|
--0--0--0--0--0--L---0--0--0--L-0--0--0--L-|
--0--0--0--0--0--L---0--0--0--L-0--0--0--L-|


     PM PM PM PM PM PM PM     PM PM PM    
  E  S  S  S  S  S  S  S  E.  S  S  S  S  
-----------------------------------------|
-----------------------------------------|
-----------------------------------------|
-----------------------------------------|
--L--0--0--0--0--0--0--0--L---0--0--0--L-|
--L--0--0--0--0--0--0--0--L---0--0--0--L-|


  PM PM PM     PM   PM PM PM   PM PM PM                              
  S  S  S  E.  S  S S  S  S  S S  S  S  S    Q     Q     Q     Q     
------------------------------------------|-------------------------|
------------------------------------------|-------------------------|
------------------------------------------|-------------------------|
------------------------------------------|-------10----12----12----|
--0--0--0--L---0--L-0--0--0--L-0--0--0--L-|--L----10----12----12----|
--0--0--0--L---0--L-0--0--0--L-0--0--0--L-|--L----10----12----12----|


  W                   W                                       W                 
-------------------|-------------------|-------------------|-------------------|
-------------------|-------------------|-------------------|-------------------|
-------------------|-------------------|-------------------|-------------------|
--0----------------|--L----------------|-------------------|--L----------------|
--0----------------|--L----------------|-------------------|--L----------------|
--0----------------|--L----------------|-------------------|--L----------------|


                      W                   W                   W                 
-------------------|-------------------|-------------------|-------------------|
-------------------|-------------------|-------------------|-------------------|
-------------------|-------------------|-------------------|-------------------|
-------------------|-------------------|-------------------|-------------------|
-------------------|-------------------|-------------------|-------------------|
-------------------|-------------------|-------------------|-------------------|


  Q    Q    Q     Q       W                    Q     Q     Q    Q     
-----------------------|-------------------|-------------------------|
-----------------------|-------------------|-------------------------|
-----------------10----|--L----------------|--------------------9----|
------------8----------|-------------------|--------------10---------|
-------8---------------|-------------------|--------10---------------|
--8--------------------|-------------------|--10---------------------|


                      PM   PM   PM   PM      PM   PM   PM   PM    
  W                   Q    Q    Q    Q       Q    Q    Q    Q     
-------------------|----------------------|----------------------|
-------------------|----------------------|----------------------|
--L----------------|----------------------|----------------------|
-------------------|----------------------|----------------------|
-------------------|--8----8----8----8----|--8----8----8----8----|
-------------------|--8----8----8----8----|--8----8----8----8----|


   PM    PM    PM    PM       PM    PM    PM    PM           PM   PM   PM    
   Q     Q     Q     Q        Q     Q     Q     Q       Q    Q    Q    Q     
--------------------------|--------------------------|----------------------|
--------------------------|--------------------------|----------------------|
--------------------------|--------------------------|--7-------------------|
--------------------------|--------------------------|--7-------------------|
--10----10----10----10----|--10----10----10----10----|--5----0----0----0----|
--10----10----10----10----|--10----10----10----10----|-------0----0----0----|


  PM   PM        PM           PM   PM   PM      PM   PM        PM    
  Q    Q    Q    Q       Q    Q    Q    Q       Q    Q    Q    Q     
----------------------|----------------------|----------------------|
----------------------|----------------------|----------------------|
------------7---------|--6-------------------|------------6---------|
------------7---------|--6-------------------|------------6---------|
--0----0----5----0----|--4----0----0----0----|--0----0----4----0----|
--0----0---------0----|-------0----0----0----|--0----0---------0----|


       PM   PM   PM      PM   PM        PM           PM   PM   PM    
  Q    Q    Q    Q       Q    Q    Q    Q       Q    Q    Q    Q     
----------------------|----------------------|----------------------|
----------------------|----------------------|----------------------|
----------------------|----------------------|----------------------|
--3-------------------|------------3---------|--5-------------------|
--3----3----3----3----|--3----3----3----3----|--5----5----5----5----|
--3----3----3----3----|--3----3----3----3----|--5----5----5----5----|


       PM   PM   PM         PM PM PM PM PM PM PM    PM PM PM PM PM PM PM PM  
  Q    Q    Q    Q       E  E  E  E  E  E  E  E     E  E  E  E  E  E  E  E   
----------------------|--------------------------|--------------------------|
----------------------|--------------------------|--------------------------|
----------------------|--------------------------|--------------------------|
--7-------------------|--8-----------------------|--------------------------|
--7----7----7----7----|--8--8--8--8--8--8--8--8--|--8--8--8--8--8--8--8--8--|
--7----7----7----7----|--8--8--8--8--8--8--8--8--|--8--8--8--8--8--8--8--8--|


       PM  PM  PM  PM  PM  PM  PM     PM  PM  PM  PM  PM  PM  PM  PM  
   E   E   E   E   E   E   E   E      E   E   E   E   E   E   E   E   
----------------------------------|----------------------------------|
----------------------------------|----------------------------------|
----------------------------------|----------------------------------|
--10------------------------------|----------------------------------|
--10--10--10--10--10--10--10--10--|--10--10--10--10--10--10--10--10--|
--10--10--10--10--10--10--10--10--|--10--10--10--10--10--10--10--10--|


     PM PM PM PM PM PM PM    PM PM PM PM PM PM PM PM  
  E  E  E  E  E  E  E  E     E  E  E  E  E  E  E  E   
--------------------------|--------------------------|
--------------------------|--------------------------|
--------------------------|--------------------------|
--8-----------------------|--------------------------|
--8--8--8--8--8--8--8--8--|--8--8--8--8--7--7--7--7--|
--8--8--8--8--8--8--8--8--|--8--8--8--8--7--7--7--7--|


                                       Pick Scrape                            
  PM PM PM PM PM PM PM PM                                                     
  E  E  E  E  E  E  E  E     H         H             E  E  E  E  E  E  E  E   
--------------------------|-----------------------|--------------------------|
--------------------------|-----------------------|--6--6--6--6--6--6--6--6--|
--------------------------|--5--------------------|--7--7--7--7--7--7--7--7--|
--------------------------|--5--------10\---------|--x--x--x--x--x--x--x--x--|
--5--5--5--5--5--5--5--5--|--3--------10\---------|--5--5--5--5--5--5--5--5--|
--5--5--5--5--5--5--5--5--|-----------10\---------|--------------------------|


  E  E  E  E  E  E  E  E     E  E  E  E  E  E  E  E   
--------------------------|--------------------------|
--6--6--6--6--6--6--6--6--|--5--5--5--5--5--5--5--5--|
--7--7--7--7--7--7--7--7--|--7--7--7--7--7--7--7--7--|
--x--x--x--x--x--x--x--x--|--x--x--x--x--x--x--x--x--|
--5--5--5--5--5--5--5--5--|--5--5--5--5--5--5--5--5--|
--------------------------|--------------------------|


  E  E  E  E  E  E  E  E      E   E   E   E   E   E   E   E   
--------------------------|----------------------------------|
--------------------------|----------------------------------|
--5--5--5--5--9--9--9--9--|--10--10--10--10--10--10--10--10--|
--x--x--x--x--x--x--x--x--|---7---7---7---7---7---7---7---7--|
--3--3--3--3--7--7--7--7--|---8---8---8---8---8---8---8---8--|
--------------------------|----------------------------------|


   E   E   E   E   E   E   E   E     E  E  E  E  E  E  E  E   
----------------------------------|--------------------------|
----------------------------------|--------------------------|
--10--10--10--10--10--10--10--10--|--4--4--4--4--4--4--4--4--|
---7---7---7---7---7---7---7---7--|--5--5--5--5--5--5--5--5--|
---8---8---8---8---8---8---8---8--|--------------------------|
----------------------------------|--------------------------|


  E  E  E  E  Q    Q        S S S S S S S S S S S S S S S S  
-------------------------|----------------------------------|
-------------------------|----------------------------------|
--6--6--6--6--6----L\----|----------------------------------|
--7--7--7--7--7----L\----|----------------------------------|
-------------------------|--0-0-0-0-0-------0-0-0-0-0-------|
-------------------------|--0-0-0-0-0-------0-0-0-0-0-------|


  S S S S S S S S S S S S S S S S    S S S S S S S S S S S S S S S S  
----------------------------------|----------------------------------|
----------------------------------|----------------------------------|
----------------------------------|----------------------------------|
----------------------------------|----------------------------------|
--0-------0---0-------0-------0---|------0-0-0-0-0-0-0-------0-0-0---|
--0-------0---0-------0-------0---|------0-0-0-0-0-0-0-------0-0-0---|


  S S S S S S S S S S S S S S S S    S S S S S S S S S S S S S S S S  
----------------------------------|----------------------------------|
----------------------------------|----------------------------------|
----------------------------------|----------------------------------|
----------------------------------|----------------------------------|
--0-0-0---0---0-------0-------0---|--3-3-3-3-3-------3-3-3-3-3-------|
--0-0-0---0---0-------0-------0---|--3-3-3-3-3-------3-3-3-3-3-------|


  S S S S S S S S S S S S S S S S    S S S S S S S S S S S S S S S S  
----------------------------------|----------------------------------|
----------------------------------|----------------------------------|
----------------------------------|----------------------------------|
----------------------------------|----------------------------------|
--3-------3---3-------3-------3---|------5-5-5-5-5-5-5-------5-5-5-5-|
--3-------3---3-------3-------3---|------5-5-5-5-5-5-5-------5-5-5-5-|


  Q     Q     Q     Q       W                                     
-------------------------|-------------------|-------------------|
-------------------------|-------------------|-------------------|
-------------------------|-------------------|-------------------|
--7----10----12----12----|--0----------------|-------------------|
--7----10----12----12----|--0----------------|-------------------|
--7----10----12----12----|--0----------------|-------------------|


                      W                  
-------------------|-------------------||
-------------------|-------------------||
-------------------|-------------------||
-------------------|--L----------------||
-------------------|--L----------------||
-------------------|--L----------------||




Duration Legend
---------------
W - whole
H - half
Q - quarter
E - 8th
S - 16th
T - 32nd
X - 64th
. - note dotted
|-n-|  - n-tuplets


Tablature Legend
----------------
L - tied note
x - dead note
g - grace note
(n) - ghost note
> - accentuded note
NH - natural harmonic
AH - artificial harmonic
TH - tapped harmonic
SH - semi harmonic
PH - pitch harmonic
h - hammer on
p - pull off
b - bend
br - bendRelease
pb - preBend
pbr - preBendRelease
brb - bendReleaseBend
\n/ - tremolo bar dip
\n - tremolo bar dive
-/n - tremolo bar Release up
/n\ - tremolo bar inverted dip
/n - tremolo bar return
-\n - tremolo bar Release down
S - shift slide
s - legato slide
/ -  slide into from below or out of upwards
\ -  slide into from above or out of downwards
~ - vibrato
W - wide vibrato
tr - trill
TP - tremolo picking
T - tapping
S - slap
P - pop
< - fade in
^ - brush up
v - brush down
comments
We did not receive enough feedback on this tab! Please rate:
print report bad tab
1 2 3 4 5
I want to post or [tab]
guest
You may want to rate the tab now too:
select rating
Please do not post tabs as comments. Select "correction" instead!