Oops, an error
Loading. Please wait.

Barbarian Tab

ver2
ver2

Whole song

More versions @911Tabs.com
7,604 views 6 this week
6 commentsread comments
1 2 3 4 5
accurate
x 10
Autoscroll
+/-
esc
set tempo
stop
Contributor
Difficulty
Tuning
intermediate
C G C F A D
WARNING: You are trying to view
                                    content from Ultimate-Guitar.com
                                    in an unauthorized application,
                                    which is prohibited.

                                    Please use an official Ultimate
                                    Guitar Tabs application for iPhone,
                                    iPad or Android to access legitimate
                                    chords, guitar, bass, and drum tabs
                                    from Ultimate-Guitar.com database.

                                    Type "ultimate guitar tabs" in Apple
                                    App Store's or Android Market's
                                    search to find the application.
BARBARIAN - August Burns Red
Tabbed By: LPIndin
email: njrschultz@netzero.com 
Tuning: Drop C (CGCFAD)

The Tempo on this song is 360 beats per minute. pretty fast. 
I'm Positive that this tab is 100% correct. 
   Lead Guitar       Palm Mutes throughout this part on both guitars
D  :----------------|----------------|----------------|----------------|
A  :----------------|----------------|----------------|----------------|
F  :----------------|----------------|----------------|----------------|
C  :----------------|----------------|----------------|----------------|
G  :5-5-5-5-5-5-5-5-|5---*-------5-5-|5-5-5-5-5---*---|----5-5-5-5-5-5-|
C  :5-5-5-5-5-5-5-5-|5---*-------5-5-|5-5-5-5-5---*---|----5-5-5-5-5-5-|

   Rythym Guitar                                                        
D  :----------------|----------------|----------------|----------------|
A  :----------------|----------------|----------------|----------------|
F  :----------------|----------------|----------------|----------------|
C  :----------------|----------------|----------------|----------------|
G  :5-5-5-5-5-5-5-5-|5---*-------5-5-|5-5-5-5-5---*---|----5-5-5-5-5-5-|
C  :5-5-5-5-5-5-5-5-|5---*-------5-5-|5-5-5-5-5---*---|----5-5-5-5-5-5-|


============================================================================

                                         
D  :----------------|----------------|----------------|----------------|
A  :----------------|----------------|----------------|----------------|
F  :----------------|----------------|----------------|----------------|
C  :----------------|----------------|----------------|----------------|
G  :5---*---5-5-5-5-|5---*-----------|--------5-5-5-5-|5-5-5-5-5---*---|
C  :5---*---5-5-5-5-|5---*-----------|--------5-5-5-5-|5-5-5-5-5---*---|

                                                                       
D  :----------------|----------------|----------------|----------------|
A  :----------------|----------------|----------------|----------------|
F  :----------------|----------------|----------------|----------------|
C  :----------------|----------------|----------------|----------------|
G  :5---*---5-5-5-5-|5---*-----------|--------5-5-5-5-|5-5-5-5-5---*---|
C  :5---*---5-5-5-5-|5---*-----------|--------5-5-5-5-|5-5-5-5-5---*---|


============================================================================

                                                                       
D  :----------------|----------------|----------------|----------------|
A  :----------------|----------------|----------------|----------------|
F  :----------------|----------------|----------------|----------------|
C  :----------------|----------------|----------------|----------------|
G  :5-5-5-5-5-5-5-5-|5---*-------5-5-|5-5-5-5-5---*---|----5-5-5-5-5-5-|
C  :5-5-5-5-5-5-5-5-|5---*-------5-5-|5-5-5-5-5---*---|----5-5-5-5-5-5-|

                                                                       
D  :----------------|----------------|----------------|----------------|
A  :----------------|----------------|----------------|----------------|
F  :----------------|----------------|----------------|----------------|
C  :----------------|----------------|----------------|----------------|
G  :5-5-5-5-5-5-5-5-|5---*-------5-5-|5-5-5-5-5---*---|----5-5-5-5-5-5-|
C  :5-5-5-5-5-5-5-5-|5---*-------5-5-|5-5-5-5-5---*---|----5-5-5-5-5-5-|


============================================================================

                                                                       
D  :----------------|----------------|----------------|----------------|
A  :----------------|----------------|----------------|----------------|
F  :----------------|----------------|----------------|----------------|
C  :----------------|----------------|----------------|----------------|
G  :5---*---5-5-5-5-|5---*-----------|5-5-5-5-5-5-5-5-|5---*-----------|
C  :5---*---5-5-5-5-|5---*-----------|5-5-5-5-5-5-5-5-|5---*-----------|

                                                                       
D  :----------------|----------------|----------------|----------------|
A  :----------------|----------------|----------------|----------------|
F  :----------------|----------------|----------------|----------------|
C  :----------------|----------------|----------------|----------------|
G  :5---*---5-5-5-5-|5---*-----------|5-5-5-5-5-5-5-5-|5---*-----------|
C  :5---*---5-5-5-5-|5---*-----------|5-5-5-5-5-5-5-5-|5---*-----------|

============================================================================

                                                                           
D  :----------------|----------------|--------------------|----------------|
A  :----------------|----------------|--------------------|----------------|
F  :----------------|----------------|--------------------|7-7-7-7---------|
C  :5-5-5-5-7-7-7-7-|8-8-8-8---------|10-10-10-10-8-8-8-8-|--------5-5-5-5-|
G  :----------------|--------8-8-8-8-|--------------------|----------------|
C  :----------------|----------------|--------------------|----------------|

                                                                           
D  :----------------|----------------|--------------------|----------------|
A  :----------------|----------------|--------------------|----------------|
F  :----------------|----------------|--------------------|----------------|
C  :----------------|----------------|--------------------|----------------|
G  :5-5-5-5-5-5-5-5-|5---*-------5-5-|-5--5--5--5-5---*---|----5-5-5-5-5-5-|
C  :5-5-5-5-5-5-5-5-|5---*-------5-5-|-5--5--5--5-5---*---|----5-5-5-5-5-5-|

============================================================================

                                                                       
D  :----------------|----------------|----------------|----------------|
A  :----------------|----------------|----------------|----------------|
F  :8-8-8-8-7-7-7-7-|----------------|7-7-7-7-5-5-5-5-|3-3-3-3---------|
C  :----------------|8-8-8-8-5-5-5-5-|----------------|--------4-4-4-4-|
G  :----------------|----------------|----------------|----------------|
C  :----------------|----------------|----------------|----------------|

                                                                       
D  :----------------|----------------|----------------|----------------|
A  :----------------|----------------|----------------|----------------|
F  :----------------|----------------|----------------|----------------|
C  :----------------|----------------|----------------|----------------|
G  :5---*---5-5-5-5-|5---*-----------|--------5-5-5-5-|5-5-5-5-5---*---|
C  :5---*---5-5-5-5-|5---*-----------|--------5-5-5-5-|5-5-5-5-5---*---|

============================================================================

                                                                           
D  :----------------|----------------|--------------------|----------------|
A  :----------------|----------------|--------------------|----------------|
F  :----------------|----------------|--------------------|7-7-7-7---------|
C  :5-5-5-5-7-7-7-7-|8-8-8-8---------|10-10-10-10-8-8-8-8-|--------5-5-5-5-|
G  :----------------|--------8-8-8-8-|--------------------|----------------|
C  :----------------|----------------|--------------------|----------------|

                                                                           
D  :----------------|----------------|--------------------|----------------|
A  :----------------|----------------|--------------------|----------------|
F  :----------------|----------------|--------------------|----------------|
C  :----------------|----------------|--------------------|----------------|
G  :5-5-5-5-5-5-5-5-|5---*-------5-5-|-5--5--5--5-5---*---|----5-5-5-5-5-5-|
C  :5-5-5-5-5-5-5-5-|5---*-------5-5-|-5--5--5--5-5---*---|----5-5-5-5-5-5-|

============================================================================

                                                                       
D  :----------------|----------------|----------------|----------------|
A  :----------------|----------------|----------------|----------------|
F  :8-8-8-8-7-7-7-7-|----------------|7-7-7-7-5-5-5-5-|3-3-3-3---------|
C  :----------------|8-8-8-8-5-5-5-5-|----------------|--------4-4-4-4-|
G  :----------------|----------------|----------------|----------------|
C  :----------------|----------------|----------------|----------------|
                                                                       
D  :----------------|----------------|----------------|----------------|
A  :----------------|----------------|----------------|----------------|
F  :----------------|----------------|----------------|----------------|
C  :----------------|----------------|----------------|----------------|
G  :5---*---5-5-5-5-|5---*-----------|5-5-5-5-5-5-5-5-|5---*-----------|
C  :5---*---5-5-5-5-|5---*-----------|5-5-5-5-5-5-5-5-|5---*-----------|


============================================================================
                                                                   
D  :----------------|-----------------|----------------|----------------|
A  :----------------|-----------------|----------------|----------------|
F  :----------------|---------7-------|8---7-----------|7---5---3-------|
C  :5---7---8-------|10---8-------5---|--------8---5---|------------4---|
G  :------------8---|-----------------|----------------|----------------|
C  :----------------|-----------------|----------------|----------------|

                                                                        
D  :----------------|-----------------|----------------|----------------|
A  :----------------|-----------------|----------------|----------------|
F  :----------------|---------7-------|8---7-----------|7---5---3-------|
C  :5---7---8-------|10---8-------5---|--------8---5---|------------4---|
G  :------------8---|-----------------|----------------|----------------|
C  :----------------|-----------------|----------------|----------------|

============================================================================

                                                                        
D  :----------------|-----------------|----------------|----------------|
A  :----------------|-----------------|----------------|----------------|
F  :----------------|---------7-------|8---7-----------|7---5---3-------|
C  :5---7---8-------|10---8-------5---|--------8---5---|------------4---|
G  :------------8---|-----------------|----------------|----------------|
C  :----------------|-----------------|----------------|----------------|

                                                                        
D  :----------------|-----------------|----------------|----------------|
A  :----------------|-----------------|----------------|----------------|
F  :----------------|---------7-------|8---7-----------|7---5---3-------|
C  :5---7---8-------|10---8-------5---|--------8---5---|------------4---|
G  :------------8---|-----------------|----------------|----------------|
C  :----------------|-----------------|----------------|----------------|

============================================================================

                                                                
D  :--------------------|11---10-------------|------------------|
A  :11---13---15---11---|----------13---11---|8---10---11---8---|
F  :--------------------|--------------------|------------------|
C  :--------------------|--------------------|------------------|
G  :--------------------|--------------------|------------------|
C  :--------------------|--------------------|------------------|

                                                                
D  :--------------------|--------------------|------------------|
A  :--------------------|--------------------|------------------|
F  :--------------------|-----------7--------|8----7------------|
C  :-5----7----8--------|10----8---------5---|----------8---5---|
G  :----------------8---|--------------------|------------------|
C  :--------------------|--------------------|------------------|


============================================================================

                                                                
D  :------------------|--------------------|11---10-------------|
A  :------------------|11---13---15---11---|----------13---11---|
F  :10---8---7---11---|--------------------|--------------------|
C  :------------------|--------------------|--------------------|
G  :------------------|--------------------|--------------------|
C  :------------------|--------------------|--------------------|

                                                                
D  :------------------|--------------------|--------------------|
A  :------------------|--------------------|--------------------|
F  :-7---5---3--------|--------------------|-----------7--------|
C  :--------------4---|-5----7----8--------|10----8---------5---|
G  :------------------|----------------8---|--------------------|
C  :------------------|--------------------|--------------------|

============================================================================

                                        
D  :------------------|-----------------|
A  :8---10---11---8---|-----------------|
F  :------------------|10---8---7-------|
C  :------------------|-----------------|
G  :------------------|-----------------|
C  :------------------|-------------5---|

                                        
D  :------------------|-----------------|
A  :------------------|-----------------|
F  :8----7------------|-7---5---3-------|
C  :----------8---5---|-------------4---|
G  :------------------|-----------------|
C  :------------------|-----------------|


============================================================================

                                                                       
D  :----------------|----------------|----------------|----------------|
A  :----------------|----------------|----------------|----------------|
F  :----------------|----------------|----------------|----------------|
C  :5-------7-------|8-------7-------|4-------5-------|7-------5-------|
G  :----------------|----------------|----------------|----------------|
C  :----5-------5---|----5-------0---|----0-------0---|----0-------0---|

                                                                       
D  :----------------|----------------|----------------|----------------|
A  :----------------|----------------|----------------|----------------|
F  :----------------|----------------|----------------|----------------|
C  :5-------7-------|8-------7-------|4-------5-------|7-------5-------|
G  :----------------|----------------|----------------|----------------|
C  :----5-------5---|----5-------0---|----0-------0---|----0-------0---|

============================================================================

                                                                       
D  :----------------|----------------|----------------|----------------|
A  :----------------|----------------|----------------|----------------|
F  :----------------|----------------|----------------|----------------|
C  :1-------3-------|5-------1-------|3-------5-------|7-------3-------|
G  :----------------|----------------|----------------|----------------|
C  :----1-------1---|----1-------1---|----3-------3---|----3-------3---|

                                                                       
D  :----------------|----------------|----------------|----------------|
A  :----------------|----------------|----------------|----------------|
F  :----------------|----------------|----------------|----------------|
C  :1-------3-------|5-------1-------|3-------5-------|7-------3-------|
G  :----------------|----------------|----------------|----------------|
C  :----1-------1---|----1-------1---|----3-------3---|----3-------3---|


============================================================================

                                                                       
D  :----------------|----------------|----------------|----------------|
A  :----------------|----------------|----------------|----------------|
F  :----------------|----------------|----------------|----------------|
C  :5-------7-------|8-------7-------|4-------5-------|7-------5-------|
G  :----------------|----------------|----------------|----------------|
C  :----5-------5---|----5-------0---|----0-------0---|----0-------0---|

                                                                       
D  :----------------|----------------|----------------|----------------|
A  :----------------|----------------|----------------|----------------|
F  :----------------|----------------|----------------|----------------|
C  :5-------7-------|8-------7-------|4-------5-------|7-------5-------|
G  :----------------|----------------|----------------|----------------|
C  :----5-------5---|----5-------0---|----0-------0---|----0-------0---|

============================================================================

                                                                       
D  :----------------|----------------|----------------|----------------|
A  :----------------|----------------|----------------|----------------|
F  :----------------|----------------|----------------|----------------|
C  :1-------3-------|5-------1-------|3-------5-------|7-------3-------|
G  :----------------|----------------|----------------|----------------|
C  :----1-------1---|----1-------1---|----3-------3---|----3-------3---|

                                                                       
D  :----------------|----------------|----------------|----------------|
A  :----------------|----------------|----------------|----------------|
F  :----------------|----------------|----------------|----------------|
C  :1-------3-------|5-------1-------|3-------5-------|7-------3-------|
G  :----------------|----------------|----------------|----------------|
C  :----1-------1---|----1-------1---|----3-------3---|----3-------3---|

============================================================================

                                                                       
D  :----------------|----------------|----------------|----------------|
A  :----------------|----------------|----------------|----------------|
F  :----------------|----------------|----------------|----------------|
C  :5-------7-------|8-------7-------|4-------5-------|7-------5-------|
G  :----------------|----------------|----------------|----------------|
C  :----5-------5---|----5-------0---|----0-------0---|----0-------0---|

                                                                       
D  :----------------|----------------|----------------|----------------|
A  :----------------|----------------|----------------|----------------|
F  :----------------|----------------|----------------|----------------|
C  :5-------7-------|8-------7-------|4-------5-------|7-------5-------|
G  :----------------|----------------|----------------|----------------|
C  :----5-------5---|----5-------0---|----0-------0---|----0-------0---|


============================================================================

                                                                       
D  :----------------|----------------|----------------|----------------|
A  :----------------|----------------|----------------|----------------|
F  :0-------2-------|3-------0-------|3-------5-------|7-------3-------|
C  :----------------|----------------|----------------|----------------|
G  :----1-------1---|----1-------1---|----3-------3---|----3-------3---|
C  :----------------|----------------|----------------|----------------|

                                                                       
D  :----------------|----------------|----------------|----------------|
A  :----------------|----------------|----------------|----------------|
F  :----------------|----------------|----------------|----------------|
C  :1-------3-------|5-------1-------|3-------5-------|7-------3-------|
G  :----------------|----------------|----------------|----------------|
C  :----1-------1---|----1-------1---|----3-------3---|----3-------3---|


============================================================================

                                                                       
D  :----------------|----------------|----------------|----------------|
A  :----------------|----------------|----------------|----------------|
F  :----------------|----------------|----------------|----------------|
C  :5-------7-------|8-------7-------|4-------5-------|7-------5-------|
G  :----------------|----------------|----------------|----------------|
C  :----5-------5---|----5-------0---|----0-------0---|----0-------0---|

                                                                       
D  :----------------|----------------|----------------|----------------|
A  :----------------|----------------|----------------|----------------|
F  :----------------|----------------|----------------|----------------|
C  :5-------7-------|8-------7-------|4-------5-------|7-------5-------|
G  :----------------|----------------|----------------|----------------|
C  :----5-------5---|----5-------0---|----0-------0---|----0-------0---|



============================================================================

                                                                       
D  :----------------|----------------|----------------|----------------|
A  :----------------|----------------|----------------|----------------|
F  :0-------2-------|3-------0-------|3-------5-------|7-------3-------|
C  :----------------|----------------|----------------|----------------|
G  :----1-------1---|----1-------1---|----3-------3---|----3-------3---|
C  :----------------|----------------|----------------|----------------|

                                                                       
D  :----------------|----------------|----------------|----------------|
A  :----------------|----------------|----------------|----------------|
F  :----------------|----------------|----------------|----------------|
C  :1-------3-------|5-------1-------|3-------5-------|7-------3-------|
G  :----------------|----------------|----------------|----------------|
C  :----1-------1---|----1-------1---|----3-------3---|----3-------3---|


============================================================================

                                                                         
D  :----------------|-----------------|----------------|-----------------|
A  :----------------|-----------------|----------------|-----------------|
F  :----------------|-----------------|----------------|-----------------|
C  :----------------|-----------------|----------------|-----------------|
G  :5-----0-5----0--|----/4-----4----4|----*---5---0-5-|--0-----/4---4---|
C  :5-----0-5----0--|----/4-----4----4|--------5---0-5-|--0-----/4---4---|

                                                                         
D  :----------------|-----------------|----------------|-----------------|
A  :----------------|-----------------|----------------|-----------------|
F  :----------------|-----------------|----------------|-----------------|
C  :----------------|-----------------|----------------|-----------------|
G  :5-----0-5----0--|----/4-----4----4|----*---5---0-5-|--0-----/4---4---|
C  :5-----0-5----0--|----/4-----4----4|--------5---0-5-|--0-----/4---4---|



============================================================================

                                                          
D  :-------------------|-----------------|----------------|
A  :-------------------|-----------------|----------------|
F  :-------------------|------------/7---|5---------------|
C  :--------7h-8-p7----|-----------------|----7-----------|
G  :4---0------------9-|----0---5--------|--------5---0-5-|
C  :4---0--------------|-----------------|--------5---0-5-|

                                                          
D  :-------------------|-----------------|----------------|
A  :-------------------|-----------------|----------------|
F  :-------------------|------------/7---|5---------------|
C  :--------7h-8-p7----|-----------------|----7-----------|
G  :4---0------------9-|----0---5--------|--------5---0-5-|
C  :4---0--------------|-----------------|--------5---0-5-|



============================================================================

                                                        
D  :-----------------|----------------|-----------------|
A  :-----------------|----------------|-----------------|
F  :-----------------|----------------|-----------------|
C  :-----------------|----------------|-----------------|
G  :--0-----/4---4---|4---0---5---0-5-|--0-----/4---4---|
C  :--0-----/4---4---|4---0---5---0-5-|--0-----/4---4---|

                                                        
D  :-----------------|----------------|-----------------|
A  :-----------------|----------------|-----------------|
F  :-----------------|----------------|-----------------|
C  :-----------------|----------------|-----------------|
G  :--0-----/4---4---|4---0---5---0-5-|--0-----/4---4---|
C  :--0-----/4---4---|4---0---5---0-5-|--0-----/4---4---|


============================================================================

                                                          
D  :-------------------|-----------------|----------------|
A  :-------------------|-----------------|----------------|
F  :-------------------|------------/7---|5---------------|
C  :--------7h-8-p7----|-----------------|----7-----------|
G  :4---0------------9-|----0---5--------|--------5---0-5-|
C  :4---0--------------|-----------------|--------5---0-5-|

                                                          
D  :-------------------|-----------------|----------------|
A  :-------------------|-----------------|----------------|
F  :-------------------|------------/7---|5---------------|
C  :--------7h-8-p7----|-----------------|----7-----------|
G  :4---0------------9-|----0---5--------|--------5---0-5-|
C  :4---0--------------|-----------------|--------5---0-5-|


============================================================================

                                                        
D  :-----------------|----------------|-----------------|
A  :-----------------|----------------|-----------------|
F  :-----------------|----------------|-----------------|
C  :-----------------|----------------|-----------------|
G  :--0-----/4---4---|4---0---5---0-5-|--0-----/4---4---|
C  :--0-----/4---4---|4---0---5---0-5-|--0-----/4---4---|

                                                        
D  :-----------------|----------------|-----------------|
A  :-----------------|----------------|-----------------|
F  :-----------------|----------------|-----------------|
C  :-----------------|----------------|-----------------|
G  :--0-----/4---4---|4---0---5---0-5-|--0-----/4---4---|
C  :--0-----/4---4---|4---0---5---0-5-|--0-----/4---4---|


============================================================================

                                                          
D  :-------------------|-----------------|----------------|
A  :-------------------|-----------------|----------------|
F  :-------------------|------------/7---|5---------------|
C  :--------7h-8-p7----|-----------------|----7-----------|
G  :4---0------------9-|----0---5--------|--------5---0-5-|
C  :4---0--------------|-----------------|--------5---0-5-|

                                                          
D  :-------------------|-----------------|----------------|
A  :-------------------|-----------------|----------------|
F  :-------------------|------------/7---|5---------------|
C  :--------7h-8-p7----|-----------------|----7-----------|
G  :4---0------------9-|----0---5--------|--------5---0-5-|
C  :4---0--------------|-----------------|--------5---0-5-|


============================================================================

                              
D  :-----------------|--------|
A  :-----------------|--------|
F  :-----------------|--------|
C  :-----------------|--------|
G  :--0-----/4---4---|4---0---|
C  :--0-----/4---4---|4---0---|

                              
D  :-----------------|--------|
A  :-----------------|--------|
F  :-----------------|--------|
C  :-----------------|--------|
G  :--0-----/4---4---|4---0---|
C  :--0-----/4---4---|4---0---|


============================================================================

                                                               
D  :--------|----------------|----------------|----------------|
A  :--------|----------------|----------------|----------------|
F  :7---7---|7---7---7---7---|7---3---3-------|----------------|
C  :5---5---|5---5---5---5---|5---1---1-------|----------------|
G  :5---5---|5---5---5---5---|5---1---1-------|----------------|
C  :5---5---|5---5---5---5---|5---1---1-------|----------------|

                                                               
D  :--------|----------------|----------------|----------------|
A  :--------|----------------|----------------|----------------|
F  :--------|----------------|----3---3-------|----------------|
C  :--------|----------------|----1---1-------|----------------|
G  :5-------|----------------|----1---1-------|----------------|
C  :5-------|----------------|----1---1-------|----------------|


============================================================================

                                                                         
D  :-----------------|----------------|-----------------|----------------|
A  :-----------------|----------------|-----------------|----------------|
F  :3-/--5---5-------|----------------|5-/--7---7---7---|7---7---7---7---|
C  :1-/--3---3-------|----------------|3-/--5---5---5---|5---5---5---5---|
G  :1-/--3---3-------|----------------|3-/--5---5---5---|5---5---5---5---|
C  :1-/--3---3-------|----------------|3-/--5---5---5---|5---5---5---5---|

                                                                         
D  :-----------------|----------------|-----------------|----------------|
A  :-----------------|----------------|-----------------|----------------|
F  :3-/--5---5-------|----------------|5-/--7---7---7---|7---7---7---7---|
C  :1-/--3---3-------|----------------|3-/--5---5---5---|5---5---5---5---|
G  :1-/--3---3-------|----------------|3-/--5---5---5---|5---5---5---5---|
C  :1-/--3---3-------|----------------|3-/--5---5---5---|5---5---5---5---|

============================================================================

                                                                         
D  :----------------|----------------|-----------------|-----------------|
A  :----------------|----------------|-----------------|-----------------|
F  :----------------|--------7---8---|5---7---10---8---|----12-----------|
C  :--------5---7---|8---5-----------|-----------------|-----------------|
G  :----------------|----------------|-----------------|-----------------|
C  :----------------|----------------|-----------------|-----------------|

                                                                         
D  :----------------|----------------|-----------------|-----------------|
A  :----------------|----------------|-----------------|-----------------|
F  :7---7---7---7---|7---7---7---7---|7---7----3---3---|3----3---3---3---|
C  :5---5---5---5---|5---5---5---5---|5---5----1---1---|1----1---1---1---|
G  :5---5---5---5---|5---5---5---5---|5---5----1---1---|1----1---1---1---|
C  :5---5---5---5---|5---5---5---5---|5---5----1---1---|1----1---1---1---|


============================================================================

                                                             
D  :------------------|------------------|11---10------------|
A  :--------11---10---|---------10---8---|----------8---10---|
F  :------------------|10---8------------|-------------------|
C  :------------------|------------------|-------------------|
G  :------------------|------------------|-------------------|
C  :------------------|------------------|-------------------|
                                                             
D  :------------------|------------------|-------------------|
A  :------------------|------------------|-------------------|
F  :3---3----5----5---|-5---5----5---5---|-5----5---7----7---|
C  :1---1----3----3---|-3---3----3---3---|-3----3---5----5---|
G  :1---1----3----3---|-3---3----3---3---|-3----3---5----5---|
C  :1---1----3----3---|-3---3----3---3---|-3----3---5----5---|


============================================================================

                                                                           
D  :------------------|-----------------|----------------|-----------------|
A  :11---8------------|----10-----------|----------------|-----------------|
F  :---------10---8---|7----------------|--------7---8---|5---7---10---8---|
C  :------------------|---------5---7---|8---5-----------|-----------------|
G  :------------------|-----------------|----------------|-----------------|
C  :------------------|-----------------|----------------|-----------------|

                                                                           
D  :------------------|-----------------|----------------|-----------------|
A  :------------------|-----------------|----------------|-----------------|
F  :-7---7----7---7---|7----7---7---7---|7---7---7---7---|7---7----3---3---|
C  :-5---5----5---5---|5----5---5---5---|5---5---5---5---|5---5----1---1---|
G  :-5---5----5---5---|5----5---5---5---|5---5---5---5---|5---5----1---1---|
C  :-5---5----5---5---|5----5---5---5---|5---5---5---5---|5---5----1---1---|


============================================================================

                                                           
D  :-----------------|------------------|------------------|
A  :-----------------|--------11---10---|---------10---8---|
F  :----12-----------|------------------|10---8------------|
C  :-----------------|------------------|------------------|
G  :-----------------|------------------|------------------|
C  :-----------------|------------------|------------------|
                                                           
D  :-----------------|------------------|------------------|
A  :-----------------|------------------|------------------|
F  :3----3---3---3---|3---3----5----5---|-5---5----5---5---|
C  :1----1---1---1---|1---1----3----3---|-3---3----3---3---|
G  :1----1---1---1---|1---1----3----3---|-3---3----3---3---|
C  :1----1---1---1---|1---1----3----3---|-3---3----3---3---|

============================================================================

                                                     
D  :11---10------------|---------10---8---|10---11---|
A  :----------8---10---|11---8------------|----------|
F  :-------------------|------------------|----------|
C  :-------------------|------------------|----------|
G  :-------------------|------------------|----------|
C  :-------------------|------------------|----------|

                                                     
D  :-------------------|------------------|----------|
A  :-------------------|------------------|----------|
F  :-5----5---7----7---|-7---7----7---7---|-7----7---|
C  :-3----3---5----5---|-5---5----5---5---|-5----5---|
G  :-3----3---5----5---|-5---5----5---5---|-5----5---|
C  :-3----3---5----5---|-5---5----5---5---|-5----5---|


============================================================================

                                                               
D  :--------|----------------|----------------|----------------|
A  :--------|----------------|----------------|----------------|
F  :--------|----------------|----------------|----------------|
C  :--------|----------------|----------------|----------------|
G  :5-5-5-5-|5---*-------5-5-|--5-5---4---5---|5---0---1---3---|
C  :5-5-5-5-|5-----------5-5-|--5-5---4---5---|5---0---1---3---|

                                                               
D  :--------|----------------|----------------|----------------|
A  :--------|----------------|----------------|----------------|
F  :--------|----------------|----------------|----------------|
C  :--------|----------------|----------------|----------------|
G  :5-5-5-5-|5---*-------5-5-|--5-5---4---5---|5---0---1---3---|
C  :5-5-5-5-|5-----------5-5-|--5-5---4---5---|5---0---1---3---|


============================================================================

                                                                       
D  :----------------|----------------|----------------|----------------|
A  :----------------|----------------|----------------|----------------|
F  :----------------|----------------|----------------|----------------|
C  :----------------|----------------|----------------|----------------|
G  :3---0---5-5-5-5-|5---*-------5-5-|--5-5---4---5---|5---0---1---3---|
C  :3---0---5-5-5-5-|5-----------5-5-|--5-5---4---5---|5---0---1---3---|

                                                                       
D  :----------------|----------------|----------------|----------------|
A  :----------------|----------------|----------------|----------------|
F  :----------------|----------------|----------------|----------------|
C  :----------------|----------------|----------------|----------------|
G  :3---0---5-5-5-5-|5---*-------5-5-|--5-5---4---5---|5---0---1---3---|
C  :3---0---5-5-5-5-|5-----------5-5-|--5-5---4---5---|5---0---1---3---|


============================================================================

                                                                       
D  :----------------|----------------|----------------|----------------|
A  :----------------|----------------|----------------|----------------|
F  :----------------|----------------|----------------|----------------|
C  :----------------|----------------|----------------|----------------|
G  :3---8---5-5-5-5-|5---*-------5-5-|--5-5---4---5---|5---0---1---3---|
C  :3---8---5-5-5-5-|5-----------5-5-|--5-5---4---5---|5---0---1---3---|

                                                                       
D  :----------------|----------------|----------------|----------------|
A  :----------------|----------------|----------------|----------------|
F  :----------------|----------------|----------------|----------------|
C  :----------------|----------------|----------------|----------------|
G  :3---8---5-5-5-5-|5---*-------5-5-|--5-5---4---5---|5---0---1---3---|
C  :3---8---5-5-5-5-|5-----------5-5-|--5-5---4---5---|5---0---1---3---|

============================================================================

                                                                       
D  :----------------|----------------|----------------|----------------|
A  :----------------|----------------|----------------|----------------|
F  :----------------|----------------|----------------|----------------|
C  :----------------|----------------|----------------|------------4---|
G  :3---0---5-5-5-5-|5---*-------5-5-|--5-5---4---5---|0---0---5-------|
C  :3---0---5-5-5-5-|5-----------5-5-|--5-5---4---5---|0---0-----------|

                                                                       
D  :----------------|----------------|----------------|----------------|
A  :----------------|----------------|----------------|----------------|
F  :----------------|----------------|----------------|----------------|
C  :----------------|----------------|----------------|------------4---|
G  :3---0---5-5-5-5-|5---*-------5-5-|--5-5---4---5---|0---0---5-------|
C  :3---0---5-5-5-5-|5-----------5-5-|--5-5---4---5---|0---0-----------|

============================================================================

                                                                         
D  :----------------|----------------|-----------------|-----------------|
A  :----------------|----------------|-----------------|-----------------|
F  :2---5-----------|----------------|-----------------|-----------------|
C  :----------------|----------------|-----------------|-----------------|
G  :--------5-5-5-5-|5---*-------5-5-|--5-5---4-h--5---|5---0---1-h--3---|
C  :--------5-5-5-5-|5-----------5-5-|--5-5---4-h--5---|5---0---1-h--3---|

                                                                         
D  :----------------|----------------|-----------------|-----------------|
A  :----------------|----------------|-----------------|-----------------|
F  :2---5-----------|----------------|-----------------|-----------------|
C  :----------------|----------------|-----------------|-----------------|
G  :--------5-5-5-5-|5---*-------5-5-|--5-5---4-h--5---|5---0---1-h--3---|
C  :--------5-5-5-5-|5-----------5-5-|--5-5---4-h--5---|5---0---1-h--3---|



============================================================================

                                                                         
D  :----------------|----------------|-----------------|-----------------|
A  :----------------|----------------|-----------------|-----------------|
F  :----------------|----------------|-----------------|-----------------|
C  :----------------|----------------|-----------------|-----------------|
G  :3---0---5-5-5-5-|5---*-------5-5-|--5-5---4-h--5---|5---0---1-h--3---|
C  :3---0---5-5-5-5-|5-----------5-5-|--5-5---4-h--5---|5---0---1-h--3---|

                                                                         
D  :----------------|----------------|-----------------|-----------------|
A  :----------------|----------------|-----------------|-----------------|
F  :----------------|----------------|-----------------|-----------------|
C  :----------------|----------------|-----------------|-----------------|
G  :3---0---5-5-5-5-|5---*-------5-5-|--5-5---4-h--5---|5---0---1-h--3---|
C  :3---0---5-5-5-5-|5-----------5-5-|--5-5---4-h--5---|5---0---1-h--3---|


============================================================================

                                                                          
D  :-----------------|----------------|-----------------|-----------------|
A  :-----------------|----------------|-----------------|-----------------|
F  :-----------------|----------------|-----------------|-----------------|
C  :-----------------|----------------|-----------------|-----------------|
G  :3-/--8---5-5-5-5-|5---*-------5-5-|--5-5---4-h--5---|5---0---1-h--3---|
C  :3-/--8---5-5-5-5-|5-----------5-5-|--5-5---4-h--5---|5---0---1-h--3---|

                                                                          
D  :-----------------|----------------|-----------------|-----------------|
A  :-----------------|----------------|-----------------|-----------------|
F  :-----------------|----------------|-----------------|-----------------|
C  :-----------------|----------------|-----------------|-----------------|
G  :3-/--8---5-5-5-5-|5---*-------5-5-|--5-5---4-h--5---|5---0---1-h--3---|
C  :3-/--8---5-5-5-5-|5-----------5-5-|--5-5---4-h--5---|5---0---1-h--3---|


============================================================================

                                                                        
D  :----------------|----------------|-----------------|----------------|
A  :----------------|----------------|-----------------|----------------|
F  :----------------|----------------|-----------------|----------------|
C  :----------------|----------------|-----------------|------------4---|
G  :3---0---5-5-5-5-|5---*-------5-5-|--5-5---4-h--5---|0---0---5-------|
C  :3---0---5-5-5-5-|5-----------5-5-|--5-5---4-h--5---|0---0-----------|

                                                                        
D  :----------------|----------------|-----------------|----------------|
A  :----------------|----------------|-----------------|----------------|
F  :----------------|----------------|-----------------|----------------|
C  :----------------|----------------|-----------------|------------4---|
G  :3---0---5-5-5-5-|5---*-------5-5-|--5-5---4-h--5---|0---0---5-------|
C  :3---0---5-5-5-5-|5-----------5-5-|--5-5---4-h--5---|0---0-----------|


============================================================================

                               
D  :----------------|-----10---|
A  :------------7---|10--------|
F  :2---5---8-------|----------|
C  :----------------|----------|
G  :----------------|----------|
C  :----------------|----------|

                               
D  :----------------|-----10---|
A  :------------7---|10--------|
F  :2---5---8-------|----------|
C  :----------------|----------|
G  :----------------|----------|
C  :----------------|----------|


============================================================================

                                                                   
D  :--------|-----------------|------------------|-----------------|
A  :--------|-----------------|------------------|-----------------|
F  :--------|-----------------|------------------|-----------------|
C  :--------|8-------7-h--8---|----5-------10-p--|8-------7-h--8---|
G  :--------|-----------------|------------------|-----------------|
C  :5---5---|----5------------|5-------5---------|----5------------|

                                                                   
D  :--------|-----------------|------------------|-----------------|
A  :--------|-----------------|------------------|-----------------|
F  :--------|-----------------|------------------|-----------------|
C  :--------|8-------7-h--8---|----5-------10-p--|8-------7-h--8---|
G  :--------|-----------------|------------------|-----------------|
C  :5---5---|----5------------|5-------5---------|----5------------|

============================================================================

                                                            
D  :----------------|--------------------|--------8-p6-p5---|
A  :----------------|--------------------|------------------|
F  :----------------|7-------8-p7-p5-----|------------------|
C  :5---------------|-----------------8--|7-----------------|
G  :----------------|--------------------|------------------|
C  :--------5---5---|----5---------------|------------------|

                                                            
D  :----------------|--------------------|--------8-p6-p5---|
A  :----------------|--------------------|------------------|
F  :----------------|7-------8-p7-p5-----|------------------|
C  :5---------------|-----------------8--|7-----------------|
G  :----------------|--------------------|------------------|
C  :--------5---5---|----5---------------|------------------|


============================================================================

                                                                        
D  :----------------|----------------|----------------|-----------------|
A  :8---------------|8---6-----------|----------------|-----------------|
F  :----7---8---5---|----------------|3---------------|3-----------2-h--|
C  :----------------|----------------|0---------------|0-----------0----|
G  :----------------|--------0---0---|----0-0-----0---|----0---0--------|
C  :----------------|--------0---0---|----0-0-----0---|----0---0--------|

                                                                        
D  :----------------|----------------|----------------|-----------------|
A  :8---------------|8---6-----------|----------------|-----------------|
F  :----7---8---5---|----------------|3---------------|3-----------2-h--|
C  :----------------|----------------|0---------------|0-----------0----|
G  :----------------|--------0---0---|----0-0-----0---|----0---0--------|
C  :----------------|--------0---0---|----0-0-----0---|----0---0--------|


============================================================================

                                                                       
D  :----------------|----------------|----------------|----------------|
A  :----------------|----------------|----------------|----------------|
F  :3-------3-------|3---------------|----------------|----------------|
C  :0-------0-------|0---------------|3-3-3-3-5-5-5-5-|----------------|
G  :----0-------0---|----0---6-6-6-6-|----------------|6-6-6-6-8-8-8-8-|
C  :----0-------0---|----0-----------|----------------|----------------|

                                                                       
D  :----------------|----------------|----------------|----------------|
A  :----------------|----------------|----------------|----------------|
F  :3-------3-------|3---------------|----------------|----------------|
C  :0-------0-------|0---------------|3-3-3-3-5-5-5-5-|----------------|
G  :----0-------0---|----0---6-6-6-6-|----------------|6-6-6-6-8-8-8-8-|
C  :----0-------0---|----0-----------|----------------|----------------|


============================================================================

                                                                          
D  :----------------|----------------|-----------------|------------------|
A  :----------------|----------------|-----------------|------------------|
F  :----------------|----------------|-----------------|------------------|
C  :5-5-5-5-7-7-7-7-|----------------|8-------7-h--8---|----5-------10-p--|
G  :----------------|8-8-8-8---------|-----------------|------------------|
C  :----------------|--------5---5---|----5------------|5-------5---------|

                                                                          
D  :----------------|----------------|-----------------|------------------|
A  :----------------|----------------|-----------------|------------------|
F  :----------------|----------------|-----------------|------------------|
C  :5-5-5-5-7-7-7-7-|----------------|8-------7-h--8---|----5-------10-p--|
G  :----------------|8-8-8-8---------|-----------------|------------------|
C  :----------------|--------5---5---|----5------------|5-------5---------|


============================================================================

                                                           
D  :-----------------|----------------|--------------------|
A  :-----------------|----------------|--------------------|
F  :-----------------|----------------|7-------8-p7-p5-----|
C  :8-------7-h--8---|5---------------|-----------------8--|
G  :-----------------|----------------|--------------------|
C  :----5------------|--------5---5---|----5---------------|

                                                           
D  :-----------------|----------------|--------------------|
A  :-----------------|----------------|--------------------|
F  :-----------------|----------------|7-------8-p7-p5-----|
C  :8-------7-h--8---|5---------------|-----------------8--|
G  :-----------------|----------------|--------------------|
C  :----5------------|--------5---5---|----5---------------|


============================================================================

                                                                         
D  :--------8-p6-p5---|----------------|----------------|----------------|
A  :------------------|8---------------|8---6-----------|----------------|
F  :------------------|----7---8---5---|----------------|3---------------|
C  :7-----------------|----------------|----------------|0---------------|
G  :------------------|----------------|--------0---0---|----0-0-----0---|
C  :------------------|----------------|--------0---0---|----0-0-----0---|

                                                                         
D  :--------8-p6-p5---|----------------|----------------|----------------|
A  :------------------|8---------------|8---6-----------|----------------|
F  :------------------|----7---8---5---|----------------|3---------------|
C  :7-----------------|----------------|----------------|0---------------|
G  :------------------|----------------|--------0---0---|----0-0-----0---|
C  :------------------|----------------|--------0---0---|----0-0-----0---|


============================================================================

                                                                        
D  :-----------------|----------------|----------------|----------------|
A  :-----------------|----------------|----------------|----------------|
F  :3-----------2-h--|3-------3-------|3---------------|----------------|
C  :0-----------0----|0-------0-------|0---------------|3-3-3-3-5-5-5-5-|
G  :----0---0--------|----0-------0---|----0---6-6-6-6-|----------------|
C  :----0---0--------|----0-------0---|----0-----------|----------------|

                                                                        
D  :-----------------|----------------|----------------|----------------|
A  :-----------------|----------------|----------------|----------------|
F  :3-----------2-h--|3-------3-------|3---------------|----------------|
C  :0-----------0----|0-------0-------|0---------------|3-3-3-3-5-5-5-5-|
G  :----0---0--------|----0-------0---|----0---6-6-6-6-|----------------|
C  :----0---0--------|----0-------0---|----0-----------|----------------|


============================================================================

                                              
D  :----------------|----------------|--------|
A  :----------------|----------------|--------|
F  :----------------|----------------|--------|
C  :----------------|5-5-5-5-7-7-7-7-|--------|
G  :6-6-6-6-8-8-8-8-|----------------|8-8-8-8-|
C  :----------------|----------------|--------|

                                              
D  :----------------|----------------|--------|
A  :----------------|----------------|--------|
F  :----------------|----------------|--------|
C  :----------------|5-5-5-5-7-7-7-7-|--------|
G  :6-6-6-6-8-8-8-8-|----------------|8-8-8-8-|
C  :----------------|----------------|--------|


============================================================================

                                                                       
D  :-------------|-------------------|----------------|----------------|
A  :13-p11-p10---|-------------------|----------------|----------------|
F  :-------------|10-------7-h--10---|----7-----------|----------------|
C  :-------------|-------------------|------------8---|----7---8-------|
G  :-------------|-------------------|----------------|----------------|
C  :-------------|-------------------|----------------|----------------|

                                                                       
D  :-------------|-------------------|----------------|----------------|
A  :-------------|-------------------|----------------|----------------|
F  :-------------|-------------------|----------------|----------------|
C  :-8-----------|-8-------8-----8---|----8-------8---|----8---8-------|
G  :-8-----------|-8-------8-----8---|----8-------8---|----8---8-------|
C  :-8-----------|-8-------8-----8---|----8-------8---|----8---8-------|


============================================================================

                                                                 
D  :-------------------|---------------------|-------------------|
A  :-------------------|---------------------|10---16-------15---|
F  :-------------------|7h-8h-10-/--12-------|-------------------|
C  :8-------7h-8h-10---|---------------------|-------------------|
G  :-------------------|---------------------|-------------------|
C  :-------------------|---------------------|-------------------|

                                                                 
D  :-------------------|---------------------|-------------------|
A  :-------------------|---------------------|-------------------|
F  :-------------------|---------------------|-------------------|
C  :8-------5----------|5------------5---5---|------5--------5---|
G  :8-------5----------|5------------5---5---|------5--------5---|
C  :8-------5----------|5------------5---5---|------5--------5---|


============================================================================

                                                             
D  :-------------13---|-------------------|------------------|
A  :----13------------|13-----------------|------------------|
F  :------------------|-------------------|---------7---10---|
C  :------------------|---------8p-7p-5---|3-/--5------------|
G  :------------------|-------------------|------------------|
C  :------------------|-------------------|------------------|

                                                             
D  :------------------|-------------------|------------------|
A  :------------------|-------------------|------------------|
F  :------------------|-------------------|------------------|
C  :-----5---5--------|-5-------1---------|1--------1----1---|
G  :-----5---5--------|-5-------1---------|1--------1----1---|
C  :-----5---5--------|-5-------1---------|1--------1----1---|


============================================================================

                                                                
D  :--------------------|------------------|--------------------|
A  :10---11-------------|------------------|10---11-/--13-------|
F  :--------------------|---------7---10---|--------------------|
C  :----------8p-7p-5---|3-/--5------------|--------------------|
G  :--------------------|------------------|--------------------|
C  :--------------------|------------------|--------------------|
                                                                
D  :--------------------|------------------|--------------------|
A  :--------------------|------------------|--------------------|
F  :--------------------|------------------|--------------------|
C  :------1---------1---|-----1---1--------|-1----------3-------|
G  :------1---------1---|-----1---1--------|-1----------3-------|
C  :------1---------1---|-----1---1--------|-1----------3-------|


============================================================================

                                                               
D  :------------------|---/-13-----------|--------17p-15p-13---|
A  :11---10-------8---|------------------|---------------------|
F  :------------------|------------------|---------------------|
C  :------------------|------------------|---------------------|
G  :------------------|------------------|---------------------|
C  :------------------|------------------|---------------------|

                                                               
D  :------------------|------------------|---------------------|
A  :------------------|------------------|---------------------|
F  :------------------|------------------|---------------------|
C  :-3--------3---3---|------3-------3---|----3----3-----------|
G  :-3--------3---3---|------3-------3---|----3----3-----------|
C  :-3--------3---3---|------3-------3---|----3----3-----------|


============================================================================

                                                                   
D  :17p-15p-13----------------|-------------------|----------------|
A  :-------------13-p11-p10---|-------------------|----------------|
F  :--------------------------|10-------7-h--10---|----7-----------|
C  :--------------------------|-------------------|------------8---|
G  :--------------------------|-------------------|----------------|
C  :--------------------------|-------------------|----------------|

                                                                   
D  :--------------------------|-------------------|----------------|
A  :--------------------------|-------------------|----------------|
F  :--------------------------|-------------------|----------------|
C  :-3------------8-----------|-8-------8-----8---|----8-------8---|
G  :-3------------8-----------|-8-------8-----8---|----8-------8---|
C  :-3------------8-----------|-8-------8-----8---|----8-------8---|


============================================================================

                                                              
D  :----------------|-------------------|---------------------|
A  :----------------|-------------------|---------------------|
F  :----------------|-------------------|7h-8h-10-/--12-------|
C  :----7---8-------|8-------7h-8h-10---|---------------------|
G  :----------------|-------------------|---------------------|
C  :----------------|-------------------|---------------------|

                                                              
D  :----------------|-------------------|---------------------|
A  :----------------|-------------------|---------------------|
F  :----------------|-------------------|---------------------|
C  :----8---8-------|8-------5----------|5------------5---5---|
G  :----8---8-------|8-------5----------|5------------5---5---|
C  :----8---8-------|8-------5----------|5------------5---5---|


============================================================================

                                                              
D  :-------------------|-------------13---|-------------------|
A  :10---16-------15---|----13------------|13-----------------|
F  :-------------------|------------------|-------------------|
C  :-------------------|------------------|---------8p-7p-5---|
G  :-------------------|------------------|-------------------|
C  :-------------------|------------------|-------------------|
                                                              
D  :-------------------|------------------|-------------------|
A  :-------------------|------------------|-------------------|
F  :-------------------|------------------|-------------------|
C  :------5--------5---|-----5---5--------|-5-------1---------|
G  :------5--------5---|-----5---5--------|-5-------1---------|
C  :------5--------5---|-----5---5--------|-5-------1---------|


============================================================================

                                                              
D  :------------------|--------------------|------------------|
A  :------------------|10---11-------------|------------------|
F  :---------7---10---|--------------------|---------7---10---|
C  :3-/--5------------|----------8p-7p-5---|3-/--5------------|
G  :------------------|--------------------|------------------|
C  :------------------|--------------------|------------------|

                                                              
D  :------------------|--------------------|------------------|
A  :------------------|--------------------|------------------|
F  :------------------|--------------------|------------------|
C  :1--------1----1---|------1---------1---|-----1---1--------|
G  :1--------1----1---|------1---------1---|-----1---1--------|
C  :1--------1----1---|------1---------1---|-----1---1--------|


============================================================================

                                                              
D  :--------------------|------------------|---/-13-----------|
A  :10---11-/--13-------|11---10-------8---|------------------|
F  :--------------------|------------------|------------------|
C  :--------------------|------------------|------------------|
G  :--------------------|------------------|------------------|
C  :--------------------|------------------|------------------|

                                                              
D  :--------------------|------------------|----
6 comments total. Showing first comments.
+1 reply
_sXe_ wrote on June 3 2006, 04:57 am

Yeah, great tab! Sounds nearly exacly like the song, really good !!!

0 reply
kennerdmcfat wrote on February 28 2007, 04:24 pm

this is not 100% correct.

0 reply
Gupo wrote on March 3 2007, 02:11 pm

Very nice but why so long? 5*

I want to post or [tab]
guest
You may want to rate the tab now too:
select rating
Please do not post tabs as comments. Select "correction" instead!