Oops, an error
Loading. Please wait.

Barbarian Tab

ver5
ver5

Whole song

More versions @911Tabs.com
4,462 views 6 this week
2 commentsread comments
1 2 3 4 5
excellent!
x 5
Autoscroll
+/-
esc
set tempo
stop
Contributor
WARNING: You are trying to view
                                    content from Ultimate-Guitar.com
                                    in an unauthorized application,
                                    which is prohibited.

                                    Please use an official Ultimate
                                    Guitar Tabs application for iPhone,
                                    iPad or Android to access legitimate
                                    chords, guitar, bass, and drum tabs
                                    from Ultimate-Guitar.com database.

                                    Type "ultimate guitar tabs" in Apple
                                    App Store's or Android Market's
                                    search to find the application.
This tab is 100% correct due to the fact that I got them from the JB (guitarist)

D  :----------------|-------------------------|-------------------------|
A  :----------------|-------------------------|-------------------------|
F  :----------------|-------------------------|-------------------------|
C  :----------------|-------------------------|-------------------------|
G  :----------------|-------------------------|-------------------------|
C  :----------------|-------------------------|-------------------------|

D  :----------------|-------------------------|-------------------------|
A  :----------------|-------------------------|-------------------------|
F  :----------------|-------------------------|-------------------------|
C  :----------------|5-5-5-5-5-5-5-5-5-----5-5|5-5-5-5-5-----5-5-5-5-5-5|
G  :----------------|5-5-5-5-5-5-5-5-5-----5-5|5-5-5-5-5-----5-5-5-5-5-5|
C  :----------------|5-5-5-5-5-5-5-5-5-----5-5|5-5-5-5-5-----5-5-5-5-5-5|
                     * * * * * * * * *     * * * * * * *     * * * * * *
============================================================================

D  :--------------------|------------------------|-------------------------|
A  :--------------------|------------------------|-------------------------|
F  :--------------------|------------------------|-------------------------|
C  :--------------------|------------------------|-------------------------|
G  :--------------------|------------------------|-------------------------|
C  :--------------------|------------------------|-------------------------|

D  :--------------------|------------------------|-------------------------|
A  :--------------------|------------------------|-------------------------|
F  :--------------------|------------------------|-------------------------|
C  :5---5-5-5-5-5-------|----5-5-5-5-5-5-5-5-5---|5-5-5-5-5-5-5-5-5-----5-5|
G  :5---5-5-5-5-5-------|----5-5-5-5-5-5-5-5-5---|5-5-5-5-5-5-5-5-5-----5-5|
C  :5---5-5-5-5-5-------|----5-5-5-5-5-5-5-5-5---|5-5-5-5-5-5-5-5-5-----5-5|
    *   * * * * *            * * * * * * * * *    * * * * * * * * *     * *
============================================================================

D  :-------------------------|--------------------|------------------------|
A  :-------------------------|--------------------|------------------------|
F  :-------------------------|--------------------|------------------------|
C  :-------------------------|--------------------|------------------------|
G  :-------------------------|--------------------|------------------------|
C  :-------------------------|--------------------|------------------------|

D  :-------------------------|--------------------|------------------------|
A  :-------------------------|--------------------|------------------------|
F  :-------------------------|--------------------|------------------------|
C  :5-5-5-5-5-----5-5-5-5-5-5|5---5-5-5-5-5-------|5-5-5-5-5-5-5-5-5-------|
G  :5-5-5-5-5-----5-5-5-5-5-5|5---5-5-5-5-5-------|5-5-5-5-5-5-5-5-5-------|
C  :5-5-5-5-5-----5-5-5-5-5-5|5---5-5-5-5-5-------|5-5-5-5-5-5-5-5-5-------|
    * * * * *     * * * * * * *   * * * * *        * * * * * * * * *
============================================================================

D  :-------------------------------|-------------------------------|
A  :-------------------------------|-------------------------------|
F  :0-0-0-0-2-2-2-2-3-3-3-3--------|5-5-5-5-3-3-3-3-7-7-7-7--------|
C  :------------------------3-3-3-3|------------------------5-5-5-5|
G  :-------------------------------|-------------------------------|
C  :-------------------------------|-------------------------------|

D  :-------------------------------|-------------------------------|
A  :-------------------------------|-------------------------------|
F  :-------------------------------|-------------------------------|
C  :5-5-5-5-5-5-5-5-5-----------5-5|5-5-5-5-5-----------5-5-5-5-5-5|
G  :5-5-5-5-5-5-5-5-5-----------5-5|5-5-5-5-5-----------5-5-5-5-5-5|
C  :5-5-5-5-5-5-5-5-5-----------5-5|5-5-5-5-5-----------5-5-5-5-5-5|
    * * * * * * * * *           * * * * * * *           * * * * * *
============================================================================

D  :-------------------------------|-------------------------------|
A  :-------------------------------|-------------------------------|
F  :8-8-8-8-7-7-7-7----------------|7-7-7-7-5-5-5-5-3-3-3-3--------|
C  :----------------8-8-8-8-5-5-5-5|------------------------4-4-4-4|
G  :-------------------------------|-------------------------------|
C  :-------------------------------|-------------------------------|

D  :-------------------------------|-------------------------------|
A  :-------------------------------|-------------------------------|
F  :-------------------------------|-------------------------------|
C  :5-------5-5-5-5-5--------------|--------5-5-5-5-5-5-5-5-5------|
G  :5-------5-5-5-5-5--------------|--------5-5-5-5-5-5-5-5-5------|
C  :5-------5-5-5-5-5--------------|--------5-5-5-5-5-5-5-5-5------|
    *       * * * * *                       * * * * * * * * *
============================================================================

D  :-------------------------------|-------------------------------|
A  :-------------------------------|-------------------------------|
F  :0-0-0-0-2-2-2-2-3-3-3-3--------|5-5-5-5-3-3-3-3-7-7-7-7--------|
C  :------------------------3-3-3-3|------------------------5-5-5-5|
G  :-------------------------------|-------------------------------|
C  :-------------------------------|-------------------------------|

D  :-------------------------------|-------------------------------|
A  :-------------------------------|-------------------------------|
F  :-------------------------------|-------------------------------|
C  :5-5-5-5-5-5-5-5-5-----------5-5|5-5-5-5-5-----------5-5-5-5-5-5|
G  :5-5-5-5-5-5-5-5-5-----------5-5|5-5-5-5-5-----------5-5-5-5-5-5|
C  :5-5-5-5-5-5-5-5-5-----------5-5|5-5-5-5-5-----------5-5-5-5-5-5|
    * * * * * * * * *           * * * * * * *           * * * * * *
============================================================================

D  :-------------------------------|-------------------------------|
A  :-------------------------------|-------------------------------|
F  :8-8-8-8-7-7-7-7----------------|7-7-7-7-5-5-5-5-3-3-3-3--------|
C  :----------------8-8-8-8-5-5-5-5|------------------------4-4-4-4|
G  :-------------------------------|-------------------------------|
C  :-------------------------------|-------------------------------|

D  :-------------------------------|-------------------------------|
A  :-------------------------------|-------------------------------|
F  :-------------------------------|-------------------------------|
C  :5-------5-5-5-5-5--------------|5-5-5-5-5-5-5-5-5--------------|
G  :5-------5-5-5-5-5--------------|5-5-5-5-5-5-5-5-5--------------|
C  :5-------5-5-5-5-5--------------|5-5-5-5-5-5-5-5-5--------------|
    *       * * * * *               * * * * * * * * *
============================================================================

D  :----------------|----------------|----------------|----------------|
A  :----------------|----------------|----------------|----------------|
F  :0-2-3---5-3-7---|8-7-----7-5-3---|0-2-3---5-3-7---|8-7-----7-5-3---|
C  :------3-------5-|----8-5-------4-|------3-------5-|----8-5-------4-|
G  :----------------|----------------|----------------|----------------|
C  :----------------|----------------|----------------|----------------|

D  :----------------|----------------|----------------|----------------|
A  :----------------|----------------|----------------|----------------|
F  :0-2-3---5-3-7---|8-7-----7-5-3---|0-2-3---5-3-7---|8-7-----7-5-3---|
C  :------3-------5-|----8-5-------4-|------3-------5-|----8-5-------4-|
G  :----------------|----------------|----------------|----------------|
C  :----------------|----------------|----------------|----------------|

============================================================================

D  :6-8-10-6-11-10-8----|--------------------|6-8-10-6-11-10-8----|
A  :-----------------11-|8-10-11-8-----------|-----------------11-|
F  :--------------------|----------10-8-7-11-|--------------------|
C  :--------------------|--------------------|--------------------|
G  :--------------------|--------------------|--------------------|
C  :--------------------|--------------------|--------------------|

D  :--------------------|--------------------|--------------------|
A  :--------------------|--------------------|--------------------|
F  :0-2--3----5--3-7----|8--7-------7-5-3----|0-2--3----5--3-7----|
C  :-------3----------5-|------8-5---------4-|-------3----------5-|
G  :--------------------|--------------------|--------------------|
C  :--------------------|--------------------|--------------------|

============================================================================

D  :-------------------|----------------|----------------|----------------|
A  :8-10-11-8----------|----------------|----------------|----------------|
F  :----------10-8-7---|----------------|----------------|----------------|
C  :-------------------|5---7---8---7---|4---5---7---5---|1---3---5---1---|
G  :-------------------|----------------|----------------|----------------|
C  :-----------------5-|--5---5---5---0-|--0---0---0---1-|--1---1---1---3-|
                     *    *   *   *   *    *   *   *   *    *   *   *   *
D  :-------------------|----------------|----------------|----------------|
A  :-------------------|----------------|----------------|----------------|
F  :8--7-------7-5-3---|----------------|----------------|----------------|
C  :------8-5----------|5---7---8---7---|4---5---7---5---|1---3---5---1---|
G  :-------------------|----------------|----------------|----------------|
C  :-----------------5-|--5---5---5---0-|--0---0---0---1-|--1---1---1---3-|
                     *    *   *   *   *    *   *   *   *    *   *   *   *
============================================================================

D  :----------------|----------------|----------------|----------------|
A  :----------------|----------------|----------------|----------------|
F  :----------------|----------------|----------------|----------------|
C  :3---5---7---3---|5---7---8---7---|4---5---7---5---|1---3---5---1---|
G  :----------------|----------------|----------------|----------------|
C  :--3---3---3---5-|--5---5---5---0-|--0---0---0---1-|--1---1---1---3-|
      *   *   *   *    *   *   *   *    *   *   *   *    *   *   *   *
D  :----------------|----------------|----------------|----------------|
A  :----------------|----------------|----------------|----------------|
F  :----------------|----------------|----------------|----------------|
C  :3---5---7---3---|5---7---8---7---|4---5---7---5---|1---3---5---1---|
G  :----------------|----------------|----------------|----------------|
C  :--3---3---3---5-|--5---5---5---0-|--0---0---0---1-|--1---1---1---3-|
      *   *   *   *    *   *   *   *    *   *   *   *    *   *   *   *
============================================================================

D  :----------------|----------------|----------------|----------------|
A  :----------------|----------------|----------------|----------------|
F  :----------------|----------------|----------------|0---2---3---0---|
C  :3---5---7---3---|5---7---8---7---|4---5---7---5---|----------------|
G  :----------------|----------------|----------------|----------------|
C  :--3---3---3---5-|--5---5---5---0-|--0---0---0---1-|--1---1---1---3-|
      *   *   *   *    *   *   *   *    *   *   *   *    *   *   *   *
D  :----------------|----------------|----------------|----------------|
A  :----------------|----------------|----------------|----------------|
F  :----------------|----------------|----------------|----------------|
C  :3---5---7---3---|5---7---8---7---|4---5---7---5---|1---3---5---1---|
G  :----------------|----------------|----------------|----------------|
C  :--3---3---3---5-|--5---5---5---0-|--0---0---0---1-|--1---1---1---3-|
      *   *   *   *    *   *   *   *    *   *   *   *    *   *   *   *
============================================================================

D  :----------------|----------------|----------------|----------------|
A  :----------------|----------------|----------------|----------------|
F  :2---3---5---2---|----------------|----------------|0---2---3---0---|
C  :----------------|5---7---8---7---|4---5---7---5---|----------------|
G  :----------------|----------------|----------------|----------------|
C  :--3---3---3---5-|--5---5---5---0-|--0---0---0---1-|--1---1---1---3-|
      *   *   *   *    *   *   *   *    *   *   *   *    *   *   *   *
D  :----------------|----------------|----------------|----------------|
A  :----------------|----------------|----------------|----------------|
F  :----------------|----------------|----------------|----------------|
C  :3---5---7---3---|5---7---8---7---|4---5---7---5---|1---3---5---1---|
G  :----------------|----------------|----------------|----------------|
C  :--3---3---3---5-|--5---5---5---0-|--0---0---0---1-|--1---1---1---3-|
      *   *   *   *    *   *   *   *    *   *   *   *    *   *   *   *
============================================================================

D  :----------------|------------------|------------------|
A  :----------------|------------------|------------------|
F  :2---3---5---2---|------------------|------------------|
C  :----------------|5-0-5-0-0-1-4-4---|5-0-5-0-0-1-4-4-0-|
G  :----------------|5-0-5-0-0-1-4-4---|5-0-5-0-0-1-4-4-0-|
C  :--3---3---3-----|5-0-5-0-0-1-4-4---|5-0-5-0-0-1-4-4-0-|
      *   *   *
D  :----------------|------------------|------------------|
A  :----------------|------------------|------------------|
F  :----------------|------------------|------------------|
C  :3---5---7---3---|------------------|------------------|
G  :----------------|------------------|------------------|
C  :--3---3---3-----|------------------|------------------|
      *   *   *
============================================================================

D  :----------------------|------------------|------------------|
A  :----------------------|------------------|------------------|
F  :2-3-0-----------------|------------------|------------------|
C  :------4--0-1-12-10----|5-0-5-0-0-1-4-4-0-|5-0-5-0-0-1-4-4-0-|
G  :---------0---------12-|5-0-5-0-0-1-4-4-0-|5-0-5-0-0-1-4-4-0-|
C  :---------0------------|5-0-5-0-0-1-4-4-0-|5-0-5-0-0-1-4-4-0-|
             *
D  :----------------------|------------------|------------------|
A  :----------------------|------------------|------------------|
F  :----------------------|------------------|------------------|
C  :----------------------|------------------|------------------|
G  :----------------------|------------------|------------------|
C  :----------------------|------------------|------------------|

============================================================================

D  :----------------------|------------------|------------------|
A  :----------------------|------------------|------------------|
F  :2-3-0-----------------|------------------|------------------|
C  :------4--0-1-12-10----|5-0-5-0-0-1-4-4-0-|5-0-5-0-0-1-4-4-0-|
G  :---------0---------12-|5-0-5-0-0-1-4-4-0-|5-0-5-0-0-1-4-4-0-|
C  :---------0------------|5-0-5-0-0-1-4-4-0-|5-0-5-0-0-1-4-4-0-|
             *
D  :----------------------|------------------|------------------|
A  :----------------------|------------------|------------------|
F  :----------------------|------------------|------------------|
C  :----------------------|------------------|------------------|
G  :----------------------|------------------|------------------|
C  :----------------------|------------------|------------------|

============================================================================

D  :----------------------|------------------|----------------|
A  :----------------------|------------------|----------------|
F  :2-3-0-----------------|------------------|----------------|
C  :------4--0-1-12-10----|5-0-5-0-0-1-4-4--*|----------------|
G  :---------0---------12-|5-0-5-0-0-1-4-4--*|----------------|
C  :---------0------------|5-0-5-0-0-1-4-4--*|----------------|
             *
D  :----------------------|------------------|5-5-5-5-5-5-5-5-|
A  :----------------------|------------------|----------------|
F  :----------------------|------------------|7-7-7-7-7-7-7-7-|
C  :----------------------|------------------|5-5-5-5-5-5-5-5-|
G  :----------------------|------------------|5-5-5-5-5-5-5-5-|
C  :----------------------|------------------|5-5-5-5-5-5-5-5-|

============================================================================

D  :----------------|----------------|----------------|----------------|
A  :----------------|----------------|----------------|----------------|
F  :----------------|----------------|----------------|--------7-8-5-7-|
C  :----------------|----------------|----------------|--7-8-5---------|
G  :----------------|----------------|----------------|----------------|
C  :----------------|----------------|----------------|5---------------|

D  :1-1-1-1-1-1-1-1-|3-3-3-3-3-3-3-3-|5-5-5-5-5-5-5-5-|5-5-5-5-5-5-5-5-|
A  :----------------|----------------|----------------|----------------|
F  :3-3-3-3-3-3-3-3-|5-5-5-5-5-5-5-5-|7-7-7-7-7-7-7-7-|7-7-7-7-7-7-7-7-|
C  :1-1-1-1-1-1-1-1-|3-3-3-3-3-3-3-3-|5-5-5-5-5-5-5-5-|5-5-5-5-5-5-5-5-|
G  :1-1-1-1-1-1-1-1-|3-3-3-3-3-3-3-3-|5-5-5-5-5-5-5-5-|5-5-5-5-5-5-5-5-|
C  :1-1-1-1-1-1-1-1-|3-3-3-3-3-3-3-3-|5-5-5-5-5-5-5-5-|5-5-5-5-5-5-5-5-|

============================================================================

D  :------------------|------------------------|--------------------|
A  :------------------|------------------16-15-|8-10-11-8--------10-|
F  :10-8---12---------|15-14-------14-12-------|----------10-8-7----|
C  :-----8------------|------15-12-------------|--------------------|
G  :------------------|------------------------|--------------------|
C  :------------------|------------------------|--------------------|

D  :-1-1-1--1-1-1-1-1-|-3--3--3--3--3--3--3--3-|5--5--5-5--5-5-5--5-|
A  :------------------|------------------------|--------------------|
F  :-3-3-3--3-3-3-3-3-|-5--5--5--5--5--5--5--5-|7--7--7-7--7-7-7--7-|
C  :-1-1-1--1-1-1-1-1-|-3--3--3--3--3--3--3--3-|5--5--5-5--5-5-5--5-|
G  :-1-1-1--1-1-1-1-1-|-3--3--3--3--3--3--3--3-|5--5--5-5--5-5-5--5-|
C  :-1-1-1--1-1-1-1-1-|-3--3--3--3--3--3--3--3-|5--5--5-5--5-5-5--5-|

============================================================================

D  :----------------|------------------|------------------------|
A  :----------------|------------------|------------------16-15-|
F  :--------7-8-5-7-|10-8---12---------|15-14-------14-12-------|
C  :--7-8-5---------|-----8------------|------15-12-------------|
G  :----------------|------------------|------------------------|
C  :5---------------|------------------|------------------------|

D  :5-5-5-5-5-5-5-5-|-1-1-1--1-1-1-1-1-|-3--3--3--3--3--3--3--3-|
A  :----------------|------------------|------------------------|
F  :7-7-7-7-7-7-7-7-|-3-3-3--3-3-3-3-3-|-5--5--5--5--5--5--5--5-|
C  :5-5-5-5-5-5-5-5-|-1-1-1--1-1-1-1-1-|-3--3--3--3--3--3--3--3-|
G  :5-5-5-5-5-5-5-5-|-1-1-1--1-1-1-1-1-|-3--3--3--3--3--3--3--3-|
C  :5-5-5-5-5-5-5-5-|-1-1-1--1-1-1-1-1-|-3--3--3--3--3--3--3--3-|

============================================================================

D  :----------10-8-10-11-|----------------------|----------------|
A  :8-10-11-8------------|----------------------|----------------|
F  :---------------------|----------------------|----------------|
C  :---------------------|5-5-6-6-5-----5-5-5-5-|4-5-5-0-1-3-3-0-|
G  :---------------------|5-5-6-6-5-----5-5-5-5-|4-5-5-0-1-3-3-0-|
C  :---------------------|5-5-6-6-5-----5-5-5-5-|4-5-5-0-1-3-3-0-|
                          * * * * *     * * * *      * *     * *
D  :5--5--5-5--5-5--5--5-|----------------------|----------------|
A  :---------------------|----------------------|----------------|
F  :7--7--7-7--7-7--7--7-|----------------------|----------------|
C  :5--5--5-5--5-5--5--5-|----------------------|----------------|
G  :5--5--5-5--5-5--5--5-|----------------------|----------------|
C  :5--5--5-5--5-5--5--5-|----------------------|----------------|

============================================================================

D  :----------------------|----------------|----------------------|
A  :----------------------|----------------|----------------------|
F  :----------------------|----------------|----------------------|
C  :5-5-6-6-5-----5-5-5-5-|4-5-5-0-1-3-5-8-|5-5-6-6-5-----5-5-5-5-|
G  :5-5-6-6-5-----5-5-5-5-|4-5-5-0-1-3-5-8-|5-5-6-6-5-----5-5-5-5-|
C  :5-5-6-6-5-----5-5-5-5-|4-5-5-0-1-3-5-8-|5-5-6-6-5-----5-5-5-5-|
    * * * * *     * * * *      * * * * * *  * * * * *     * * * *
D  :----------------------|----------------|----------------------|
A  :----------------------|----------------|----------------------|
F  :----------------------|----------------|----------------------|
C  :----------------------|----------------|----------------------|
G  :----------------------|----------------|----------------------|
C  :----------------------|----------------|----------------------|

============================================================================

D  :----------------|----------------------|----------------|
A  :----------------|----------------------|----------------|
F  :----------------|----------------------|--------------5-|
C  :4-5-5-0-1-3-3-0-|5-5-6-6-5-----5-5-5-5-|4-5-5---0-4-7---|
G  :4-5-5-0-1-3-3-0-|5-5-6-6-5-----5-5-5-5-|4-5-5-0---------|
C  :4-5-5-0-1-3-3-0-|5-5-6-6-5-----5-5-5-5-|4-5-5-----------|
        * *     * *  * * * * *     * * * *      *
D  :----------------|----------------------|----------------|
A  :----------------|----------------------|----------------|
F  :----------------|----------------------|----------------|
C  :----------------|----------------------|----------------|
G  :----------------|----------------------|----------------|
C  :----------------|----------------------|----------------|

============================================================================

D  :----------------------|----------------|----------------------|
A  :----------------------|----------------|----------------------|
F  :----------------------|----------------|----------------------|
C  :5-5-6-6-5-----5-5-5-5-|4-5-5-0-1-3-3-0-|5-5-6-6-5-----5-5-5-5-|
G  :5-5-6-6-5-----5-5-5-5-|4-5-5-0-1-3-3-0-|5-5-6-6-5-----5-5-5-5-|
C  :5-5-6-6-5-----5-5-5-5-|4-5-5-0-1-3-3-0-|5-5-6-6-5-----5-5-5-5-|
    * * * * *     * * * *      * *     * *  * * * * *     * * * *
D  :----------------------|----------------|----------------------|
A  :----------------------|----------------|----------------------|
F  :----------------------|----------------|----------------------|
C  :----------------------|----------------|----------------------|
G  :----------------------|----------------|----------------------|
C  :----------------------|----------------|----------------------|

============================================================================

D  :----------------|----------------------|----------------|
A  :----------------|----------------------|----------------|
F  :----------------|----------------------|----------------|
C  :4-5-5-0-1-3-5-8-|5-5-6-6-5-----5-5-5-5-|4-5-5-0-1-3-3-0-|
G  :4-5-5-0-1-3-5-8-|5-5-6-6-5-----5-5-5-5-|4-5-5-0-1-3-3-0-|
C  :4-5-5-0-1-3-5-8-|5-5-6-6-5-----5-5-5-5-|4-5-5-0-1-3-3-0-|
        * * * * * *  * * * * *     * * * *      * *     * *
D  :----------------|----------------------|----------------|
A  :----------------|----------------------|----------------|
F  :----------------|----------------------|----------------|
C  :----------------|----------------------|----------------|
G  :----------------|----------------------|----------------|
C  :----------------|----------------------|----------------|

============================================================================

D  :----------------------|----------------|-----------------|
A  :----------------------|----------------|--7-10-----------|
F  :----------------------|--------------5-|8-----------3---2|
C  :5-5-6-6-5-----5-5-5-5-|4-5-5---0-4-7---|--------5-5---5--|
G  :5-5-6-6-5-----5-5-5-5-|4-5-5-0---------|--------5-5---5--|
C  :5-5-6-6-5-----5-5-5-5-|4-5-5-----------|--------5-5---5--|
    * * * * *     * * * *      *                    * *   *
D  :----------------------|----------------|-----------------|
A  :----------------------|----------------|-----------------|
F  :----------------------|----------------|-----------------|
C  :----------------------|----------------|-----------------|
G  :----------------------|----------------|-----------------|
C  :----------------------|----------------|-----------------|

============================================================================

D  :----------------|----------------|--------8-6-5------|-----------------|
A  :----------------|----------------|--------------8----|---8-6-----------|
F  :-3---0---5-3---2|-3-0-------7---8|7---------------7-8|-5---------3-----|
C  :---5---5-----5--|-------5-5---5--|--8-7-5------------|-------0-0-5-0-0-|
G  :---5---5-----5--|-------5-5---5--|------5------------|-------0-0---0-0-|
C  :---5---5-----5--|-------5-5---5--|------5------------|-------0-0---0-0-|
       *   *     *          * *   *         *                    * *   * *
D  :----------------|----------------|-------------------|-----------------|
A  :----------------|----------------|-------------------|-----------------|
F  :----------------|----------------|-------------------|-----------------|
C  :----------------|----------------|-------------------|-----------------|
G  :----------------|----------------|-------------------|-----------------|
C  :----------------|----------------|-------------------|-----------------|

============================================================================

D  :-------------------|------------------------|
A  :-------------------|------------------------|
F  :----3-------2-3---3|---2--------------------|
C  :0-0-5-0-0-0-4-5-0-5|-0-4-0-1-1-1-1-3-3-3-3-5|
G  :0-0---0-0-0-----0--|-0---0------------------|
C  :0-0---0-0-0-----0--|-0---0------------------|
    * *   * * *     *    *   *
D  :-------------------|------------------------|
A  :-------------------|------------------------|
F  :-------------------|------------------------|
C  :-------------------|------------------------|
G  :-------------------|------------------------|
C  :-------------------|------------------------|

============================================================================

D  :-------------------------------|-----------------------|
A  :-------------------------------|-----------------------|
F  :-------------------------------|------------------3---2|
C  :5-5-5---------3-3-3-3-5-5-5-5-7|7-7-7---------5-5---5--|
G  :------6-6-6-6------------------|------8-8-8-8-5-5---5--|
C  :-------------------------------|--------------5-5---5--|
                                                  * *   *
D  :-------------------------------|-----------------------|
A  :-------------------------------|-----------------------|
F  :-------------------------------|-----------------------|
C  :-------------------------------|-----------------------|
G  :-------------------------------|-----------------------|
C  :-------------------------------|-----------------------|

============================================================================

D  :----------------|----------------|--------8-6-5------|-----------------|
A  :----------------|----------------|--------------8----|---8-6-----------|
F  :-3---0---5-3---2|-3-0-------7---8|7---------------7-8|-5---------3-----|
C  :---5---5-----5--|-------5-5---5--|--8-7-5------------|-------0-0-5-0-0-|
G  :---5---5-----5--|-------5-5---5--|------5------------|-------0-0---0-0-|
C  :---5---5-----5--|-------5-5---5--|------5------------|-------0-0---0-0-|
       *   *     *          * *   *         *                    * *   * *
D  :----------------|----------------|-------------------|-----------------|
A  :----------------|----------------|-------------------|-----------------|
F  :----------------|----------------|-------------------|-----------------|
C  :----------------|----------------|-------------------|-----------------|
G  :----------------|----------------|-------------------|-----------------|
C  :----------------|----------------|-------------------|-----------------|

============================================================================

D  :-------------------|------------------------|
A  :-------------------|------------------------|
F  :----3-------2-3---3|---2--------------------|
C  :0-0-5-0-0-0-4-5-0-5|-0-4-0-1-1-1-1-3-3-3-3-5|
G  :0-0---0-0-0-----0--|-0---0------------------|
C  :0-0---0-0-0-----0--|-0---0------------------|
    * *   * * *     *    *   *
D  :-------------------|------------------------|
A  :-------------------|------------------------|
F  :-------------------|------------------------|
C  :-------------------|------------------------|
G  :-------------------|------------------------|
C  :-------------------|------------------------|

============================================================================

D  :-------------------------------|---------------------------|
A  :-------------------------------|---------------------------|
F  :-------------------------------|---------------------------|
C  :5-5-5---------3-3-3-3-5-5-5-5-7|7-7-7---------8-----10---12|
G  :------6-6-6-6------------------|------8-8-8-8-8------8----8|
C  :-------------------------------|--------------8------8----8|

D  :-------------------------------|--------------8-6-5--------|
A  :-------------------------------|---------------------6-----|
F  :-------------------------------|--------------------------7|
C  :-------------------------------|---------------------------|
G  :-------------------------------|---------------------------|
C  :-------------------------------|---------------------------|

============================================================================

D  :----------------------|-------------------------|-------------------|
A  :-------11---11-11-10--|-10-10-------------------|-------8----8-8-6--|
F  :----------------------|-------------------------|-------------------|
C  :----10-10---10-10-10--|-10-10---5------7-------8|----7--7----7-7-7--|
G  :-----8--8----8--8--8--|--8--8---5------5-------5|----5--5----5-5-5--|
C  :-----8--8----8--8--8--|--8--8---5------5-------5|----5--5----5-5-5--|

D  :----------------------|-------------------------|------11---10---8--|
A  :----------------------|-------------------------|---10--------------|
F  :-10-----7-------------|----------------7-8-10-12|-------------------|
C  :-------------8-----7-8|---------7-8-10----------|-------------------|
G  :----------------------|-------------------------|-------------------|
C  :----------------------|-------------------------|-------------------|

============================================================================

D  :-------------------|------------------|----------------|
A  :--6-6--------------|------------------|----------------|
F  :-------------------|------------------|----------------|
C  :--7-7---1-----3---5|---5-5-----5-5---5|-5-5-5-7---7---7|
G  :--5-5---1-----1---1|---1-1-----1-1---1|-1-1-1-3---3---3|
C  :--5-5---1-----1---1|---1-1-----1-1---1|-1-1-1-3---3---3|

D  :-13-8--------------|---5-6------------|---5-6-8---6-5--|
A  :------------------3|-6---------------3|-6--------------|
F  :--------3-2-0------|-------3-2-0------|----------------|
C  :--------------3-5--|-------------3-5--|----------------|
G  :-------------------|------------------|----------------|
C  :-------------------|------------------|----------------|

============================================================================

D  :-------------------|----------------------------|----------------------|
A  :-------------------|----------------------------|-------11---11-11-10--|
F  :-------------------|----------------------------|----------------------|
C  :-7-7--7---7--7----7|----7--7-----7-8-----10---12|----10-10---10-10-10--|
G  :-3-3--3---3--3----3|----3--3-----3-8------8----8|-----8--8----8--8--8--|
C  :-3-3--3---3--3----3|----3--3-----3-8------8----8|-----8--8----8--8--8--|

D  :-3---13-----13---17|15-13-17-15-13-8-6-5--------|----------------------|
A  :-------------------|----------------------6-----|----------------------|
F  :-------------------|---------------------------7|-10-----7-------------|
C  :-------------------|----------------------------|-------------8-----7-8|
G  :-------------------|----------------------------|----------------------|
C  :-------------------|----------------------------|----------------------|

============================================================================

D  :-------------------------|-------------------|-------------------|
A  :-10-10-------------------|-------8----8-8-6--|--6-6--------------|
F  :-------------------------|-------------------|-------------------|
C  :-10-10---5------7-------8|----7--7----7-7-7--|--7-7---1-----3---5|
G  :--8--8---5------5-------5|----5--5----5-5-5--|--5-5---1-----1---1|
C  :--8--8---5------5-------5|----5--5----5-5-5--|--5-5---1-----1---1|

D  :-------------------------|------11---10---8--|-13-8--------------|
A  :-------------------------|---10--------------|------------------3|
F  :----------------7-8-10-12|-------------------|--------3-2-0------|
C  :---------7-8-10----------|-------------------|--------------3-5--|
G  :-------------------------|-------------------|-------------------|
C  :-------------------------|-------------------|-------------------|

============================================================================

D  :------------------|----------------|------------------|----------------|
A  :------------------|----------------|------------------|----------------|
F  :------------------|----------------|------------------|----------------|
C  :---5-5-----5-5---5|-5-5-5-7---7---7|-7-7--7---7--7---7|-7-7---5---7---8|
G  :---1-1-----1-1---1|-1-1-1-3---3---3|-3-3--3---3--3---3|-3-3------------|
C  :---1-1-----1-1---1|-1-1-1-3---3---3|-3-3--3---3--3---3|-3-3-5---5---5--|

D  :---5-6------------|---5-6-8---6-5--|-3---13-----13----|----------------|
A  :-6---------------3|-6--------------|------------------|----------------|
F  :-------3-2-0------|----------------|------------------|----------------|
C  :-------------3-5--|----------------|------------------|----------------|
G  :------------------|----------------|------------------|----------------|
C  :------------------|----------------|------------------|----------------|

============================================================================

D  :----------------|----------------|----------------|----------------|
A  :----------------|----------------|----------------|----------------|
F  :----------------|----------------|----------------|----------------|
C  :---7---4---5---7|---5---1---3---5|---1---3---5---7|---3---5---7---8|
G  :----------------|----------------|----------------|----------------|
C  :-5---0---0---0--|-0---1---1---1--|-1---3---3---3--|-3---5---5---5--|
     *   *   *   *    *   *   *   *    *   *   *   *    *   *   *   *
D  :----------------|----------------|----------------|----------------|
A  :----------------|----------------|----------------|----------------|
F  :----------------|----------------|----------------|----------------|
C  :----------------|----------------|----------------|----------------|
G  :----------------|----------------|----------------|----------------|
C  :----------------|----------------|----------------|----------------|

============================================================================

D  :----------------|----------------|----------------|----------------|
A  :----------------|----------------|----------------|----------------|
F  :----------------|----------------|----------------|----------------|
C  :---7---4---5---7|---5---1---3---5|---1---3---5---7|---3---5---7---8|
G  :----------------|----------------|----------------|----------------|
C  :-5---0---0---0--|-0---1---1---1--|-1---3---3---3--|-3---5---5---5--|
     *   *   *   *    *   *   *   *    *   *   *   *    *   *   *   *
D  :----------------|----------------|----------------|----------------|
A  :----------------|----------------|----------------|----------------|
F  :----------------|----------------|----------------|----------------|
C  :----------------|----------------|----------------|----------------|
G  :----------------|----------------|----------------|----------------|
C  :----------------|----------------|----------------|----------------|

============================================================================

D  :----------------|------------------|----------------------|
A  :----------------|------------------|----------------------|
F  :----------------|------------------|----------------------|
C  :---7---4---5---7|---5---8---10---12|---8----10----12----13|
G  :----------------|------------------|----------------------|
C  :-5---0---0---0--|-0---8---8----8---|-8---10----10----10---|
     *   *   *   *    *   *   *    *     *   *     *     *       
D  :----------------|------------------|----------------------|
A  :----------------|------------------|----------------------|
F  :----------------|------------------|----------------------|
C  :----------------|------------------|----------------------|
G  :----------------|------------------|----------------------|
C  :----------------|------------------|----------------------|

============================================================================

D  :------------------|----------------|------------------|
A  :------------------|----------------|------------------|
F  :------------------|----------------|------------------|
C  :----10---5---7---8|---7---4---5---7|---5---8---10---12|
G  :------------------|----------------|------------------|
C  :-10----5---5---5--|-5---0---0---0--|-0---8---8----8---|
     *     *   *   *    *   *   *   *    *   *   *    *
D  :------------------|----------------|------------------|
A  :------------------|----------------|------------------|
F  :------------------|----------------|------------------|
C  :------------------|----------------|------------------|
G  :------------------|----------------|------------------|
C  :------------------|----------------|------------------|

============================================================================

D  :----------------------|-----------------------|--------------------|
A  :----------------------|-----------------------|--------------------|
F  :----------------------|-----------------------|--------------------|
C  :---8----10----12----13|----12----13----12---12|---13---12---13---17|
G  :----------------------|-----------------------|--------------------|
C  :-8---10----10----10---|-10----10----10----0---|-0----0----0----0---|
     *   *     *     *      *     *     *     *     *    *    *    *
D  :----------------------|-----------------------|--------------------|
A  :----------------------|-----------------------|--------------------|
F  :----------------------|-----------------------|--------------------|
C  :----------------------|-----------------------|--------------------|
G  :----------------------|-----------------------|--------------------|
C  :----------------------|-----------------------|--------------------|

============================================================================

D  :-------------------|-------------------------|------------------------|
A  :-------------------|-------------------------|------------------------|
F  :-------------19----|-------------------------|------------------------|
C  :---16---19--------0|0-0-0-0-----0-0-0-0-0-0-0|-------0-0-0-0-0-0-0-0-0|
G  :------------------0|0-0-0-0-----0-0-0-0-0-0-0|-------0-0-0-0-0-0-0-0-0|
C  :-0----0----0------0|0-0-0-0-----0-0-0-0-0-0-0|-------0-0-0-0-0-0-0-0-0|
     *    *    *      * * * * *     * * * * * * *        * * * * * * * * *
D  :-------------------|-------------------------|------------------------|
A  :-------------------|-------------------------|------------------------|
F  :-------------------|-------------------------|------------------------|
C  :-------------------|-------------------------|------------------------|
G  :-------------------|-------------------------|------------------------|
C  :-------------------|-------------------------|------------------------|

============================================================================

D  :----------------------|--------------------------|--------------------|
A  :----------------------|--------------------------|--------------------|
F  :----------------------|--------------------------|--------------------|
C  :-----0-0-0-0-0-0-0----|-0-0-0-0-0-0-0---0-0-0-0-0|-----------0-0-0-0-0|
G  :-----0-0-0-0-0-0-0----|-0-0-0-0-0-0-0---0-0-0-0-0|-----------0-0-0-0-0|
C  :-----0-0-0-0-0-0-0----|-0-0-0-0-0-0-0---0-0-0-0-0|-----------0-0-0-0-0|
         * * * * * * *      * * * * * * *   * * * * *            * * * * *
D  :----------------------|--------------------------|--------------------|
A  :----------------------|--------------------------|--------------------|
F  :----------------------|--------------------------|--------------------|
C  :----------------------|--------------------------|--------------------|
G  :----------------------|--------------------------|--------------------|
C  :----------------------|--------------------------|--------------------|

============================================================================

D  :---------------------------|----------------------|
A  :---------------------------|----------------------|
F  :---------------------------|----------------------|
C  :0-0-0-0---0-0-0-0-0-0-0-0-0|-----0-0-0-0-0-0-0----|
G  :0-0-0-0---0-0-0-0-0-0-0-0-0|-----0-0-0-0-0-0-0----|
C  :0-0-0-0---0-0-0-0-0-0-0-0-0|-----0-0-0-0-0-0-0----|
    * * * *   * * * * * * * * *      * * * * * * *
D  :---------------------------|----------------------|
A  :---------------------------|----------------------|
F  :---------------------------|----------------------|
C  :---------------------------|----------------------|
G  :---------------------------|----------------------|
C  :---------------------------|----------------------|

============================================================================

D  :--------------------------|------------------------|
A  :--------------------------|------------------------|
F  :--------------------------|------------------------|
C  :-0-0-0-0-0-0-0---0-0-0-0-0|-------0-0-0-0-0-0-0-0-0|
G  :-0-0-0-0-0-0-0---0-0-0-0-0|-------0-0-0-0-0-0-0-0-0|
C  :-0-0-0-0-0-0-0---0-0-0-0-0|-------0-0-0-0-0-0-0-0-0|
     * * * * * * *   * * * * *        * * * * * * * * *
D  :--------------------------|------------------------|
A  :--------------------------|------------------------|
F  :--------------------------|------------------------|
C  :--------------------------|------------------------|
G  :--------------------------|------------------------|
C  :--------------------------|------------------------|

============================================================================

D  :------------------------|-------------------------------|
A  :------------------------|-------------------------------|
F  :-------0-0-0-0-2-2-2-2-3|3-3-3---------5-5-5-5-3-3-3-3-7|
C  :------------------------|------3-3-3-3------------------|
G  :------------------------|-------------------------------|
C  :------------------------|-------------------------------|

D  :------------------------|-------------------------------|
A  :------------------------|-------------------------------|
F  :------------------------|-------------------------------|
C  :-------0-0-0-0-0-0-0-0-0|----------0-0-0-0-0-0-0--------|
G  :-------0-0-0-0-0-0-0-0-0|----------0-0-0-0-0-0-0--------|
C  :-------0-0-0-0-0-0-0-0-0|----------0-0-0-0-0-0-0--------|
           * * * * * * * * *           * * * * * * *
============================================================================

D  :-------------------------------|-------------------------------|
A  :-------------------------------|-------------------------------|
F  :7-7-7---------8-8-8-8-7-7-7-7--|--------------7-7-7-7-5-5-5-5-3|
C  :------5-5-5-5-----------------8|8-8-8-5-5-5-5------------------|
G  :-------------------------------|-------------------------------|
C  :-------------------------------|-------------------------------|

D  :-------------------------------|-------------------------------|
A  :-------------------------------|-------------------------------|
F  :-------------------------------|-------------------------------|
C  :--0-0-0-0-0-0-0-------0-0-0-0-0|----------------------0-0-0-0-0|
G  :--0-0-0-0-0-0-0-------0-0-0-0-0|----------------------0-0-0-0-0|
C  :--0-0-0-0-0-0-0-------0-0-0-0-0|----------------------0-0-0-0-0|
      * * * * * * *       * * * * *                       * * * * *
============================================================================

D  :-------------------------------|-------------------------------|
A  :-------------------------------|-------------------------------|
F  :3-3-3---------0-0-0-0-2-2-2-2-3|3-3-3---------5-5-5-5-3-3-3-3-7|
C  :------4-4-4-4------------------|------3-3-3-3------------------|
G  :-------------------------------|-------------------------------|
C  :-------------------------------|-------------------------------|

D  :-------------------------------|-------------------------------|
A  :-------------------------------|-------------------------------|
F  :-------------------------------|-------------------------------|
C  :0-0-0-0-------0-0-0-0-0-0-0-0-0|----------0-0-0-0-0-0-0--------|
G  :0-0-0-0-------0-0-0-0-0-0-0-0-0|----------0-0-0-0-0-0-0--------|
C  :0-0-0-0-------0-0-0-0-0-0-0-0-0|----------0-0-0-0-0-0-0--------|
    * * * *       * * * * * * * * *           * * * * * * *
============================================================================

D  :-------------------------------|-------------------------------|
A  :-------------------------------|-------------------------------|
F  :7-7-7---------8-8-8-8-7-7-7-7--|--------------7-7-7-7-5-5-5-5-3|
C  :------5-5-5-5-----------------8|8-8-8-5-5-5-5------------------|
G  :-------------------------------|-------------------------------|
C  :-------------------------------|-------------------------------|

D  :-------------------------------|-------------------------------|
A  :-------------------------------|-------------------------------|
F  :-------------------------------|-------------------------------|
C  :--0-0-0-0-0-0-0-------0-0-0-0-0|--------------0-0-0-0-0-0-0-0-0|
G  :--0-0-0-0-0-0-0-------0-0-0-0-0|--------------0-0-0-0-0-0-0-0-0|
C  :--0-0-0-0-0-0-0-------0-0-0-0-0|--------------0-0-0-0-0-0-0-0-0|
      * * * * * * *       * * * * *               * * * * * * * * *
============================================================================

D  :-------------------------------|-------------------------------|
A  :-------------------------------|-------------------------------|
F  :3-3-3---------0-0-0-0-2-2-2-2-3|3-3-3---------5-5-5-5-3-3-3-3-7|
C  :------4-4-4-4------------------|------3-3-3-3------------------|
G  :-------------------------------|-------------------------------|
C  :-------------------------------|-------------------------------|

D  :-------------------------------|-------------------------------|
A  :-------------------------------|-------------------------------|
F  :-------------------------------|-------------------------------|
C  :--------------0-0-0-0-0-0-0-0-0|----------0-0-0-0-0-0-0--------|
G  :--------------0-0-0-0-0-0-0-0-0|----------0-0-0-0-0-0-0--------|
C  :--------------0-0-0-0-0-0-0-0-0|----------0-0-0-0-0-0-0--------|
                  * * * * * * * * *           * * * * * * *
============================================================================

D  :-------------------------------|-------------------------------|
A  :-------------------------------|-------------------------------|
F  :7-7-7---------8-8-8-8-7-7-7-7--|--------------7-7-7-7-5-5-5-5-3|
C  :------5-5-5-5-----------------8|8-8-8-5-5-5-5------------------|
G  :-------------------------------|-------------------------------|
C  :-------------------------------|-------------------------------|

D  :-------------------------------|-------------------------------|
A  :-------------------------------|-------------------------------|
F  :-------------------------------|-------------------------------|
C  :--0-0-0-0-0-0-0-------0-0-0-0-0|----------------------0-0-0-0-0|
G  :--0-0-0-0-0-0-0-------0-0-0-0-0|----------------------0-0-0-0-0|
C  :--0-0-0-0-0-0-0-------0-0-0-0-0|----------------------0-0-0-0-0|
      * * * * * * *       * * * * *                       * * * * *
============================================================================

D  :-------------------------------|-------------------------------|
A  :-------------------------------|-------------------------------|
F  :3-3-3---------0-0-0-0-2-2-2-2-3|3-3-3---------5-5-5-5-3-3-3-3-7|
C  :------4-4-4-4------------------|------3-3-3-3------------------|
G  :-------------------------------|-------------------------------|
C  :-------------------------------|-------------------------------|

D  :-------------------------------|-------------------------------|
A  :-------------------------------|-------------------------------|
F  :-------------------------------|-------------------------------|
C  :0-0-0-0-------0-0-0-0-0-0-0-0-0|----------0-0-0-0-0-0-0--------|
G  :0-0-0-0-------0-0-0-0-0-0-0-0-0|----------0-0-0-0-0-0-0--------|
C  :0-0-0-0-------0-0-0-0-0-0-0-0-0|----------0-0-0-0-0-0-0--------|
    * * * *       * * * * * * * * *           * * * * * * *
============================================================================

D  :-------------------------------|-------------------------------|
A  :-------------------------------|-------------------------------|
F  :7-7-7---------8-8-8-8-7-7-7-7--|--------------7-7-7-7-5-5-5-5-3|
C  :------5-5-5-5-----------------8|8-8-8-5-5-5-5------------------|
G  :-------------------------------|-------------------------------|
C  :-------------------------------|-------------------------------|

D  :-------------------------------|-------------------------------|
A  :-------------------------------|-------------------------------|
F  :-------------------------------|-------------------------------|
C  :--0-0-0-0-0-0-0-------0-0-0-0-0|--------------0-0-0-0-0-0-0-0-0|
G  :--0-0-0-0-0-0-0-------0-0-0-0-0|--------------0-0-0-0-0-0-0-0-0|
C  :--0-0-0-0-0-0-0-------0-0-0-0-0|--------------0-0-0-0-0-0-0-0-0|
      * * * * * * *       * * * * *               * * * * * * * * *
============================================================================

D  :-----------------------|----------------|
A  :-----------------------|----------------|
F  :3-3-3------------------|----------------|
C  :------4-4-4-4-5--------|----------------|
G  :--------------5--------|----------------|
C  :--------------5--------|----------------|

D  :-----------------------|----------------|
A  :-----------------------|----------------|
F  :-----------------------|----------------|
C  :-----------------------|----------------|
G  :-----------------------|----------------|
C  :-----------------------|----------------|

comments
print report bad tab
2 comments total.
+1 reply
Izzojj wrote on November 23 2009, 04:57 pm

I got this tab from JB of August Burns Red. He had it in a different file and I transposed it and added the palm mutes. It's 100% accurate.

+1 reply
GrinningKillr wrote on April 3 2010, 11:12 pm

well, since u got it from the ABR guitarist, great tab. haha

I want to post or [tab]
guest
You may want to rate the tab now too:
select rating
Please do not post tabs as comments. Select "correction" instead!