Oops, an error
Loading. Please wait.

Black Sheep Tab

ver1
ver1

Whole song

Interactive

More versions @911Tabs.com
13,192 views 18 this week
3 commentsread comments
1 2 3 4 5
excellent!
x 4
Autoscroll
+/-
esc
set tempo
stop
Contributor
Tuning
C G C F A D
Hey! There's an official Ultimate Guitar app which is ideal
for learning songs when you're away from computer. Get the app
WARNING: You are trying to view
                                    content from Ultimate-Guitar.com
                                    in an unauthorized application,
                                    which is prohibited.

                                    Please use an official Ultimate
                                    Guitar Tabs application for iPhone,
                                    iPad or Android to access legitimate
                                    chords, guitar, bass, and drum tabs
                                    from Ultimate-Guitar.com database.

                                    Type "ultimate guitar tabs" in Apple
                                    App Store's or Android Market's
                                    search to find the application.
BLACK SHEEP
As recorded by August Burns Red
(From the 2007 Album MESSENGERS)

Transcribed by Chris Allan

As always, for those without powertab, here you go. This one\'s long, sorry. TP stands 
trill pick, if you can\'t figure it out. That\'s how powertab exports it. Enjoy, 
is probably next.


Words and Music by ABR
Arranged by ABR

 Intro
  Q=180
  N.C.
 4/4
  Gtrs I, II
  TP TPTPTP TPTP  TP TPTPTP TPTP   TP TPTP TP TPTP  TP TPTPTP TPTP
|---------------|---------------|-----------------|---------------|
|---------------|---------------|-----------------|---------------|
|---------------|---------------|-----------------|---------------|
|-5--0-4-5--0-4-|-5--0-5-8--0-8-|-12--0-8-12--0-8-|-7--0-5-4--0-4-|
|---------------|---------------|-----------------|---------------|
|---------------|---------------|-----------------|---------------|


  N.C.
                                                   2/4
  TP TPTPTP TPTP  TP TPTP TP TPTP   TP TPTPTP TPTP  TP TPTP
|---------------|----------------|----------------|---------||
|---------------|----------------|----------------|---------||
|---------------|----------------|----------------|---------||
|-5--0-4-5--0-5-|-8--0-8-12--0-8-|-12--0-8-7--0-5-|-4--0-4--||
|---------------|----------------|----------------|---------||
|---------------|----------------|----------------|---------||


   \"You\'ve fallen captive...\"
    Q=165
    G5
   4/4
    PM-----------|      PM--|   PM-------------|
||--------------------|------------------------|
||o-------------------|------------------------|
||--------------------|------------------------|
||--------------------|------------------------|
||o-5-5-5-5--5-5-5----|-5-5-5---5-5-5-5-5-5----|
||--5-5-5-5--5-5-5----|-5-5-5---5-5-5-5-5-5----|


                      1.                          2.
  G5
  PM-----------|   PM----|    PM--------------------|    PM------------|
|--------------------|-------------------------||----------------------|
|--------------------|------------------------o||----------------------|
|--------------------|-------------------------||----------------------|
|--------------------|-------------------------||----------------------|
|-5-5-5-5--5-5-5---5-|-5-5----5-5-5-5-5-5-5-5-o||-5-5----5-5-5-5-5-----|
|-5-5-5-5--5-5-5---5-|-5-5----5-5-5-5-5-5-5-5--||-5-5----5-5-5-5-5-----|


  G5
  Gtr I
  PM------------|        PM--|     PM--------------|
|----------------------|---------------------------|
|----------------------|---------------------------|
|----------------------|---------------------------|
|----------------------|---------------------------|
|-5-5-5-5---5-5-5------|-5-5-5-----5-5-5-5-5-5-----|
|-5-5-5-5---5-5-5------|-5-5-5-----5-5-5-5-5-5-----|
|
| Gtr II
| TP      TPTPTP   TPTP  TP    TPTPTP      TP  TP
|----------------------|-------------------------|
|----------------------|-------------------------|
|----------------------|-------------------------|
|-5-------0-4-5----0-4-|-5-----0-5-8-------0---8-|
|----------------------|-------------------------|
|----------------------|-------------------------|


  G5
   PM-------------|    PM----|      PM----------------|
|------------------------|----------------------------|
|------------------------|----------------------------|
|------------------------|----------------------------|
|------------------------|----------------------------|
|--5-5-5-5---5--5-5----5-|-5-5------5-5-5-5-5-5-5-5---|
|--5-5-5-5---5--5-5----5-|-5-5------5-5-5-5-5-5-5-5---|
|
|  TP      TPTP TP   TPTP  TP   TPTPTP      TP  TP
|------------------------|--------------------------|
|------------------------|--------------------------|
|------------------------|--------------------------|
|-12-------0-8-12----0-8-|-7----0-5-4-------0---4---|
|------------------------|--------------------------|
|------------------------|--------------------------|


  G5
  PM------------|        PM--|      PM--------------|
|----------------------|----------------------------|
|----------------------|----------------------------|
|----------------------|----------------------------|
|----------------------|----------------------------|
|-5-5-5-5---5-5-5------|-5-5-5------5-5-5-5-5-5-----|
|-5-5-5-5---5-5-5------|-5-5-5------5-5-5-5-5-5-----|
|
| TP      TPTPTP   TPTP  TP    TPTP TP      TP  TP
|----------------------|--------------------------|
|----------------------|--------------------------|
|----------------------|--------------------------|
|-5-------0-4-5----0-5-|-8-----0-8-12-------0---8-|
|----------------------|--------------------------|
|----------------------|--------------------------|


  G5
   PM------------|    PM----|      PM------------|
|-----------------------|------------------------|
|-----------------------|------------------------|
|-----------------------|------------------------|
|-----------------------|------------------------|
|--5-5-5-5---5-5-5----5-|-5-5------5-5-5-5-5-----|
|--5-5-5-5---5-5-5----5-|-5-5------5-5-5-5-5-----|
|
|  TP      TPTPTP   TPTP  TP   TPTPTP      TPTP
|-----------------------|---------------------||
|-----------------------|---------------------||
|-----------------------|---------------------||
|-12-------0-8-7----0-5-|-4----0-4-5-------5--||
|-----------------------|---------------------||
|-----------------------|---------------------||


   \"What\'s done is done...\"
    Q=210
    N.C.
    Gtrs I, II
            PM  PM|     PM  PM    PM  PM          PM  PM|     PM  PM    PM  PM
||--------------------|-----------------|-------------------|-----------------|
||o-------------------|-----------------|-------------------|-----------------|
||--------------------|-----------------|-------------------|-----------------|
||--5h6p5-----------5-|---4---------8---|-5h6p5-----------5-|---4---------8---|
||o-------6---5-------|-------5s9-------|-------6---5-------|-------5s9-------|
||----------0---0-0---|-0---0-----0---0-|---------0---0-0---|-0---0-----0---0-|


                                       1.
  N.C.
          PM  PM|     PM  PM    PM  PM          PM  PM|     PM  PM--------------|
|-------------------|-----------------|-------------------|---------------------|
|-------------------|-----------------|-------------------|-----------------o---|
|-------------------|-----------------|-------------------|---------------------|
|-5h6p5-----------5-|---4---------8---|-5h6p5-------------|---------------------|
|-------6---5-------|-------5s9-------|-------6---5-----1-|---0-----4-4-4---o---|
|---------0---0-0---|-0---0-----0---0-|---------0---0-0---|-0---0-0-4-4-4-------|


  2.
  N.C.
    PM--|   PM--|     PM------------|
|-----------------|-----------------|
|-----------------|---------7-------|
|-----------------|-7---------------|
|-7-------8-------|-----------------|
|-----------------|-----------------|
|---0-0-0---0-0-0-|---0-0-0---------|


   \"Neither one will ever...\"
    N.C.
    PM--|   PM  PM--|       PM  PM--|     PM--|
||----------------------|---------------------|
||o---------------------|---------------------|
||----------------------|---------------7-----|
||--------8---7---------|-7---5---------------|
||o---------------------|---------------------|
||--5-5-5---5---5-5-5-5-|---5---5-5-5-5---5---|


 -----|   PM  PM--|       PM  PM-------------|     PM
|---------------------|----------------------|
|---------------------|----------------------|
|---------------------|---------------7------|
|-------8---7---------|-7---5----------------|
|---------------------|----------------------|
|-5-5-5---5---5-5-5-5-|---5---5-5-5-5---5----|


                                           1.
  N.C.
  PM--|   PM  PM--|       PM  PM--|     PM          PM  PM------|
|---------------------|-------------------|---------------------|
|---------------------|-------------------|---------------------|
|---------------------|-------------------|---------------------|
|-------5---4---------|---------------5---|-4h5p4---------------|
|---------------------|-6---5-------------|-------6---5-----1---|
|-0-0-0---0---0-0-0-0-|---0---0-0-0-0---0-|---------0---0-0-----|


                      2.
          F#5         N.C.
  PM  PM------------------------------------------------|
|------------------||---------------|-------------------|
|-----------------o||---------------|-----7---(7)\\-----|
|------------------||---------------|-7-----------------|
|------------------||-------7---8---|-------------------|
|---0-----4-4-4-4-o||---------------|-------------------|
|-0---0-0-4-4-4-4--||-0-0-0---------|-------------------|


  Q=220
  Bb/G              D5             Bb/G       D5    D/F#          D5
  Gtr I
                     PM--------|               PM--------------------|                 PM
|-----------------|--------------|----------------|------------------|
|-----------------|--------------|----------------|------------------|
|-----------------|--------------|----------------|------------------|
|-8-8-8-8-8-8-8-8-|--------------|-8--8-8-8-8-----|---7---7-7-7-7----|
|-5-5-5-5-5-5-5-5-|--0-------0-0-|-5--5-5-5-5--0--|---5---5-5-5-5-0--|
|-5-5-5-5-5-5-5-5-|--0-------0-0-|-5--5-5-5-5--0--|---4---4-4-4-4-0--|
|
| Gtr II
|-----------------|--------------|----------------|-------------------|
|-----------------|--------------|----------------|-------------------|
|-7---------------|-(7)------7-8-|-7------8---12--|-(12)------8-------|
|-----------------|--------------|----------------|-------------------|
|-----------------|--------------|----------------|-------------------|
|-----------------|--------------|----------------|-------------------|


  Bb/G              D5             N.C.
                    PM----------------------------------------|
|-----------------|--------------|-------------|--------------|
|-----------------|--------------|-------------|--------------|
|-----------------|--------------|-------------|--------------|
|-8-8-8-8-8-8-8-8-|--------------|----1--------|-1-----4------|
|-5-5-5-5-5-5-5-5-|-0--------0-0-|-5-----0--5--|----0---------|
|-5-5-5-5-5-5-5-5-|-0--------0-0-|-------------|--------------|
|
|-----------------|--------------|-5--6-----5--|-6-----6----|
|-----4---6-------|----4--6------|-------------|------------|
|-7-----------7---|-7--------7---|-------7-----|----7-------|
|-----------------|--------------|-------------|------------|
|-----------------|--------------|-------------|------------|
|-----------------|--------------|-------------|------------|


  Bb/G              D5             Bb/G       D5    D/F#           D5
                     PM--------|               PM---------------------|                  PM
|-----------------|--------------|----------------|-------------------|
|-----------------|--------------|----------------|-------------------|
|-----------------|--------------|----------------|-------------------|
|-8-8-8-8-8-8-8-8-|--------------|-8--8-8-8-8-----|---7---7-7--7-7----|
|-5-5-5-5-5-5-5-5-|--0-------0-0-|-5--5-5-5-5--0--|---5---5-5--5-5-0--|
|-5-5-5-5-5-5-5-5-|--0-------0-0-|-5--5-5-5-5--0--|---4---4-4--4-4-0--|
|
|-----------------|--------------|----------------|--------------------|
|-----------------|--------------|------------11--|-(11)------10-------|
|-7---------------|-(7)------7h8p|=7------8-------|--------------------|
|-----------------|--------------|----------------|--------------------|
|-----------------|--------------|----------------|--------------------|
|-----------------|--------------|----------------|--------------------|


  Bb/G              D5             N.C.
                     PM-----------------------------------------|
|-----------------|--------------|--------------|---------------|
|-----------------|--------------|--------------|---------------|
|-----------------|--------------|--------------|---------------|
|-8-8-8-8-8-8-8-8-|--------------|-----1--------|--1-----4------|
|-5-5-5-5-5-5-5-5-|--0-------0-0-|--5-----0--5--|-----0---------|
|-5-5-5-5-5-5-5-5-|--0-------0-0-|--------------|---------------|
|
|-----------------|--------------|--------------|-------------|
|-6---------------|-(6)----------|-10-----------|-11----------|
|-----------------|--------------|--------------|-------------|
|-----------------|--------------|--------------|-------------|
|-----------------|--------------|--------------|-------------|
|-----------------|--------------|--------------|-------------|


  Bb/G               D5                  Bb/G         D5    D/F#           D5
                       PM-----------|                  PM---------------------|                  PM
|------------------|-------------------|------------------|-------------------|
|------------------|-------------------|------------------|-------------------|
|------------------|-------------------|------------------|-------------------|
|--8-8-8-8-8-8-8-8-|-------------------|--8--8-8--8-8-----|---7---7-7--7-7----|
|--5-5-5-5-5-5-5-5-|---0----------0--0-|--5--5-5--5-5--0--|---5---5-5--5-5-0--|
|--5-5-5-5-5-5-5-5-|---0----------0--0-|--5--5-5--5-5--0--|---4---4-4--4-4-0--|
|
|------------------|-------------------|--------------15--|-(15)---------------|
|-15---------------|-(15)----15--15h16-|-15------16-------|-----------16-------|
|------------------|-------------------|------------------|--------------------|
|------------------|-------------------|------------------|--------------------|
|------------------|-------------------|------------------|--------------------|
|------------------|-------------------|------------------|--------------------|
|
| Gtr III
|------------------|-------------------|------------------|--------------------|
|------------------|-------------------|------------------|--------------------|
|--7---------------|--(7)---------7--8-|--7-------8---12--|-(12)-------8-------|
|------------------|-------------------|------------------|--------------------|
|------------------|-------------------|------------------|--------------------|
|------------------|-------------------|------------------|--------------------|


  Bb/G               D5                N.C.
                       PM-------------------------------------------------|
|------------------|-----------------|-----------------|------------------|
|------------------|-----------------|-----------------|------------------|
|------------------|-----------------|-----------------|------------------|
|--8-8-8-8-8-8-8-8-|-----------------|-------1---------|---1-------4------|
|--5-5-5-5-5-5-5-5-|---0---------0-0-|---5------0---5--|-------0----------|
|--5-5-5-5-5-5-5-5-|---0---------0-0-|-----------------|------------------|
|
|------------------|-----------------|-----------------|----------------|
|-15---------------|-(15)------------|-----------------|----------------|
|------------------|-----------------|-(14)--------14--|-(14)-----15----|
|------------------|-----------------|-----------------|----------------|
|------------------|-----------------|-----------------|----------------|
|------------------|-----------------|-----------------|----------------|
|
|------------------|-----------------|---5---6------5--|---6-------6----|
|------4---6-------|-------4--6------|-----------------|----------------|
|--7-----------7---|---7---------7---|----------7------|-------7--------|
|------------------|-----------------|-----------------|----------------|
|------------------|-----------------|-----------------|----------------|
|------------------|-----------------|-----------------|----------------|


  Bb/G               D5                  Bb/G         D5    D/F#           D5
                       PM-----------|                  PM---------------------|                  PM
|------------------|-------------------|------------------|-------------------|
|------------------|-------------------|------------------|-------------------|
|------------------|-------------------|------------------|-------------------|
|--8-8-8-8-8-8-8-8-|-------------------|--8--8-8--8-8-----|---7---7-7--7-7----|
|--5-5-5-5-5-5-5-5-|---0----------0--0-|--5--5-5--5-5--0--|---5---5-5--5-5-0--|
|--5-5-5-5-5-5-5-5-|---0----------0--0-|--5--5-5--5-5--0--|---4---4-4--4-4-0--|
|
|------------------|-------------------|--------------18--|-(18)------17-------|
|-15---------------|-(15)----15--15h16-|-15------16-------|--------------------|
|------------------|-------------------|------------------|--------------------|
|------------------|-------------------|------------------|--------------------|
|------------------|-------------------|------------------|--------------------|
|------------------|-------------------|------------------|--------------------|
|
|------------------|-------------------|------------------|--------------------|
|------------------|-------------------|--------------11--|-(11)------10-------|
|--7---------------|--(7)---------7h=8p|==7-------8-------|--------------------|
|------------------|-------------------|------------------|--------------------|
|------------------|-------------------|------------------|--------------------|
|------------------|-------------------|------------------|--------------------|


                                                    H.=H
  Bb/G               D5              N.C.
                       PM------------------------------------------|
|------------------|---------------|--------------|----------------|
|------------------|---------------|--------------|----------------|
|------------------|---------------|--------------|----------------|
|--8-8-8-8-8-8-8-8-|---------------|-----1--------|--1-----4-------|
|--5-5-5-5-5-5-5-5-|---0-------0-0-|--5-----0--5--|-----0----------|
|--5-5-5-5-5-5-5-5-|---0-------0-0-|--------------|----------------|
|
|------------------|---------------|-17-----------|-22----------||
|-18---------------|-(18)----------|--------------|-------------||
|------------------|---------------|--------------|-------------||
|------------------|---------------|--------------|-------------||
|------------------|---------------|--------------|-------------||
|------------------|---------------|--------------|-------------||
|
|------------------|---------------|--------------|-------------||
|--6---------------|--(6)----------|-10-----------|-11----------||
|------------------|---------------|--------------|-------------||
|------------------|---------------|--------------|-------------||
|------------------|---------------|--------------|-------------||
|------------------|---------------|--------------|-------------||


   \"Too late to wake...\"
    Q=185
    F#G5       G5F#5
    Gtrs I, II
    PM----------------------|
||--------------------------|
||o-------------------------|
||--------------------------|
||--------------------------|
||o-4-5-5-5-5--5-4-4-4-4----|
||--4-5-5-5-5--5-4-4-4-4----|


 1.,2.,3.                        4.
  F#G5       G5  A5  F#5 G5      F#G5       D5
 -----------------------------------------------------|
                              4x
|-----------------------------||------------------------|
|----------------------------o||------------------------|
|-----------------------------||------------------------|
|-----------------------------||------------------------|
|-4-5-5-5-5--5-5-7-7-4-4-5-5-o||-4-5-5-5-5--0-0-0-0-0-0-|
|-4-5-5-5-5--5-5-7-7-4-4-5-5--||-4-5-5-5-5--0-0-0-0-0-0-|


    D5
   4/4                     5/4
    PM---------------------------------------------------|
                                                            3x
||------------------------|---------------------------------||
||o-----------------------|--------------------------------o||
||------------------------|---------------------------------||
||------------------------|---------------------------------||
||o-0-0-0-0-0--0-0-0-0-0--|-0-0-0-0-0--0-0-0-0-0-0-0-0-0---o||
||--0-0-0-0-0--0-0-0-0-0--|-0-0-0-0-0--0-0-0-0-0-0-0-0-0----||


  D5
 4/4
  PM---------------------------------------------------|
|-----------------------|------------------------------|
|-----------------------|------------------------------|
|-----------------------|------------------------------|
|-----------------------|------------------------------|
|-0-0-0-0-0--0-0-0-0-0--|-0-0-0-0-0--0-0-0-0-0-0-0-0---|
|-0-0-0-0-0--0-0-0-0-0--|-0-0-0-0-0--0-0-0-0-0-0-0-0---|


  Q=165
  D5
 3/4
|--------|--------||
|--------|--------||
|--------|--------||
|-0------|-(0)----||
|-0------|-(0)----||
|-0------|-(0)----||


 Interlude
  Gm                            Bbm
  Gtr IV
|--------------|--------------|--------------|--------------|
|--------------|--------------|--------------|--------------|
|--------------|--------------|--------------|--------------|
|--8-----8-----|--8-----8-----|-11----11-----|-11----11-----|
|--x---x-x-x-x-|--x---x-x-x-x-|--x--x--x-x-x-|--x--x--x-x-x-|
|--5---5-5-5-5-|--5---5-5-5-5-|--8--8--8-8-8-|--8--8--8-8-8-|
|
| Gtrs I, II
|                 >
|--------------|--------------|--------------|--------------|
|--------------|--------------|--------------|--------------|
|--------------|--------------|--------------|--------------|
|-(0)----------|-(0)----------|--------------|--------------|
|-(0)----------|-(0)----------|--------------|--------------|
|-(0)----------|-(0)----------|--------------|--------------|


  F#sus2  F#m     F#sus2  F#m     D
|---------------|---------------|------------|------------|
|---------------|---------------|------------|------------|
|---------------|---------------|------------|------------|
|-6h=7----7---7-|-6h=7----7---7-|-4----4-----|-4----4-----|
|-x-(x)-x-x-x-x-|-x-(x)-x-x-x-x-|-x--x-x-x-x-|-x--x-x-x-x-|
|-4-(4)-4-4-4-4-|-4-(4)-4-4-4-4-|-0--0-0-0-0-|-0--0-0-0-0-|
|
|---------------|---------------|------------|------------|
|---------------|---------------|------------|------------|
|---------------|---------------|------------|------------|
|---------------|---------------|------------|------------|
|---------------|---------------|------------|------------|
|---------------|---------------|------------|------------|


  Gm                        Bbm
|------------|------------|--------------|--------------|
|------------|------------|--------------|--------------|
|------------|------------|--------------|--------------|
|-8----8-----|-8----8-----|-11----11-----|-11----11-----|
|-x--x-x-x-x-|-x--x-x-x-x-|--x--x--x-x-x-|--x--x--x-x-x-|
|-5--5-5-5-5-|-5--5-5-5-5-|--8--8--8-8-8-|--8--8--8-8-8-|
|
| Gtr II
|------------|------------|--------------|--------------|
|------------|------------|--------------|--------------|
|------------|------------|--------------|--------------|
|-8----------|-8----------|-11-----------|-11-----------|
|------------|------------|--------------|--------------|
|------------|------------|--------------|--------------|


  F#sus2  F#m     F#sus2  F#m     D
|---------------|---------------|------------|------------|
|---------------|---------------|------------|------------|
|---------------|---------------|------------|------------|
|-6h=7----7---7-|-6h=7----7---7-|-4----4-----|-4----4-----|
|-x-(x)-x-x-x-x-|-x-(x)-x-x-x-x-|-x--x-x-x-x-|-x--x-x-x-x-|
|-4-(4)-4-4-4-4-|-4-(4)-4-4-4-4-|-0--0-0-0-0-|-0--0-0-0-0-|
|
|---------------|---------------|------------|------------|
|---------------|---------------|------------|------------|
|---------------|---------------|------------|------------|
|-7-------------|-7-------------|-7----------|-7----------|
|---------------|---------------|------------|------------|
|---------------|---------------|------------|------------|


    Bb/G
    Gtr I
||--------------------|----------15-------|
||o-------15h16p15----|-------15----15----|
||-----15----------15-|----15----------15-|
||--17----------------|-17----------------|
||o-------------------|-------------------|
||--------------------|-------------------|
|
|   Gtr V
||--------------------|-------------------|
||o-------------------|-------------------|
||--------------------|-------------------|
||---8----------------|--8----------------|
||o--5----------------|--5----------------|
||---5----------------|--5----------------|


  C#/Bb
|----------15-------|-------------------|
|-------15----15----|-------15h16p15----|
|----15----------15-|----15----------15-|
|-17----------------|-17----------------|
|-------------------|-------------------|
|-------------------|-------------------|
|
|-------------------|-------------------|
|-------------------|-------------------|
|-------------------|-------------------|
|-11----------------|-11----------------|
|--8----------------|--8----------------|
|--8----------------|--8----------------|


  A/F#
|-------------------|----------14-------|
|-------14h15p14----|-------14----14----|
|----14----------14-|----14----------14-|
|-16----------------|-16----------------|
|-------------------|-------------------|
|-------------------|-------------------|
|
|-------------------|-------------------|
|-------------------|-------------------|
|-------------------|-------------------|
|--7----------------|--7----------------|
|--4----------------|--4----------------|
|--4----------------|--4----------------|


  D
|-------------------|----------14--------||
|-------14h15p14----|-------14----14----o||
|----14----------14-|----14----------14--||
|-16----------------|-16-----------------||
|-------------------|-------------------o||
|-------------------|--------------------||
|
|-------------------|--------------------||
|-------------------|-------------------o||
|-------------------|--------------------||
|--4----------------|--4-----------------||
|--0----------------|--0----------------o||
|--0----------------|--0-----------------||


    Bb/G
||--------------------|----------15-------|
||o-------15h16p15----|-------15----15----|
||-----15----------15-|----15----------15-|
||--17----------------|-17----------------|
||o-------------------|-------------------|
||--------------------|-------------------|
|
|   Gtr II
||--------15h17p15----|-------15h18p15----|
||o----15----------15-|----15----------15-|
||--15----------------|-15----------------|
||--------------------|-------------------|
||o-------------------|-------------------|
||--------------------|-------------------|
|
|   Gtr V
||--------------------|-------------------|
||o-------------------|-------------------|
||--------------------|-------------------|
||---8----------------|--8----------------|
||o--5----------------|--5----------------|
||---5----------------|--5----------------|


  C#/Bb
|----------15-------|-------------------|
|-------15----15----|-------15h16p15----|
|----15----------15-|----15----------15-|
|-17----------------|-17----------------|
|-------------------|-------------------|
|-------------------|-------------------|
|
|-------15h18p15----|-------15h17p15----|
|----15----------15-|----15----------15-|
|-15----------------|-15----------------|
|-------------------|-------------------|
|-------------------|-------------------|
|-------------------|-------------------|
|
|-------------------|-------------------|
|-------------------|-------------------|
|-------------------|-------------------|
|-11----------------|-11----------------|
|--8----------------|--8----------------|
|--8----------------|--8----------------|


  A/F#
|-------------------|----------14-------|
|-------14h15p14----|-------14----14----|
|----14----------14-|----14----------14-|
|-16----------------|-16----------------|
|-------------------|-------------------|
|-------------------|-------------------|
|
|-------12h14p12----|-------12h17p12----|
|----14----------14-|----14----------14-|
|-14----------------|-14----------------|
|-------------------|-------------------|
|-------------------|-------------------|
|-------------------|-------------------|
|
|-------------------|-------------------|
|-------------------|-------------------|
|-------------------|-------------------|
|--7----------------|--7----------------|
|--4----------------|--4----------------|
|--4----------------|--4----------------|


  D
|-------------------|----------14--------||
|-------14h15p14----|-------14----14----o||
|----14----------14-|----14----------14--||
|-16----------------|-16-----------------||
|-------------------|-------------------o||
|-------------------|--------------------||
|
|-------12h14p12----|-------12h17p12-----||
|----14----------14-|----14----------14-o||
|-14----------------|-14-----------------||
|-------------------|--------------------||
|-------------------|-------------------o||
|-------------------|--------------------||
|
|-------------------|--------------------||
|-------------------|-------------------o||
|-------------------|--------------------||
|--4----------------|--4-----------------||
|--0----------------|--0----------------o||
|--0----------------|--0-----------------||


 Reprise
  Q=210
  G5
 4/4
  Gtr I
  PM--|   PM  PM--|       PM  PM--|     PM--|
|---------------------|---------------------|
|---------------------|---------------------|
|---------------------|---------------7-----|
|-------8---7---------|-7---5---------------|
|---------------------|---------------------|
|-5-5-5---5---5-5-5-5-|---5---5-5-5-5---5---|
|
| Gtr II
|---------------------|-------------------|
|---------------------|-------------------|
|---------------------|-------------------|
|-5-----5---5---------|-5---5---------5---|
|-5-----5---5---------|-5---5---------5---|
|-5-----5---5---------|-5---5---------5---|


 -----|   PM  PM--|       PM  PM-------------|     PM
|---------------------|----------------------|
|---------------------|----------------------|
|---------------------|---------------7------|
|-------8---7---------|-7---5----------------|
|---------------------|----------------------|
|-5-5-5---5---5-5-5-5-|---5---5-5-5-5---5----|
|
|---------------------|--------------------|
|---------------------|--------------------|
|---------------------|--------------------|
|-5-------------------|-5------------------|
|-5-------------------|-5------------------|
|-5-------------------|-5------------------|


  D5
  PM--|   PM  PM--|       PM  PM------------|     PM
|---------------------|---------------------|
|---------------------|---------------------|
|---------------------|---------------------|
|-------5---4---------|---------------5-----|
|---------------------|-6---5---------------|
|-0-0-0---0---0-0-0-0-|---0---0-0-0-0---0---|
|
|---------------------|-------------------|
|---------------------|-------------------|
|---------------------|-------------------|
|-0-----0---0---------|-0---0---------0---|
|-0-----0---0---------|-0---0---------0---|
|-0-----0---0---------|-0---0---------0---|


  N.C.
          PM  PM|     PM  PM-------------|
|-------------------|--------------------|
|-------------------|--------------------|
|-------------------|--------------------|
|-4h5p4-------------|--------------------|
|-------6---5-----1-|---0-----4-4-4------|
|---------0---0-0---|-0---0-0-4-4-4------|
|
|         PM  PM|     PM  PM-------------|
|-------------------|--------------------|
|-------------------|--------------------|
|-------------------|--------------------|
|-4h5p4-------------|--------------------|
|-------6---5-----1-|---0-----4-4-4------|
|---------0---0-0---|-0---0-0-4-4-4------|


  N.C.
  Gtrs I, II
  PM--|   PM  PM--|       PM  PM--|     PM--|
|---------------------|---------------------|
|---------------------|---------------------|
|---------------------|---------------7-----|
|-------8---7---------|-7---5---------------|
|---------------------|---------------------|
|-5-5-5---5---5-5-5-5-|---5---5-5-5-5---5---|


 -----|   PM  PM--|       PM  PM------------|     PM
|---------------------|---------------------|
|---------------------|---------------------|
|---------------------|---------------7-----|
|-------8---7---------|-7---5---------------|
|---------------------|---------------------|
|-5-5-5---5---5-5-5-5-|---5---5-5-5-5---5---|


  N.C.
  PM--|   PM  PM--|       PM  PM--|     PM    PM--|   PM--|     PM------------|
|---------------------|-------------------|-----------------|-----------------|
|---------------------|-------------------|-----------------|---------7-------|
|---------------------|-------------------|-----------------|-7---------------|
|-------5---4---------|-----4---------5---|-7-------8-------|-----------------|
|---------------------|-6-----------------|-----------------|-----------------|
|-0-0-0---0---0-0-0-0-|---0---0-0-0-0---0-|---0-0-0---0-0-0-|---0-0-0---------|


   Outro
    Q=170
    G5
    Gtr I
    PM------------|        PM--|     PM--------------|
||-----------------------|---------------------------|
||o----------------------|---------------------------|
||-----------------------|---------------------------|
||-----------------------|---------------------------|
||o-5-5-5-5---5-5-5------|-5-5-5-----5-5-5-5-5-5-----|
||--5-5-5-5---5-5-5------|-5-5-5-----5-5-5-5-5-5-----|
|
|   Gtr II
|   TP      TPTPTP   TPTP  TP    TPTPTP      TP  TP
||-----------------------|-------------------------|
||o----------------------|-------------------------|
||-----------------------|-------------------------|
||--5-------0-4-5----0-4-|-5-----0-5-8-------0---8-|
||o----------------------|-------------------------|
||-----------------------|-------------------------|


                           1.                           2.
  G5
   PM-------------|    PM----|      PM--------------------|      PM-------------|
|------------------------|---------------------------||-------------------------|
|------------------------|--------------------------o||-------------------------|
|------------------------|---------------------------||-------------------------|
|------------------------|---------------------------||-------------------------|
|--5-5-5-5---5--5-5----5-|-5-5------5-5-5-5-5-5-5-5-o||-5-5------5-5-5-5-5------|
|--5-5-5-5---5--5-5----5-|-5-5------5-5-5-5-5-5-5-5--||-5-5------5-5-5-5-5------|
|
|  TP      TPTP TP   TPTP  TP   TPTPTP      TP  TP      TP   TPTPTP      TP TP
|------------------------|---------------------------||-----------------------|
|------------------------|--------------------------o||-----------------------|
|------------------------|---------------------------||-----------------------|
|-12-------0-8-12----0-8-|-7----0-5-4-------0---4----||-7----0-5-4-------0--4-|
|------------------------|--------------------------o||-----------------------|
|------------------------|---------------------------||-----------------------|


    G5
    Gtr I
    TP      TPTPTP   TPTP  TP    TPTP TP      TP   TP
||-----------------------|---------------------------|
||o----------------------|---------------------------|
||-----------------------|---------------------------|
||--5-------0-4-5----0-4-|-5-----0-5--8-------0----8-|
||o----------------------|---------------------------|
||-----------------------|---------------------------|
|
|   Gtr III
|   TP      TPTPTP   TPTP  TP    TPTP TP      TP   TP
||-----------------------|---------------------------|
||o----------------------|---------------------------|
||-----------------------|---------------------------|
||--8-------0-7-8----0-7-|-8-----0-8-12-------0---12-|
||o----------------------|---------------------------|
||-----------------------|---------------------------|
|
|   Gtr II
|   PM------------|        PM--|      PM---------------|
||-----------------------|-----------------------------|
||o----------------------|-----------------------------|
||-----------------------|-----------------------------|
||-----------------------|-----------------------------|
||o-5-5-5-5---5-5-5------|-5-5-5------5-5-5-5-5-5------|
||--5-5-5-5---5-5-5------|-5-5-5------5-5-5-5-5-5------|


  G5
   TP      TP TP TP   TP TP   TP   TPTPTP      TP  TP
|--------------------------|---------------------------|
|--------------------------|---------------------------|
|--------------------------|---------------------------|
|-12-------0--8-12----0--8-|--7----0-5-4-------0---4---|
|--------------------------|---------------------------|
|--------------------------|---------------------------|
|
|  TP      TP TP TP   TP TP   TP   TPTPTP      TP  TP
|--------------------------|---------------------------|
|--------------------------|---------------------------|
|--------------------------|---------------------------|
|-17-------0-12-17----0-12-|-10----0-8-7-------0---7---|
|--------------------------|---------------------------|
|--------------------------|---------------------------|
|
|  PM--------------|     PM-----|      PM----------------|
|--------------------------|-----------------------------|
|--------------------------|-----------------------------|
|--------------------------|-----------------------------|
|--------------------------|-----------------------------|
|--5-5-5-5----5--5-5-----5-|--5-5------5-5-5-5-5-5-5-5---|
|--5-5-5-5----5--5-5-----5-|--5-5------5-5-5-5-5-5-5-5---|


  G5
  TP      TPTPTP   TPTP  TP    TPTP TP      TP   TP
|----------------------|---------------------------|
|----------------------|---------------------------|
|----------------------|---------------------------|
|-5-------0-4-5----0-4-|-5-----0-5--8-------0----8-|
|----------------------|---------------------------|
|----------------------|---------------------------|
|
| TP      TPTPTP   TPTP  TP    TPTP TP      TP   TP
|----------------------|---------------------------|
|----------------------|---------------------------|
|----------------------|---------------------------|
|-8-------0-7-8----0-7-|-8-----0-8-12-------0---12-|
|----------------------|---------------------------|
|----------------------|---------------------------|
|
| PM------------|        PM--|      PM---------------|
|----------------------|-----------------------------|
|----------------------|-----------------------------|
|----------------------|-----------------------------|
|----------------------|-----------------------------|
|-5-5-5-5---5-5-5------|-5-5-5------5-5-5-5-5-5------|
|-5-5-5-5---5-5-5------|-5-5-5------5-5-5-5-5-5------|


  G5
   TP      TP TP TP   TP TP   TP   TPTPTP      TP TP
|--------------------------|-------------------------||
|--------------------------|------------------------o||
|--------------------------|-------------------------||
|-12-------0--8-12----0--8-|--7----0-5-4-------0--4--||
|--------------------------|------------------------o||
|--------------------------|-------------------------||
|
|  TP      TP TP TP   TP TP   TP   TPTPTP      TP TP
|--------------------------|-------------------------||
|--------------------------|------------------------o||
|--------------------------|-------------------------||
|-17-------0-12-17----0-12-|-10----0-8-7-------0--7--||
|--------------------------|------------------------o||
|--------------------------|-------------------------||
|
|  PM--------------|     PM-----|      PM---------------|
|--------------------------|----------------------------|
|--------------------------|------------------------o---|
|--------------------------|----------------------------|
|--------------------------|----------------------------|
|--5-5-5-5----5--5-5-----5-|--5-5------5-5-5-5-5----o---|
|--5-5-5-5----5--5-5-----5-|--5-5------5-5-5-5-5--------|
comments
print report bad tab
3 comments total.
0 reply
adtthosa wrote on July 30 2007, 02:01 pm

There's a powertab version for this as well, but they haven't accepted it yet, so just work off this for now.

0 reply
THEhardcoreSIHT wrote on July 30 2007, 03:14 pm

very nice as always, cant wait for redemption though

0 reply
Raygunn wrote on April 12 2012, 12:03 am

amazing tab, only suggestion i have is if you could tab the timing for alot of it, especially the rhythm guitar, i'm no so worried about the lead. great job though, thanks :)

I want to post or [tab]
guest
You may want to rate the tab now too:
select rating
Please do not post tabs as comments. Select "correction" instead!