Oops, an error
Loading. Please wait.

Carpe Diem Tab

ver1
ver1

Intro

Whole song

Interactive

More versions @911Tabs.com
2,001 views 15 this week
1 commentread comment
1 2 3 4 5
excellent!
x 2
Autoscroll
+/-
esc
set tempo
stop
Difficulty
Tuning
intermediate
C G C F A D
NEW! There's an official Ultimate Guitar app which is ideal
for learning songs when you're away from computer. Get the app
WARNING: You are trying to view
                                    content from Ultimate-Guitar.com
                                    in an unauthorized application,
                                    which is prohibited.

                                    Please use an official Ultimate
                                    Guitar Tabs application for iPhone,
                                    iPad or Android to access legitimate
                                    chords, guitar, bass, and drum tabs
                                    from Ultimate-Guitar.com database.

                                    Type "ultimate guitar tabs" in Apple
                                    App Store's or Android Market's
                                    search to find the application.
Lead
Drop C (CGCFAD)

Legend
L - tied note
x - dead note
h - hammer on/pull off
b - bend
s - slide
~ - vibrato
g - ghost note
> - accentuated note
t - trill
M - palm mute
. - staccato
P - popping (bass)
S - slapping (bass)
+ - tapping
W - wide vibrato
< - fade in
w - whammy bar
= - tremolo picking
v - brush up
^ - brush down
V - pick stroke up
n - pick stroke down

                                              ^              ^        ^        
D |-------|----|----|----|--3-----------------3-----3--------3--------3-------|
A |-------|----|----|----|-----3-----3--------3--------3-----3--------3-------|
F |-------|----|----|----|--------0-----------0-----------0--0--------0-------|
C |-------|----|----|----|----------------------------------------------------|
G |-------|----|----|----|----------------------------------------------------|
C |-------|----|----|----|----------------------------------------------------|

                    ^              ^        ^        
--3-----------------3-----3--------3--------3-------|
-----4-----4--------4--------4-----4--------4-------|
--------0-----------0-----------0--0--------0-------|
----------------------------------------------------|
----------------------------------------------------|
----------------------------------------------------|

                    ^              ^        ^        
--3-----------------3-----3--------3--------3-------|
-----1-----1--------1--------1-----1--------1-------|
--------0-----------0-----------0--0--------0-------|
----------------------------------------------------|
----------------------------------------------------|
----------------------------------------------------|

                    ^              ^        ^        
--3-----------------3-----3--------3--------3-------|
-----3-----3--------3--------3-----3--------3-------|
--------0-----------0-----------0--0--------0-------|
----------------------------------------------------|
----------------------------------------------------|
----------------------------------------------------|

                    ^              ^        ^        
--3-----------------3-----3--------3--------3-------|
-----3-----3--------3--------3-----3--------3-------|
--------0-----------0-----------0--0--------0-------|
----------------------------------------------------|
----------------------------------------------------|
----------------------------------------------------|

                    ^              ^        ^        
--3-----------------3-----3--------3--------3-------|
-----4-----4--------4--------4-----4--------4-------|
--------0-----------0-----------0--0--------0-------|
----------------------------------------------------|
----------------------------------------------------|
----------------------------------------------------|

                    ^              ^        ^        
--3-----------------3-----3--------3--------3-------|
-----1-----1--------1--------1-----1--------1-------|
--------0-----------0-----------0--0--------0-------|
----------------------------------------------------|
----------------------------------------------------|
----------------------------------------------------|

                    ^              ^        ^        
--3-----------------3-----3--------3--------3-------|
-----3-----3--------3--------3-----3--------3-------|
--------0-----------0-----------0--0--------0-------|
----------------------------------------------------|
----------------------------------------------------|
----------------------------------------------------|

                                                     
--15----------------15----------------15------------|
-----15----15----------15----15----------15----15---|
--------12----------------12----------------12------|
----------------------------------------------------|
----------------------------------------------------|
----------------------------------------------------|

                                                     
--15----------------15----------------15------------|
-----15----15----------15----15----------15----15---|
--------12----------------12----------------12------|
----------------------------------------------------|
----------------------------------------------------|
----------------------------------------------------|

                                                     
--15----------------15----------------15------------|
-----15----15----------15----15----------15----15---|
--------12----------------12----------------12------|
----------------------------------------------------|
----------------------------------------------------|
----------------------------------------------------|

                                                     
--15----------------15----------------15------------|
-----15----15----------15----15----------15----15---|
--------12----------------12----------------12------|
----------------------------------------------------|
----------------------------------------------------|
----------------------------------------------------|

                                                     
--15----------------15----------------15------------|
-----15----15----------15----15----------15----15---|
--------12----------------12----------------12------|
----------------------------------------------------|
----------------------------------------------------|
----------------------------------------------------|

                                                     
--15----------------15----------------15------------|
-----15----15----------15----15----------15----15---|
--------12----------------12----------------12------|
----------------------------------------------------|
----------------------------------------------------|
----------------------------------------------------|

                                                     
--15----------------15----------------15------------|
-----15----15----------15----15----------15----15---|
--------12----------------12----------------12------|
----------------------------------------------------|
----------------------------------------------------|
----------------------------------------------------|

                                                     
--15----------15----------15----------15------------|
-----15----15----15----15----15----15---------------|
--------12----------12----------12------------------|
----------------------------------------------------|
----------------------------------------------------|
----------------------------------------------------|

                                                     
----------------------------------------------------|
----------------------------------------------------|
----------------------------------------------------|
--5--5--5--5--5--5--5--5--5--5--5--5--5--3--3--3----|
--5--5--5--5--5--5--5--5--5--5--5--5--5--3--3--3----|
--5--5--5--5--5--5--5--5--5--5--5--5--5--3--3--3----|

                                                     
----------------------------------------------------|
----------------------------------------------------|
----------------------------------------------------|
--3s-5--5--5--5--5--5--5--5--5--5--5--5--3--3--3----|
--3s-5--5--5--5--5--5--5--5--5--5--5--5--3--3--3----|
--3s-5--5--5--5--5--5--5--5--5--5--5--5--3--3--3----|

                                                     
----------------------------------------------------|
----------------------------------------------------|
--8--8--8--8--8--8--8--8--8--8--8--8--8--8--8--8----|
--8--8--8--8--8--8--8--8--8--8--8--8--8--8--8--8----|
--6--6--6--6--6--6--6--6--6--6--6--6--6--6--6--6----|
----------------------------------------------------|

                                                     
----------------------------------------------------|
----------------------------------------------------|
--5--5--5--5--5--5--5--5--5--5--5--5--5--5--5--5----|
--5--5--5--5--5--5--5--5--5--5--5--5--5--5--5--5----|
--3--3--3--3--3--3--3--3--3--3--3--3--3--3--3--3----|
----------------------------------------------------|

                                                     
----------------------------------------------------|
----------------------------------------------------|
----------------------------------------------------|
--5--5--5--5--5--5--5--5--5--5--5--5--5--3--3--3----|
--5--5--5--5--5--5--5--5--5--5--5--5--5--3--3--3----|
--5--5--5--5--5--5--5--5--5--5--5--5--5--3--3--3----|

                                                     
----------------------------------------------------|
----------------------------------------------------|
----------------------------------------------------|
--3s-5--5--5--5--5--5--5--5--5--5--5--5--3--3--3----|
--3s-5--5--5--5--5--5--5--5--5--5--5--5--3--3--3----|
--3s-5--5--5--5--5--5--5--5--5--5--5--5--3--3--3----|

                                                     
----------------------------------------------------|
----------------------------------------------------|
--8--8--8--8--8--8--8--8--8--8--8--8--8--8--8--8----|
--8--8--8--8--8--8--8--8--8--8--8--8--8--8--8--8----|
--6--6--6--6--6--6--6--6--6--6--6--6--6--6--6--6----|
----------------------------------------------------|

                                                     
----------------------------------------------------|
----------------------------------------------------|
--5--5--5--5--5--5--5--5----------------------------|
--5--5--5--5--5--5--5--5--3--3--3--3--3--3--3--3----|
--3--3--3--3--3--3--3--3--3--3--3--3--3--3--3--3----|
--------------------------3--3--3--3--3--3--3--3----|

                    ^              ^        ^        
--3-----------------3-----3--------3--------3-------|
-----3-----3--------3--------3-----3--------3-------|
--------0-----------0-----------0--0--------0-------|
----------------------------------------------------|
----------------------------------------------------|
----------------------------------------------------|

                    ^              ^        ^        
--3-----------------3-----3--------3--------3-------|
-----3-----3--------3--------3-----3--------3-------|
--------0-----------0-----------0--0--------0-------|
----------------------------------------------------|
----------------------------------------------------|
----------------------------------------------------|

                    ^              ^        ^        
--3-----------------3-----3--------3--------3-------|
-----4-----4--------4--------4-----4--------4-------|
--------0-----------0-----------0--0--------0-------|
----------------------------------------------------|
----------------------------------------------------|
----------------------------------------------------|

                    ^              ^        ^        
--3-----------------3-----3--------3--------3-------|
-----1-----1--------1--------1-----1--------1-------|
--------0-----------0-----------0--0--------0-------|
----------------------------------------------------|
----------------------------------------------------|
----------------------------------------------------|

                    ^              ^        ^        
--3-----------------3-----3--------3--------3-------|
-----3-----3--------3--------3-----3--------3-------|
--------0-----------0-----------0--0--------0-------|
----------------------------------------------------|
----------------------------------------------------|
----------------------------------------------------|

                    ^              ^        ^        
--3-----------------3-----3--------3--------3-------|
-----3-----3--------3--------3-----3--------3-------|
--------0-----------0-----------0--0--------0-------|
----------------------------------------------------|
----------------------------------------------------|
----------------------------------------------------|

                    ^              ^        ^        
--3-----------------3-----3--------3--------3-------|
-----4-----4--------4--------4-----4--------4-------|
--------0-----------0-----------0--0--------0-------|
----------------------------------------------------|
----------------------------------------------------|
----------------------------------------------------|

                    ^              ^        ^
--3-----------------3-----3--------3--------3-------|
-----1-----1--------1--------1-----1--------1-------|
--------0-----------0-----------0--0--------0-------|
----------------------------------------------------|
----------------------------------------------------|
----------------------------------------------------|


----------------------------------------------------|
----------------------------------------------------|
--12s12-12-12-12------------------------------------|
--13s13-13-13-13------------------------------------|
----------------------------------------------------|
----------------------------------------------------|


----------------------------------------------------|-------|
----------------------------------------------------|-------|
--------------12L---------------------12------------|--15---|
--------13-12---------------------------------------|-------|
--10s13---------------------------------------------|-------|
----------------------------------------------------|-------|


-----15L---------------------------------15---------|
----------------------------------------------------|
--12------------------------------------------------|
----------------------------------------------------|
----------------------------------------------------|
----------------------------------------------------|


----------------------------------------------------|-------|----|----|----|
--------------------------16-------15-------13L-----|--13---|----|----|----|
----------------------------------------------------|-------|----|----|----|
--------13-12-12------------------------------------|-------|----|----|----|
--10s13---------------------------------------------|-------|----|----|----|
----------------------------------------------------|-------|----|----|----|


----|----|----|----|----|----|----|----|----|----|----|----|----|----|----|----|
----|----|----|----|----|----|----|----|----|----|----|----|----|----|----|----|
----|----|----|----|----|----|----|----|----|----|----|----|----|----|----|----|
----|----|----|----|----|----|----|----|----|----|----|----|----|----|----|----|
----|----|----|----|----|----|----|----|----|----|----|----|----|----|----|----|
----|----|----|----|----|----|----|----|----|----|----|----|----|----|----|----|


----|----|----|----------------------------|----------------------------|
----|----|----|--8--8--11-8L-8--8--11-8----|--8--8--11-8L-8--8--11-8----|
----|----|----|----------------------------|----------------------------|
----|----|----|----------------------------|----------------------------|
----|----|----|----------------------------|----------------------------|
----|----|----|----------------------------|----------------------------|


----------------------------|----------------------------|
--8--8--11-8L-8--8--11-8----|--8--8--11-8L----8--6s------|
----------------------------|----------------------------|
----------------------------|----------------------------|
----------------------------|----------------------------|
----------------------------|----------------------------|


----------------------------|----------------------------|
--8L----------8L-8s-10s-----|--11L---------11L11s13s-----|
----------------------------|----------------------------|
----------------------------|----------------------------|
----------------------------|----------------------------|
----------------------------|----------------------------|


----------------------------|-------|
--15L---------15L15s18s-----|--20---|
----------------------------|-------|
----------------------------|-------|
----------------------------|-------|
----------------------------|-------|


----------------------------------------------------|
----------------------------------------------------|
----------------------------------------------------|
--5--5--5--5--5--5--5--5--5--5--5--5--5--3--3--3----|
--5--5--5--5--5--5--5--5--5--5--5--5--5--3--3--3----|
--5--5--5--5--5--5--5--5--5--5--5--5--5--3--3--3----|


----------------------------------------------------|
----------------------------------------------------|
----------------------------------------------------|
--3s-5--5--5--5--5--5--5--5--5--5--5--5--3--3--3----|
--3s-5--5--5--5--5--5--5--5--5--5--5--5--3--3--3----|
--3s-5--5--5--5--5--5--5--5--5--5--5--5--3--3--3----|


----------------------------------------------------|
----------------------------------------------------|
--8--8--8--8--8--8--8--8--8--8--8--8--8--8--8--8----|
--8--8--8--8--8--8--8--8--8--8--8--8--8--8--8--8----|
--6--6--6--6--6--6--6--6--6--6--6--6--6--6--6--6----|
----------------------------------------------------|


----------------------------------------------------|
----------------------------------------------------|
--5--5--5--5--5--5--5--5--5--5--5--5--5--5--5--5----|
--5--5--5--5--5--5--5--5--5--5--5--5--5--5--5--5----|
--3--3--3--3--3--3--3--3--3--3--3--3--3--3--3--3----|
----------------------------------------------------|


----------------------------------------------------|
----------------------------------------------------|
----------------------------------------------------|
--5--5--5--5--5--5--5--5--5--5--5--5--5--3--3--3----|
--5--5--5--5--5--5--5--5--5--5--5--5--5--3--3--3----|
--5--5--5--5--5--5--5--5--5--5--5--5--5--3--3--3----|


----------------------------------------------------|
----------------------------------------------------|
----------------------------------------------------|
--3s-5--5--5--5--5--5--5--5--5--5--5--5--3--3--3----|
--3s-5--5--5--5--5--5--5--5--5--5--5--5--3--3--3----|
--3s-5--5--5--5--5--5--5--5--5--5--5--5--3--3--3----|


----------------------------------------------------|
----------------------------------------------------|
--8--8--8--8--8--8--8--8--8--8--8--8--8--8--8--8----|
--8--8--8--8--8--8--8--8--8--8--8--8--8--8--8--8----|
--6--6--6--6--6--6--6--6--6--6--6--6--6--6--6--6----|
----------------------------------------------------|


----------------------------------------------------|
--------------------------------------16------------|
--5--5--5--5--5--5--5--5----------------------------|
--5--5--5--5--5--5--5--5--3--3--3--3----------------|
--3--3--3--3--3--3--3--3--3--3--3--3----------------|
--------------------------3--3--3--3----------------|


----------------------------|----------------------------|
--15-------15-13-16-16-15---|--15-------15-20-20-20-16---|
----------------------------|----------------------------|
----------------------------|----------------------------|
----------------------------|----------------------------|
----------------------------|----------------------------|


----------------------------|----------------------------|
--15-------15-13-16-16-15---|--15-------15-10-11-11-13---|
----------------------------|----------------------------|
----------------------------|----------------------------|
----------------------------|----------------------------|
----------------------------|----------------------------|


----------------------------|----------------------------|
--15-------15-13-16-16-15---|--15-------15-20-20-20-16---|
----------------------------|----------------------------|
----------------------------|----------------------------|
----------------------------|----------------------------|
----------------------------|----------------------------|


----------------------------|----------------------------|
--15-------15-13-16-16-15---|--15-------15-10-11-11-13---|
----------------------------|----------------------------|
----------------------------|----------------------------|
----------------------------|----------------------------|
----------------------------|----------------------------|


----------------------------|----------------------------|-------|
--15-------15-13----16------|--15L------15-20----16------|--15---|
----------------------------|----------------------------|-------|
----------------------------|----------------------------|-------|
----------------------------|----------------------------|-------|
----------------------------|----------------------------|-------|


----------------------------|
--11L------11-10L---10------|
----------------------------|
----------------------------|
----------------------------|
----------------------------|


----------------------------------------------------|
----------------------------------------------------|
--------------------12-------12-------------12------|
-----13-12----12-13----12-------13-12-10-12----13---|
--10-------10---------------------------------------|
----------------------------------------------------|


--------------------15-------15-------------15------|
-----15-13----13-15----15-------15----13-15----15---|
--12-------12----------------------12---------------|
----------------------------------------------------|
----------------------------------------------------|
----------------------------------------------------|


----------------------------------------------------||
----------------------------------------------------||
----------------------------------------------------||
--5-------------------------------------------------||
--5-------------------------------------------------||
--5-------------------------------------------------||
_________________________________________________________________________
______________________________________________________________
__________________________________________

Rhythm
Drop C (CGCFAD)

Legend
L - tied note
x - dead note
h - hammer on/pull off
b - bend
s - slide
~ - vibrato
g - ghost note
> - accentuated note
t - trill
M - palm mute
. - staccato
P - popping (bass)
S - slapping (bass)
+ - tapping
W - wide vibrato
< - fade in
w - whammy bar
= - tremolo picking
v - brush up
^ - brush down
V - pick stroke up
n - pick stroke down


D |----------------------------------------------------|
A |----------------------------------------------------|
F |--0--------0--------0--------0--------0-----0-------|
C |-----5--5-----5--5-----5--5-----5--5-----5-----5----|
G |----------------------------------------------------|
C |----------------------------------------------------|


----------------------------------------------------|
----------------------------------------------------|
--0--------0--------0--------0--------0-----0-------|
-----5--5-----5--5-----5--5-----5--5-----5-----5----|
----------------------------------------------------|
----------------------------------------------------|


----------------------------------------------------|
----------------------------------------------------|
--0--------0--------0--------0--------0-----0-------|
-----5--5-----5--5-----5--5-----5--5-----5-----5----|
----------------------------------------------------|
----------------------------------------------------|


----------------------------------------------------|
----------------------------------------------------|
--0--------0--------0--------0--------0-----0-------|
-----5--5-----5--5-----5--5-----5--5-----5-----5----|
----------------------------------------------------|
----------------------------------------------------|


----------------------------------------------------|
----------------------------------------------------|
--0--------0--------0--------0--------0-----0-------|
-----5--5-----5--5-----5--5-----5--5-----5-----5----|
----------------------------------------------------|
----------------------------------------------------|


----------------------------------------------------|
----------------------------------------------------|
--0--------0--------0--------0--------0-----0-------|
-----5--5-----5--5-----5--5-----5--5-----5-----5----|
----------------------------------------------------|
----------------------------------------------------|


----------------------------------------------------|
----------------------------------------------------|
--0--------0--------0--------0--------0-----0-------|
-----5--5-----5--5-----5--5-----5--5-----5-----5----|
----------------------------------------------------|
----------------------------------------------------|


----------------------------------------------------|
----------------------------------------------------|
--0--------0--------0--------0--------0-----0-------|
-----5--5-----5--5-----5--5-----5--5-----5-----5----|
----------------------------------------------------|
----------------------------------------------------|


----------------------------------------------------|
----------------------------------------------------|
--0--------0--------0--------0--------0-----0-------|
-----5--5-----5--5-----5--5-----5--5-----5-----5----|
----------------------------------------------------|
----------------------------------------------------|


----------------------------------------------------|
----------------------------------------------------|
--0--------0--------0--------0--------0-----0-------|
-----5--5-----5--5-----5--5-----5--5-----5-----5----|
----------------------------------------------------|
----------------------------------------------------|


----------------------------------------------------|
----------------------------------------------------|
--0--------0--------0--------0--------0-----0-------|
-----5--5-----5--5-----5--5-----5--5-----5-----5----|
----------------------------------------------------|
----------------------------------------------------|


----------------------------------------------------|
----------------------------------------------------|
--0--------0--------0--------0--------0-----0-------|
-----5--5-----5--5-----5--5-----5--5-----5-----5----|
----------------------------------------------------|
----------------------------------------------------|


----------------------------------------------------|
----------------------------------------------------|
--0--------0--------0--------0--------0-----0-------|
-----5--5-----5--5-----5--5-----5--5-----5-----5----|
----------------------------------------------------|
----------------------------------------------------|


----------------------------------------------------|
----------------------------------------------------|
--0--------0--------0--------0--------0-----0-------|
-----5--5-----5--5-----5--5-----5--5-----5-----5----|
----------------------------------------------------|
----------------------------------------------------|


----------------------------------------------------|
----------------------------------------------------|
--0--------0--------0--------0--------0-----0-------|
-----5--5-----5--5-----5--5-----5--5-----5-----5----|
----------------------------------------------------|
----------------------------------------------------|


----------------------------------------------------|
----------------------------------------------------|
--0--------0--------0--------0--------0-----0-------|
-----5--5-----5--5-----5--5-----5--5-----5-----5----|
----------------------------------------------------|
----------------------------------------------------|


----------------------------------------------------|
----------------------------------------------------|
--12-12-12-12-12-12-12-12-12-12-12-12-14-14-14-14---|
----------------------------------------------------|
----------------------------------------------------|
----------------------------------------------------|


----------------------------------------------------|
--------------------------------------13-13-13-13---|
--15-15-15-15-15-15-15-15-15-15-15-15---------------|
----------------------------------------------------|
----------------------------------------------------|
----------------------------------------------------|


----------------------------------------------------|
--15-15-15-15-15-15-15-15-15-15-15-15-15-15-15-15---|
----------------------------------------------------|
----------------------------------------------------|
----------------------------------------------------|
----------------------------------------------------|


----------------------------------------------------|
----------------------------------------------------|
----------------------------------------------------|
--5--5--5--5--5--5--5--5--5--5--5--5--5-------------|
--5--5--5--5--5--5--5--5--5--5--5--5--5-------------|
--5--5--5--5--5--5--5--5--5--5--5--5--5-------------|


----------------------------------------------------|
----------------------------------------------------|
----------------------------------------------------|
--5--5--5--5--5--5--5--5--5--5--5--5--5--3--3--3----|
--5--5--5--5--5--5--5--5--5--5--5--5--5--3--3--3----|
--5--5--5--5--5--5--5--5--5--5--5--5--5--3--3--3----|


----------------------------------------------------|
----------------------------------------------------|
----------------------------------------------------|
--3s-5--5--5--5--5--5--5--5--5--5--5--5--3--3--3----|
--3s-5--5--5--5--5--5--5--5--5--5--5--5--3--3--3----|
--3s-5--5--5--5--5--5--5--5--5--5--5--5--3--3--3----|


----------------------------------------------------|
----------------------------------------------------|
--8--8--8--8--8--8--8--8--8--8--8--8--8--8--8--8----|
--8--8--8--8--8--8--8--8--8--8--8--8--8--8--8--8----|
--6--6--6--6--6--6--6--6--6--6--6--6--6--6--6--6----|
----------------------------------------------------|


----------------------------------------------------|
----------------------------------------------------|
--5--5--5--5--5--5--5--5--5--5--5--5--5--5--5--5----|
--5--5--5--5--5--5--5--5--5--5--5--5--5--5--5--5----|
--3--3--3--3--3--3--3--3--3--3--3--3--3--3--3--3----|
----------------------------------------------------|


----------------------------------------------------|
----------------------------------------------------|
----------------------------------------------------|
--5--5--5--5--5--5--5--5--5--5--5--5--5--3--3--3----|
--5--5--5--5--5--5--5--5--5--5--5--5--5--3--3--3----|
--5--5--5--5--5--5--5--5--5--5--5--5--5--3--3--3----|


----------------------------------------------------|
----------------------------------------------------|
----------------------------------------------------|
--3s-5--5--5--5--5--5--5--5--5--5--5--5--3--3--3----|
--3s-5--5--5--5--5--5--5--5--5--5--5--5--3--3--3----|
--3s-5--5--5--5--5--5--5--5--5--5--5--5--3--3--3----|


----------------------------------------------------|
----------------------------------------------------|
--8--8--8--8--8--8--8--8--8--8--8--8--8--8--8--8----|
--8--8--8--8--8--8--8--8--8--8--8--8--8--8--8--8----|
--6--6--6--6--6--6--6--6--6--6--6--6--6--6--6--6----|
----------------------------------------------------|


----------------------------------------------------|
----------------------------------------------------|
--5--5--5--5--5--5--5--5----------------------------|
--5--5--5--5--5--5--5--5--3--3--3--3--3--3--3--3----|
--3--3--3--3--3--3--3--3--3--3--3--3--3--3--3--3----|
--------------------------3--3--3--3--3--3--3--3----|


----------------------------------------------------|
----------------------------------------------------|
----------------------------------------------------|
--5--5--5--5--5--5--5--5--5--5--5--5--5--3--3--3----|
--5--5--5--5--5--5--5--5--5--5--5--5--5--3--3--3----|
--5--5--5--5--5--5--5--5--5--5--5--5--5--3--3--3----|


----------------------------------------------------|
----------------------------------------------------|
----------------------------------------------------|
--3s-5--5--5--5--5--5--5--5--5--5--5--5--3--3--3----|
--3s-5--5--5--5--5--5--5--5--5--5--5--5--3--3--3----|
--3s-5--5--5--5--5--5--5--5--5--5--5--5--3--3--3----|


----------------------------------------------------|
----------------------------------------------------|
--8--8--8--8--8--8--8--8--8--8--8--8--8--8--8--8----|
--8--8--8--8--8--8--8--8--8--8--8--8--8--8--8--8----|
--6--6--6--6--6--6--6--6--6--6--6--6--6--6--6--6----|
----------------------------------------------------|


----------------------------------------------------|
----------------------------------------------------|
--5--5--5--5--5--5--5--5--5--5--5--5--5--5--5--5----|
--5--5--5--5--5--5--5--5--5--5--5--5--5--5--5--5----|
--3--3--3--3--3--3--3--3--3--3--3--3--3--3--3--3----|
----------------------------------------------------|


----------------------------------------------------|
----------------------------------------------------|
----------------------------------------------------|
--5--5--5--5--5--5--5--5--5--5--5--5--5--3--3--3----|
--5--5--5--5--5--5--5--5--5--5--5--5--5--3--3--3----|
--5--5--5--5--5--5--5--5--5--5--5--5--5--3--3--3----|


----------------------------------------------------|
----------------------------------------------------|
----------------------------------------------------|
--3s-5--5--5--5--5--5--5--5--5--5--5--5--3--3--3----|
--3s-5--5--5--5--5--5--5--5--5--5--5--5--3--3--3----|
--3s-5--5--5--5--5--5--5--5--5--5--5--5--3--3--3----|


----------------------------------------------------|
----------------------------------------------------|
--8--8--8--8--8--8--8--8--8--8--8--8--8--8--8--8----|
--8--8--8--8--8--8--8--8--8--8--8--8--8--8--8--8----|
--6--6--6--6--6--6--6--6--6--6--6--6--6--6--6--6----|
----------------------------------------------------|


----------------------------------------------------|
----------------------------------------------------|
--5--5--5--5--5--5--5--5----------------------------|
--5--5--5--5--5--5--5--5--3--3--3--3--3--3--3--3----|
--3--3--3--3--3--3--3--3--3--3--3--3--3--3--3--3----|
--------------------------3--3--3--3--3--3--3--3----|


----------------------------------------------------|
----------------------------------------------------|
--12s12-12-12-12------------------------------------|
--13s13-13-13-13------------------------------------|
----------------------------------------------------|
----------------------------------------------------|


----------------------------------------------------|
----------------------------------------------------|
--------------12L---------------------12------------|
--------13-12---------------------------------------|
--10s13---------------------------------------------|
----------------------------------------------------|


----------------------------------------------------|
----------------------------------------------------|
----------------------------------------------------|
--5--5-----5--5--5--5--5-----5--5--5--5--5--5--5----|
--5--5-----5--5--5--5--5-----5--5--5--5--5--5--5----|
--5--5-----5--5--5--5--5-----5--5--5--5--5--5--5----|


----------------------------------------------------|
----------------------------------------------------|
----------------------------------------------------|
--5--5-----5--5--5--5--5-----5--5--5--5--5--5--5----|
--5--5-----5--5--5--5--5-----5--5--5--5--5--5--5----|
--5--5-----5--5--5--5--5-----5--5--5--5--5--5--5----|


----------------------------------------------------|
----------------------------------------------------|
----------------------------------------------------|
--------13-12-12L---------------------12------------|
--10s13---------------------------------------------|
----------------------------------------------------|


----------------------------------------------------|----|----|----|----|----|
----------------------------------------------------|----|----|----|----|----|
--------------12L---------------------12------------|----|----|----|----|----|
--------13-12---------------------------------------|----|----|----|----|----|
--10s13---------------------------------------------|----|----|----|----|----|
----------------------------------------------------|----|----|----|----|----|


----|----|----|----|----|----|----|----|----|----|----|----|----|----|----|----|
----|----|----|----|----|----|----|----|----|----|----|----|----|----|----|----|
----|----|----|----|----|----|----|----|----|----|----|----|----|----|----|----|
----|----|----|----|----|----|----|----|----|----|----|----|----|----|----|----|
----|----|----|----|----|----|----|----|----|----|----|----|----|----|----|----|
----|----|----|----|----|----|----|----|----|----|----|----|----|----|----|----|


----|----------------------------------------------------|
----|----------------------------------------------------|
----|--8--8--8--8--8--8--8--8--8--8--8--8--8--8--8--8----|
----|--8--8--8--8--8--8--8--8--8--8--8--8--8--8--8--8----|
----|--6--6--6--6--6--6--6--6--6--6--6--6--6--6--6--6----|
----|----------------------------------------------------|


----------------------------------------------------|
----------------------------------------------------|
----------------------------------------------------|
--5--5--5--5--5--5--5--5--5--5--5--5--5--5--5--5----|
--5--5--5--5--5--5--5--5--5--5--5--5--5--5--5--5----|
--5--5--5--5--5--5--5--5--5--5--5--5--5--5--5--5----|


----------------------------------------------------|
----------------------------------------------------|
--8--8--8--8--8--8--8--8--8--8--8--8--8--8--8--8----|
--8--8--8--8--8--8--8--8--8--8--8--8--8--8--8--8----|
--6--6--6--6--6--6--6--6--6--6--6--6--6--6--6--6----|
----------------------------------------------------|


----------------------------------------------------|
----------------------------------------------------|
----------------------------------------------------|
--5--5--5--5--5--5--5--5--5--5--5--5--5--5--5--5----|
--5--5--5--5--5--5--5--5--5--5--5--5--5--5--5--5----|
--5--5--5--5--5--5--5--5--5--5--5--5--5--5--5--5----|


----------------------------------------------------|
----------------------------------------------------|
--8--8--8--8--8--8--8--8--8--8--8--8--8--8--8--8----|
--8--8--8--8--8--8--8--8--8--8--8--8--8--8--8--8----|
--6--6--6--6--6--6--6--6--6--6--6--6--6--6--6--6----|
----------------------------------------------------|


----------------------------------------------------|
----------------------------------------------------|
----------------------------------------------------|
--5--5--5--5--5--5--5--5--5--5--5--5--5--5--5--5----|
--5--5--5--5--5--5--5--5--5--5--5--5--5--5--5--5----|
--5--5--5--5--5--5--5--5--5--5--5--5--5--5--5--5----|


----------------------------------------------------|
----------------------------------------------------|
--8--8--8--8--8--8--8--8--8--8--8--8--8--8--8--8----|
--8--8--8--8--8--8--8--8--8--8--8--8--8--8--8--8----|
--6--6--6--6--6--6--6--6--6--6--6--6--6--6--6--6----|
----------------------------------------------------|


----------------------------------------------------|
----------------------------------------------------|
----------------------------------------------------|
--5--5--5--5--5--5--5--5--5--5--5--5--5--5--5--5----|
--5--5--5--5--5--5--5--5--5--5--5--5--5--5--5--5----|
--5--5--5--5--5--5--5--5--5--5--5--5--5--5--5--5----|


----------------------------------------------------|
----------------------------------------------------|
----------------------------------------------------|
--5--5--5--5--5--5--5--5--5--5--5--5--5--3--3--3----|
--5--5--5--5--5--5--5--5--5--5--5--5--5--3--3--3----|
--5--5--5--5--5--5--5--5--5--5--5--5--5--3--3--3----|


----------------------------------------------------|
----------------------------------------------------|
----------------------------------------------------|
--3s-5--5--5--5--5--5--5--5--5--5--5--5--3--3--3----|
--3s-5--5--5--5--5--5--5--5--5--5--5--5--3--3--3----|
--3s-5--5--5--5--5--5--5--5--5--5--5--5--3--3--3----|


----------------------------------------------------|
----------------------------------------------------|
--8--8--8--8--8--8--8--8--8--8--8--8--8--8--8--8----|
--8--8--8--8--8--8--8--8--8--8--8--8--8--8--8--8----|
--6--6--6--6--6--6--6--6--6--6--6--6--6--6--6--6----|
----------------------------------------------------|


----------------------------------------------------|
----------------------------------------------------|
--5--5--5--5--5--5--5--5--5--5--5--5--5--5--5--5----|
--5--5--5--5--5--5--5--5--5--5--5--5--5--5--5--5----|
--3--3--3--3--3--3--3--3--3--3--3--3--3--3--3--3----|
----------------------------------------------------|


----------------------------------------------------|
----------------------------------------------------|
----------------------------------------------------|
--5--5--5--5--5--5--5--5--5--5--5--5--5--3--3--3----|
--5--5--5--5--5--5--5--5--5--5--5--5--5--3--3--3----|
--5--5--5--5--5--5--5--5--5--5--5--5--5--3--3--3----|


----------------------------------------------------|
----------------------------------------------------|
----------------------------------------------------|
--3s-5--5--5--5--5--5--5--5--5--5--5--5--3--3--3----|
--3s-5--5--5--5--5--5--5--5--5--5--5--5--3--3--3----|
--3s-5--5--5--5--5--5--5--5--5--5--5--5--3--3--3----|


----------------------------------------------------|
----------------------------------------------------|
--8--8--8--8--8--8--8--8--8--8--8--8--8--8--8--8----|
--8--8--8--8--8--8--8--8--8--8--8--8--8--8--8--8----|
--6--6--6--6--6--6--6--6--6--6--6--6--6--6--6--6----|
----------------------------------------------------|


----------------------------------------------------|
----------------------------------------------------|
--5--5--5--5--5--5--5--5----------------------------|
--5--5--5--5--5--5--5--5--3--3--3--3--3--3--3--3----|
--3--3--3--3--3--3--3--3--3--3--3--3--3--3--3--3----|
--------------------------3--3--3--3--3--3--3--3----|


----------------------------------------------------|
----------------------------------------------------|
----------------------------------------------------|
--5--5--5--5--5--5--5--5--5--5--5--5--5--3--3--3----|
--5--5--5--5--5--5--5--5--5--5--5--5--5--3--3--3----|
--5--5--5--5--5--5--5--5--5--5--5--5--5--3--3--3----|


----------------------------------------------------|
----------------------------------------------------|
----------------------------------------------------|
--3s-5--5--5--5--5--5--5--5--5--5--5--5--3--3--3----|
--3s-5--5--5--5--5--5--5--5--5--5--5--5--3--3--3----|
--3s-5--5--5--5--5--5--5--5--5--5--5--5--3--3--3----|


----------------------------------------------------|
----------------------------------------------------|
--8--8--8--8--8--8--8--8--8--8--8--8--8--8--8--8----|
--8--8--8--8--8--8--8--8--8--8--8--8--8--8--8--8----|
--6--6--6--6--6--6--6--6--6--6--6--6--6--6--6--6----|
----------------------------------------------------|


----------------------------------------------------|
----------------------------------------------------|
--5--5--5--5--5--5--5--5--5--5--5--5--5--5--5--5----|
--5--5--5--5--5--5--5--5--5--5--5--5--5--5--5--5----|
--3--3--3--3--3--3--3--3--3--3--3--3--3--3--3--3----|
----------------------------------------------------|


----------------------------------------------------|
----------------------------------------------------|
----------------------------------------------------|
--5--5--5--5--5--5--5--5--5--5--5--5--5--3--3--3----|
--5--5--5--5--5--5--5--5--5--5--5--5--5--3--3--3----|
--5--5--5--5--5--5--5--5--5--5--5--5--5--3--3--3----|


----------------------------------------------------|
----------------------------------------------------|
----------------------------------------------------|
--3s-5--5--5--5--5--5--5--5--5--5--5--5--3--3--3----|
--3s-5--5--5--5--5--5--5--5--5--5--5--5--3--3--3----|
--3s-5--5--5--5--5--5--5--5--5--5--5--5--3--3--3----|


----------------------------------------------------|
----------------------------------------------------|
--8--8--8--8--8--8--8--8--8--8--8--8--8--8--8--8----|
--8--8--8--8--8--8--8--8--8--8--8--8--8--8--8--8----|
--6--6--6--6--6--6--6--6--6--6--6--6--6--6--6--6----|
----------------------------------------------------|


----------------------------------------------------|
----------------------------------------------------|
--5--5--5--5--5--5--5--5----------------------------|
--5--5--5--5--5--5--5--5--3--3--3--3--3--3--3--3----|
--3--3--3--3--3--3--3--3--3--3--3--3--3--3--3--3----|
--------------------------3--3--3--3--3--3--3--3----|


----------------------------------------------------|
----------------------------------------------------|
----------------------------------------------------|
--5--5-----5--5--5--5--5-----5--5--3--3--5--5--5----|
--5--5-----5--5--5--5--5-----5--5--3--3--5--5--5----|
--5--5-----5--5--5--5--5-----5--5--3--3s-5--5--5----|


----------------------------------------------------|
----------------------------------------------------|
----------------------------------------------------|
--5--5-----5--5--5--5--5-----5--5--3--3--5--5--5----|
--5--5-----5--5--5--5--5-----5--5--3--3--5--5--5----|
--5--5-----5--5--5--5--5-----5--5--3--3s-5--5--5----|


----------------------------------------------------|
----------------------------------------------------|
--8--8-----8--8--8--8--8-----8--8--8--8--8--8--8----|
--8--8-----8--8--8--8--8-----8--8--8--8--8--8--8----|
--6--6-----6--6--6--6--6-----6--6--6--6--6--6--6----|
----------------------------------------------------|


----------------------------------------------------|
----------------------------------------------------|
--5--5-----5--5--5--5--5----------------------------|
--5--5-----5--5--5--5--5-----3--3--3--3--3--3--3----|
--3--3-----3--3--3--3--3-----3--3--3--3--3--3--3----|
-----------------------------3--3--3--3--3--3--3----|


----------------------------------------------------|
----------------------------------------------------|
----------------------------------------------------|
--5--5-----5--5--5--5--5-----5--5--5--5--5--5--5----|
--5--5-----5--5--5--5--5-----5--5--5--5--5--5--5----|
--5--5-----5--5--5--5--5-----5--5--5--5--5--5--5----|


----------------------------------------------------|
----------------------------------------------------|
----------------------------------------------------|
--5--5-----5--5--5--5--5-----5--5--5--5--5--5--5----|
--5--5-----5--5--5--5--5-----5--5--5--5--5--5--5----|
--5--5-----5--5--5--5--5-----5--5--5--5--5--5--5----|


----------------------------------------------------||
----------------------------------------------------||
----------------------------------------------------||
--5-------------------------------------------------||
--5-------------------------------------------------||
--5-------------------------------------------------||

_________________________________________________________________________
______________________________________________________________
____________________________________________

Lead (Clean)
Drop C (CGCFAD)

Legend
L - tied note
x - dead note
h - hammer on/pull off
b - bend
s - slide
~ - vibrato
g - ghost note
> - accentuated note
t - trill
M - palm mute
. - staccato
P - popping (bass)
S - slapping (bass)
+ - tapping
W - wide vibrato
< - fade in
w - whammy bar
= - tremolo picking
v - brush up
^ - brush down
V - pick stroke up
n - pick stroke down


D |----|----|----|----|----|----|----|----|----|----|----|----|----|----|----|
A |----|----|----|----|----|----|----|----|----|----|----|----|----|----|----|
F |----|----|----|----|----|----|----|----|----|----|----|----|----|----|----|
C |----|----|----|----|----|----|----|----|----|----|----|----|----|----|----|
G |----|----|----|----|----|----|----|----|----|----|----|----|----|----|----|
C |----|----|----|----|----|----|----|----|----|----|----|----|----|----|----|


----|----|----|----|----|----|----|----|----|----|----|----|----|----|----|----|
----|----|----|----|----|----|----|----|----|----|----|----|----|----|----|----|
----|----|----|----|----|----|----|----|----|----|----|----|----|----|----|----|
----|----|----|----|----|----|----|----|----|----|----|----|----|----|----|----|
----|----|----|----|----|----|----|----|----|----|----|----|----|----|----|----|
----|----|----|----|----|----|----|----|----|----|----|----|----|----|----|----|


----|----|----|----|----|----|----|----|----|----|----|--3----|----|--3----|
----|----|----|----|----|----|----|----|----|----|----|--3----|----|--3----|
----|----|----|----|----|----|----|----|----|----|----|--0----|----|--0----|
----|----|----|----|----|----|----|----|----|----|----|-------|----|-------|
----|----|----|----|----|----|----|----|----|----|----|-------|----|-------|
----|----|----|----|----|----|----|----|----|----|----|-------|----|-------|


----|--3----|--3-------------|----------------------------|
----|--4----|--1--------16s--|--15-------15s13s16-16s15---|
----|--0----|--0-------------|----------------------------|
----|-------|----------------|----------------------------|
----|-------|----------------|----------------------------|
----|-------|----------------|----------------------------|


----------------------------|----------------------------|
--15-------15s20-20-20s16s--|--15-------15s13s16-16s15---|
----------------------------|----------------------------|
----------------------------|----------------------------|
----------------------------|----------------------------|
----------------------------|----------------------------|


----------------------------|----------------------------|
--15-------15s10s11-11s13---|--15-------15s13s16-16s15---|
----------------------------|----------------------------|
----------------------------|----------------------------|
----------------------------|----------------------------|
----------------------------|----------------------------|


----------------------------|----------------------------|
--15-------15s20-20-20s16s--|--15-------15s13s16-16s15---|
----------------------------|----------------------------|
----------------------------|----------------------------|
----------------------------|----------------------------|
----------------------------|----------------------------|


----------------------------|----------------------------|
--15-------15s10s11-11s13---|--15-------15s13s16-16s15---|
----------------------------|----------------------------|
----------------------------|----------------------------|
----------------------------|----------------------------|
----------------------------|----------------------------|


----------------------------|----------------------------|
--15-------15s20-20-20s16s--|--15-------15s13s16-16s15---|
----------------------------|----------------------------|
----------------------------|----------------------------|
----------------------------|----------------------------|
----------------------------|----------------------------|


----------------------------|----------------------------|
--15-------15s10s11-11s13---|--15-------15s13s16-16s15---|
----------------------------|----------------------------|
----------------------------|----------------------------|
----------------------------|----------------------------|
----------------------------|----------------------------|


----------------------------|----------------------------|
--15-------15s20-20-20s16s--|--15-------15s13s16-16s15---|
----------------------------|----------------------------|
----------------------------|----------------------------|
----------------------------|----------------------------|
----------------------------|----------------------------|


----------------------------|----|----|----|----|----|----|----|----|----|----|
--15-------15s10s11-11------|----|----|----|----|----|----|----|----|----|----|
----------------------------|----|----|----|----|----|----|----|----|----|----|
----------------------------|----|----|----|----|----|----|----|----|----|----|
----------------------------|----|----|----|----|----|----|----|----|----|----|
----------------------------|----|----|----|----|----|----|----|----|----|----|


----|----|----|----|----|----|----|----|----|----|----|----|----|----|----|----|
----|----|----|----|----|----|----|----|----|----|----|----|----|----|----|----|
----|----|----|----|----|----|----|----|----|----|----|----|----|----|----|----|
----|----|----|----|----|----|----|----|----|----|----|----|----|----|----|----|
----|----|----|----|----|----|----|----|----|----|----|----|----|----|----|----|
----|----|----|----|----|----|----|----|----|----|----|----|----|----|----|----|


----|----|----|----|----||
----|----|----|----|----||
----|----|----|----|----||
----|----|----|----|----||
----|----|----|----|----||
----|----|----|----|----||

_______________________________
___________________________
___________________
Rhythm (Clean)
Drop C (CGCFAD)

Legend
L - tied note
x - dead note
h - hammer on/pull off
b - bend
s - slide
~ - vibrato
g - ghost note
> - accentuated note
t - trill
M - palm mute
. - staccato
P - popping (bass)
S - slapping (bass)
+ - tapping
W - wide vibrato
< - fade in
w - whammy bar
= - tremolo picking
v - brush up
^ - brush down
V - pick stroke up
n - pick stroke down


D |----|----|----|----|----|----|----|----|----|----|----|----|----|----|----|
A |----|----|----|----|----|----|----|----|----|----|----|----|----|----|----|
F |----|----|----|----|----|----|----|----|----|----|----|----|----|----|----|
C |----|----|----|----|----|----|----|----|----|----|----|----|----|----|----|
G |----|----|----|----|----|----|----|----|----|----|----|----|----|----|----|
C |----|----|----|----|----|----|----|----|----|----|----|----|----|----|----|


----|----|----|----|----|----|----|----|----|----|----|----|----|----|----|----|
----|----|----|----|----|----|----|----|----|----|----|----|----|----|----|----|
----|----|----|----|----|----|----|----|----|----|----|----|----|----|----|----|
----|----|----|----|----|----|----|----|----|----|----|----|----|----|----|----|
----|----|----|----|----|----|----|----|----|----|----|----|----|----|----|----|
----|----|----|----|----|----|----|----|----|----|----|----|----|----|----|----|


----|----|----|----|----|----|----|----|----|----|----|--3----|----|--3----|
----|----|----|----|----|----|----|----|----|----|----|--3----|----|--3----|
----|----|----|----|----|----|----|----|----|----|----|--0----|----|--0----|
----|----|----|----|----|----|----|----|----|----|----|-------|----|-------|
----|----|----|----|----|----|----|----|----|----|----|-------|----|-------|
----|----|----|----|----|----|----|----|----|----|----|-------|----|-------|


----|--3----|--3----|--3----|--3----|--3----|--3----|--3----|--3----|--3----|
----|--4----|--1----|--3----|--3----|--3----|--3----|--4----|--1----|--3----|
----|--0----|--0----|--0----|--0----|--0----|--0----|--0----|--0----|--0----|
----|-------|-------|-------|-------|-------|-------|-------|-------|-------|
----|-------|-------|-------|-------|-------|-------|-------|-------|-------|
----|-------|-------|-------|-------|-------|-------|-------|-------|-------|


--3----|--3----|--3----|--3----|--3----|--3----|--3----|--3----|--3----|----|
--3----|--3----|--3----|--3----|--3----|--4----|--1----|--3----|--3----|----|
--0----|--0----|--0----|--0----|--0----|--0----|--0----|--0----|--0----|----|
-------|-------|-------|-------|-------|-------|-------|-------|-------|----|
-------|-------|-------|-------|-------|-------|-------|-------|-------|----|
-------|-------|-------|-------|-------|-------|-------|-------|-------|----|


----|----|----|----|----|----|----|----|----|----|----|----|----|----|----|----|
----|----|----|----|----|----|----|----|----|----|----|----|----|----|----|----|
----|----|----|----|----|----|----|----|----|----|----|----|----|----|----|----|
----|----|----|----|----|----|----|----|----|----|----|----|----|----|----|----|
----|----|----|----|----|----|----|----|----|----|----|----|----|----|----|----|
----|----|----|----|----|----|----|----|----|----|----|----|----|----|----|----|


----|----|----|----|----|----|----|----|----|----|----|----|----|----||
----|----|----|----|----|----|----|----|----|----|----|----|----|----||
----|----|----|----|----|----|----|----|----|----|----|----|----|----||
----|----|----|----|----|----|----|----|----|----|----|----|----|----||
----|----|----|----|----|----|----|----|----|----|----|----|----|----||
----|----|----|----|----|----|----|----|----|----|----|----|----|----||

comments
We did not receive enough feedback on this tab! Please rate:
print report bad tab
1 2 3 4 5
1 comment total.
-1 reply
jordan163 wrote on August 30 2013, 06:05 pm

this is wrong the only thing you have right is the verses.

I want to post or [tab]
guest
You may want to rate the tab now too:
select rating
Please do not post tabs as comments. Select "correction" instead!