Oops, an error
Loading. Please wait.

Chasing The Dragon Tab

ver1
ver1

Intro

Whole song

Interactive

More versions @911Tabs.com
8,686 views 1 this week
5 commentsread comments
1 2 3 4 5
accurate
x 5
Autoscroll
+/-
esc
set tempo
stop
Contributor
Hey! There's an official Ultimate Guitar app which is ideal
for learning songs when you're away from computer. Get the app
WARNING: You are trying to view
                                    content from Ultimate-Guitar.com
                                    in an unauthorized application,
                                    which is prohibited.

                                    Please use an official Ultimate
                                    Guitar Tabs application for iPhone,
                                    iPad or Android to access legitimate
                                    chords, guitar, bass, and drum tabs
                                    from Ultimate-Guitar.com database.

                                    Type "ultimate guitar tabs" in Apple
                                    App Store's or Android Market's
                                    search to find the application.
|---------------------------------------------------------------------------|
               
                Chasing the dragon - August burns red 

Tabbed by:lordofwar147

Email:jefry147@yahoo.com

Tuning: Drop C

D|--------------------------------------------------------------------------|
A|--------------------------------------------------------------------------|
F|-------7---6-------------------------7---6-----------6h7p6----------------|
C|---------------7p4-------7p4-----------------4/6-7/9-------7--------------|
G|---------------------7----------------------------------------------------|
C|-444-4---4---4-----4---4-----4-444-4---4---4------------------------------|
   ... .   .   .     .   .     . ... .   .   .

D|--------------------------------------------------------------------------|
A|--------------------------------------------------------------------------|
F|---------11---14------------11------------------11---13-14----------------|
C|-------------------11-12-14-----------------------------------------------|
G|---------------------------------7-9-11-----------------------------------|
C|-0-000-0----0----0-------------0--------0-000-0----0----------------------|
   . ... .    .    .             .        . ... .    .

D|---9h10p9------12-10-9----------------------------------------------------|
A|----------10-9---------10-------------------------------------------------|
F|--------------------------------------------------------------------------|
C|--------------------------------------------------------------------------|
G|--------------------------------------------------------------------------|
C|-0------------------------------------------------------------------------|
   .
 (X4)

D|--------------------------------------------------------------------------|
A|--------------------------------------------------------------------------|
F|--------------------------------------------------------------------------|
C|--------------------------------------------------------------------------|
G|-4------4------4------4------0------0------0------0--------(X2)-----------|
C|-4-4444-4-4444-4-4444-4-4444-0-0000-0-0000-0-0000-0-0000------------------|
     ....   ....   ....   ....   ....   ....   ....   ....

D|-------------------------------------------------------------|
A|-------------------------------------------------------------|
F|-------------------------------------------------------------|
C|-444444444444444444-777777-----------------------------------|
G|---------------------------444444444444444444-777777---------|
C|-------------------------------------------------------------|


D|--------------------------------------------------------------------------|
A|--------------------------------------------------------------------------|
F|------------------------------4444-6666-----------------------------------|
C|-444444444444444444-6666-7777---------------------------------------------|
G|----------------------------------------444444444444444444-777777---------|
C|--------------------------------------------------------------------------|


D|--------------------------------------------------------------------------|
A|--------------------------------------------------------------------------|
F|---------------------777777-666666----------------------------------------|
C|--444444444444444444------------------------------------------------------|
G|-----------------------------------444444444444444444-777777--------------|
C|--------------------------------------------------------------------------|

D|--------------------------------------------------------------------------|
A|--------------------------------------------------------------------------|
F|--------------------7-6---7-----------------------------------------------|
C|-444444444444444444-----9---9-7-9-7-6-7-6---------------------------------|
G|------------------------------------------9-444444444444444444-777777-----|
C|--------------------------------------------------------------------------|

D|--------------------------------------------------------------------------|
A|--------------------------------------------------------------------------|
F|---7-6-------------7-6---------------------------------6-6-6-6-6----------|
C|-4-----7---------------7-------------------------7-7-7--------------------|
G|---------4-4-4-4-4-------4-4-4-4-0-0-0-4-4-4-4-4--------------------------|
C|--------------------------------------------------------------------------|


D|---5-4-------------5-4----------------------------------------------------|
A|-------5---------------5--------------------------------------------------|
F|-6-------6-6-6-6-6-------6-6-6-6-----------------------6-6-6-6-6----------|
C|-------------------------------------------------7-7-7--------------------|
G|---------------------------------0-0-0-4-4-4-4-4--------------------------|
C|--------------------------------------------------------------------------|


D|--------------------------------------------------------------------------|
A|--------------------------------------------------------------------------|
F|---7-6-------------7-6---------------------------------6-6-6-6-6----------|
C|-4-----7---------------7-------------------------7-7-7--------------------|
G|---------4-4-4-4-4-------4-4-4-4-0-0-0-4-4-4-4-4--------------------------|
C|--------------------------------------------------------------------------|


D|---5-4-------------5-4----------------------------------------------------|
A|-------5---------------5--------------------------------------------------|
F|-6-------6-6-6-6-6-------6-6-6-6-----------------------6-6-6-6-6----------|
C|-------------------------------------------------7-7-7--------------------|
G|---------------------------------0-0-0-4-4-4-4-4--------------------------|
C|--------------------------------------------------------------------------|

D|-----------------------14-------------------------------------------------|
A|-7-7-7/10-10-10/14^-14----------------------------------------------------|
F|---------------------------------------6--6-6--6-6--7--7-7--7-7-----------|
C|---------------------------4--4-4--4-4------------------------------------|
G|--------------------------------------------------------------------------|
C|--------------------------------------------------------------------------|


D|-------------------------------------------5--5-5--5-5--4--4-4--4-4-------|
A|-----------------7--7-7--7-7--5--5-5--5-5---------------------------------|
F|-----4-4-6-6-7-7----------------------------------------------------------|
C|-7-7----------------------------------------------------------------------|
G|--------------------------------------------------------------------------|
C|--------------------------------------------------------------------------|


D|---------------------------------------5--5-5--5-5------------------------|
A|----------------------------------------------------7--7-7--7-7-----------|
F|-------------6--6-6--6-6--7--7-7--7-7-------------------------------------|
C|-4--4-4--4-4--------------------------------------------------------------|
G|--------------------------------------------------------------------------|
C|--------------------------------------------------------------------------|


D|------------------10--10-10--10-10--9--9-9--9-9--12--12-12--12-12---------|
A|-10--10-10--10-10---------------------------------------------------------|
F|--------------------------------------------------------------------------|
C|--------------------------------------------------------------------------|
G|--------------------------------------------------------------------------|
C|--------------------------------------------------------------------------|


D|----------------|
A|-9/10-10-10\----|
F|----------------|
C|----------------|
G|----------------|
C|----------------|


D|--------------------------------------------------------------------------|
A|--------------------------------------------------------------------------|
F|--------------------------------11---14---11---9/11---11---14-11----------|
C|-----4---7---4---4---7---4------------------------------------------------|
G|--------------------------------------------------------------------------|
C|-4-4---4---4---4---4---4----0-0----0----0----0------0----0----------------|
   . .   .   .   .   .   .    . .    .    .    .      .    .


D|--------------------------------------------------------------------------|
A|--------------------------------------------------------------------------|
F|-----------------6-------------11---14---11---9/11---11---14-11-----------|
C|-----4---7---4-------7---4------------------------------------------------|
G|--------------------------------------------------------------------------|
C|-4-4---4---4---4---4---4---0-0----0----0----0------0----0-----------------|
   . .   .   .   .   .   .   . .    .    .    .      .    .                    

D|--------------------------------------------------------------------------|
A|--------------------------------------------------------------------------|
F|--------------------------------11---14---11---9/11---11---14-11----------|
C|-----4---7---4---4---7---4------------------------------------------------|
G|--------------------------------------------------------------------------|
C|-4-4---4---4---4---4---4----0-0----0----0----0------0----0----------------|
   . .   .   .   .   .   .    . .    .    .    .      .    .


D|--------------------------------------------------------------------------|
A|--------------------------------------------------------------------------|
F|-----------------6-------------11---14---11---9/11---11---14-11-----------|
C|-----4---7---4-------7---4------------------------------------------------|
G|--------------------------------------------------------------------------|
C|-4-4---4---4---4---4---4---0-0----0----0----0------0----0-----------------|
   . .   .   .   .   .   .   . .    .    .    .      .    .                  


D|-------------------------------------------------------------|
A|-------------------------------------------------------------|
F|-------------------------------------------------------------|
C|-------------------------------------------------------------|
G|-2-------------2---2---2-2-2-2-2---------2---<<<<<<<<<<<<<<--|
C|-2-2-2-2-2-2-2-2-2-2-2-2-2-2-2-2-2-2-2-2-2---<<<<<<<<<<<<<<--|
     . . . . . .   .   .           . . . .                   

"Solo"
D|-----------------------------------------10p9-10p9-12p9-10p9-14p9-10p9----|
A|-10p9-10p9-12p9-10p9-12p9-10p9-12p9-10p9----------------------------------|
F|--------------------------------------------------------------------------|
C|--------------------------------------------------------------------------|
G|--------------------------------------------------------------------------|
C|--------------------------------------------------------------------------|


D|-12p9-10p9------------------9--9-9--9-9-10-12p10-14p10-12p10-16p12-14p12--|
A|-----------10--10-10--10-10-----------------------------------------------|
F|--------------------------------------------------------------------------|
C|--------------------------------------------------------------------------|
G|--------------------------------------------------------------------------|
C|--------------------------------------------------------------------------|


D|-17--16-----------------------------------9--9-9--9-9-14--14-14--14-14----|
A|-------------------------10--10-10--10-10---------------------------------|
F|--------11--11-11--11-11--------------------------------------------------|
C|--------------------------------------------------------------------------|
G|--------------------------------------------------------------------------|
C|--------------------------------------------------------------------------|


D|-17p16p14-17p16p14-17p16p14-17p16p14-19p17p16-19p17p16-19p17p16-19p17p16--|
A|--------------------------------------------------------------------------|
F|--------------------------------------------------------------------------|
C|--------------------------------------------------------------------------|
G|--------------------------------------------------------------------------|
C|--------------------------------------------------------------------------|


D|-22^26-------------------------------------------------------|
A|-------------------------------------------------------------|
F|------------(then play the intro 2 times after the solo)-----|
C|-------------------------------------------------------------|
G|-------------------------------------------------------------|
C|-------------------------------------------------------------|


D|-----------------------------------------------------------14-|
A|--------------(after the clean part)-7-7-7/10-10-10/14^-14----|
F|--------------------------------------------------------------|
C|--------------------------------------------------------------|
G|-4------------------------------------------------------------|
C|-4-(let ring)-------------------------------------------------|


D|--------------------------------------------------------------------------|
A|--------------------------------------------------------------------------|
F|---7-6-------------7-6---------------------------------6-6-6-6-6----------|
C|-4-----7---------------7-------------------------7-7-7--------------------|
G|---------4-4-4-4-4-------4-4-4-4-0-0-0-4-4-4-4-4--------------------------|
C|--------------------------------------------------------------------------|


D|---5-4-------------5-4----------------------------------------------------|
A|-------5---------------5--------------------------------------------------|
F|-6-------6-6-6-6-6-------6-6-6-6-----------------------6-6-6-6-6----------|
C|-------------------------------------------------7-7-7--------------------|
G|---------------------------------0-0-0-4-4-4-4-4--------------------------|
C|--------------------------------------------------------------------------|


D|--------------------------------------------------------------------------|
A|--------------------------------------------------------------------------|
F|---7-6-------------7-6---------------------------------6-6-6-6-6----------|
C|-4-----7---------------7-------------------------7-7-7--------------------|
G|---------4-4-4-4-4-------4-4-4-4-0-0-0-4-4-4-4-4--------------------------|
C|--------------------------------------------------------------------------|


D|---5-4-------------5-4----------------------------------------------------|
A|-------5---------------5--------------------------------------------------|
F|-6-------6-6-6-6-6-------6-6-6-6-----------------------6-6-6-6-6----------|
C|-------------------------------------------------7-7-7--------------------|
G|---------------------------------0-0-0-4-4-4-4-4--------------------------|
C|--------------------------------------------------------------------------|

D|-----------------------14----|
A|-7-7-7/10-10-10/14^-14-------|
F|-----------------------------|
C|-----------------------------|
G|-----------------------------|
C|-----------------------------|


. palm mute
/ slide up
\ slide down
h hammer-on
p pull-off
< pick slide
^ bend





comments
print report bad tab
5 comments total. Showing first comments.
+1 reply
cslink wrote on February 12 2009, 06:52 pm

yo bad ass tab!!
this is tough to follow tho, the first part isn't bad but after that is gets tough. POWER TAB!!!
5*

-1 reply
LordofWar147 wrote on February 13 2009, 08:50 am

yah. its kind of hard to listen to some of the parts. you just have to listen real closely. thanks for the 5* rating. \m/\m/

+2 reply
cslink wrote on March 29 2009, 08:02 pm

no doubt man, good work.... altho there is a little more to the song then u have, but never the less haha

I want to post or [tab]
guest
You may want to rate the tab now too:
select rating
Please do not post tabs as comments. Select "correction" instead!