Oops, an error
Loading. Please wait.

Composure Tab

ver1
ver1

Intro

Solo

Whole song

More versions @911Tabs.com
183,339 views 78 this week
30 commentsread comments
1 2 3 4 5
excellent!
x 39
Autoscroll
+/-
esc
set tempo
stop
Contributor
Hey! There's an official Ultimate Guitar app which is ideal
for learning songs when you're away from computer. Get the app
WARNING: You are trying to view
                                    content from Ultimate-Guitar.com
                                    in an unauthorized application,
                                    which is prohibited.

                                    Please use an official Ultimate
                                    Guitar Tabs application for iPhone,
                                    iPad or Android to access legitimate
                                    chords, guitar, bass, and drum tabs
                                    from Ultimate-Guitar.com database.

                                    Type "ultimate guitar tabs" in Apple
                                    App Store's or Android Market's
                                    search to find the application.
COMPOSURE
As recorded by August Burns Red
(From the 2007 Album MESSENGERS)

Transcribed by Chris Allan
For those without powertab, here you go.
Words and Music by ABR

 Intro
  Q=193
  D5                                                                C5
 4/4
  Gtr I
          PM|   PM            PM|   PM          PM|   PM             PM|   PM
  E E E E E E E E    E  E E E E E E E   E E E E E E E E    E  E E E  E E E E
|-----------------|-------------------|-----------------|--------------------|
|-----------------|-------------------|-----------------|--------------------|
|-------------7---|---------------7---|-------------7---|----------------7---|
|-7h8p0-----------|--7h=8p0-----------|-7h8p0-----------|--7h=8p0------------|
|-------7---------|---------7---------|-------7---------|---------7----------|
|---------0-0---0-|-----------0-0---0-|---------0-0---0-|------------0-0---0-|
|
| Gtr II
| W                 +W                  W                 +H         H
|-----------------|-------------------|-----------------|--------------------|
|-----------------|-------------------|-----------------|--------------------|
|-----------------|-------------------|-----------------|--------------------|
|-0---------------|-(0)---------------|-0---------------|-(0)-------10-------|
|-0---------------|-(0)---------------|-0---------------|-(0)-------10-------|
|-0---------------|-(0)---------------|-0---------------|-(0)-------10-------|


  Bb5
          PM|    PM            PM|    PM
  E E E E E E  E E    E  E E E E E  E E
|------------------|--------------------|
|------------------|--------------------|
|------------------|--------------------|
|------------------|--------------------|
|-7h8p0-------10---|--7h=8p0-------10---|
|-------8-8-8----8-|---------8-8-8----8-|
|
| W                  +W
|------------------|--------------------|
|------------------|--------------------|
|------------------|--------------------|
|-8----------------|-(8)----------------|
|-8----------------|-(8)----------------|
|-8----------------|-(8)----------------|


                               G5
          PM|    PM            PM|    PM
  E E E E E E  E E    E  E E E E E  E E
|------------------|--------------------|
|------------------|--------------------|
|------------------|--------------------|
|------------------|--------------------|
|-7h8p0-------10---|--7h=8p0-------10---|
|-------8-8-8----8-|---------8-8-8----8-|
|
| W                  +H        H
|------------------|--------------------|
|------------------|--------------------|
|------------------|--------------------|
|-8----------------|-(8)-------5--------|
|-8----------------|-(8)-------5--------|
|-8----------------|-(8)-------5--------|


  D5                                                                 C5
          PM|   PM            PM|    PM          PM|   PM             PM|    PM
  E E E E E E E E    E  E E E E E  E E   E E E E E E E E    E  E E E  E E  E E
|-----------------|--------------------|-----------------|---------------------|
|-----------------|--------------------|-----------------|---------------------|
|-------------7---|---------------10---|-------------7---|----------------10---|
|-7h8p0-----------|--7h=8p0------------|-7h8p0-----------|--7h=8p0-------------|
|-------7---------|---------7----------|-------7---------|---------7-----------|
|---------0-0---0-|-----------0-0----0-|---------0-0---0-|------------0-0----0-|
|
| W                 +W                   W                 +H         H
|-----------------|--------------------|-----------------|---------------------|
|-----------------|--------------------|-----------------|---------------------|
|-----------------|--------------------|-----------------|---------------------|
|-0---------------|-(0)----------------|-0---------------|-(0)-------10--------|
|-0---------------|-(0)----------------|-0---------------|-(0)-------10--------|
|-0---------------|-(0)----------------|-0---------------|-(0)-------10--------|


  Bb5
          PM|    PM            PM|    PM
  E E E E E E  E E    E  E E E E E  E E
|------------------|--------------------|
|------------------|--------------------|
|------------------|--------------------|
|------------------|---------------10---|
|-7h8p0-------10---|--7h=8p0------------|
|-------8-8-8----8-|---------8-8-8----8-|
|
| W                  +W
|------------------|--------------------|
|------------------|--------------------|
|------------------|--------------------|
|-8----------------|-(8)----------------|
|-8----------------|-(8)----------------|
|-8----------------|-(8)----------------|


                     C5
          PM|    PM           PM--|
  E E E E E E  E E    E E E E E E   E  E
|------------------|---------------------|
|------------------|---------------------|
|------------------|---------------------|
|------------------|---------------------|
|-7h8p0-------10---|--7h8p0--------------|
|-------8-8-8----8-|--------8-8-8---8----|
|
| W                   H.           +E  E
|------------------|---------------------|
|------------------|---------------------|
|------------------|---------------------|
|-8----------------|-10-----------(10)---|
|-8----------------|-10-----------(10)---|
|-8----------------|-10-----------(10)---|


    N.C.
               PM|    PM             PM|    PM
     E  E E  E E E  E E    E  E E  E E E  E E
||----------------------|---------------------|
||o---------------------|---------------------|
||------------------7---|-----------------7---|
||---7h=8p0-------------|--7h=8p0-------------|
||o----------7----------|----------7----------|
||-------------0-0----0-|------------0-0----0-|
|
|              PM|    PM             PM|    PM
|    E  E E  E E E  E E    E  E E  E E E  E E
||----------------------|---------------------|
||o----------------10---|----------------10---|
||----------------------|---------------------|
||--10h12---------------|-10h12---------------|
||o-------8h10----------|-------8h10----------|
||-------------0-0----0-|------------0-0----0-|


             PM|    PM             PM|    PM
   E  E E  E E E  E E    E  E E  E E E  E E
|---------------------|----------------------|
|---------------------|----------------------|
|-----------------7---|-----------------7----|
|--7h=8p0-------------|--7h=8p0--------------|
|----------7----------|----------7-----------|
|------------0-0----0-|------------0-0----0--|
|
|            PM|    PM             PM|    PM
|  E  E E  E E E  E E    E  E E  E E E  E E
|---------------------|----------------------|
|----------------10---|----------------10----|
|---------------------|----------------------|
|-10h12---------------|-10h12----------------|
|-------8h10----------|-------8h10-----------|
|------------0-0----0-|------------0-0----0--|


  N.C.
           PM|    PM           PM|    PM
  E E E  E E E  E E   E E E  E E E  E E
|-------------------|-------------------|
|-------------------|-------------------|
|-------------------|-------------------|
|-------------------|-------------------|
|-7h8p0--------10---|-7h8p0--------10---|
|--------8-8-8----8-|--------8-8-8----8-|
|
|          PM|    PM           PM|    PM
| E E E  E E E  E E   E E E  E E E  E E
|-------------------|-------------------|
|-------------------|-------------------|
|-------------------|-------------------|
|-5h7-----------8---|-5h7-----------8---|
|-----8h10----------|-----8h10----------|
|----------8-8----8-|----------8-8----8-|


           PM|    PM           PM|    PM
  E E E  E E E  E E   E E E  E E E  E E
|-------------------|--------------------||
|-------------------|-------------------o||
|-------------------|--------------------||
|-------------------|--------------------||
|-7h8p0--------10---|-7h8p0--------10---o||
|--------8-8-8----8-|--------8-8-8----8--||
|
|          PM|    PM           PM|    PM
| E E E  E E E  E E   E E E  E E E  E E
|-------------------|--------------------||
|-------------------|-------------------o||
|-------------------|--------------------||
|-5h7-----------8---|-5h7-----------8----||
|-----8h10----------|-----8h10----------o||
|----------8-8----8-|----------8-8----8--||


   Tempo Change
    Q=155
    N.C.
    PM--|       PM----------------|       PM--------|
    S S E S S E E S S S S E   S S E S S E E S S S S E
||--------------------------|-------------------------|
||o-------------------------|-------------------------|
||--------------------------|-------------------------|
||--------------------------|-------------------------|
||o-------7h8p7---5-5-5-5---|-------7h8p7-------------|
||--0-0-0-------0---------7-|-0-0-0-------0-8-8-8-8-7-|
|
|   PM--|       PM----------------|       PM--------|
|   S S E S S E E S S S S E   S S E S S E E S S S S E
||--------------------------|-------------------------|
||o-------------------------|-------------------------|
||--------------------------|-------------------------|
||--------------------------|-------------------------|
||o-------7h8p7---5-5-5-5---|-------7h8p7-------------|
||--0-0-0-------0---------7-|-0-0-0-------0-8-8-8-8-7-|


  N.C.
        PM--------------------|
  S S E E  S  S S S S S S S S S   S S S S S  S S S  S  S  S S  S  S  S S
|-------------------------------|----------------------------------------|
|-------------------------------|----------------------------------------|
|---------10-10-9-9-7-7-9-9-7-7-|----------------------------------------|
|-------------------------------|-7h8p7p0-8h10p8p0-10h12p10p0-12h14p12p0-|
|-7h8p7-------------------------|----------------------------------------|
|-------0-----------------------|----------------------------------------|
|
|       PM--------------------|
| S S E E  S  S S S S S S S S S   S S S S S  S S S  S  S  S S  S  S  S S
|-------------------------------|----------------------------------------|
|-------------------------------|----------------------------------------|
|---------10-10-9-9-7-7-9-9-7-7-|----------------------------------------|
|-------------------------------|-7h8p7p0-8h10p8p0-10h12p10p0-12h14p12p0-|
|-7h8p7-------------------------|----------------------------------------|
|-------0-----------------------|----------------------------------------|


  1.                             2.
  N.C.
  PM--|       PM----------------------|          PM--------|
  S S E S S E E S S S S E         S S E  S  S  E E S S S S E
|--------------------------||-||-----------------------------|
|-------------------------o||-||o----------------------------|
|--------------------------||-||-----------------------------|
|--------------------------||-||-----------------------------|
|-------7h8p7---5-5-5-5---o||-||o--------7h=8p=7---5-5-5-5---|
|-0-0-0-------0---------7--||-||--0-0-0----------0---------7-|
|
| PM--|       PM----------------------|          PM--------|
| S S E S S E E S S S S E         S S E  S  S  E E S S S S E
|--------------------------||-||-----------------------------|
|-------------------------o||-||o----------------------------|
|--------------------------||-||-----------------------------|
|--------------------------||-||-----------------------------|
|-------7h8p7---5-5-5-5---o||-||o-------10h12p10---8-8-8-8---|
|-0-0-0-------0---------7--||-||--0-0-0----------0---------7-|


  N.C.
  PM--|          PM--------|            PM---------------------------|
  S S E  S  S  E E S S S S E    S  S  E E  S  S  S  S  S  S  S  S  S  S
|----------------------------|------------------------------------------|
|----------------------------|------------------------------------------|
|----------------------------|------------10-10--9--9--7--7--9--9--7--7-|
|----------------------------|------------------------------------------|
|--------7h=8p=7-------------|--7h=8p=7---------------------------------|
|-0-0-0----------0-8-8-8-8-7-|----------0-------------------------------|
|
| PM--|          PM--------|            PM---------------------------|
| S S E  S  S  E E S S S S E    S  S  E E  S  S  S  S  S  S  S  S  S  S
|----------------------------|------------------------------------------|
|----------------------------|------------------------------------------|
|----------------------------|------------14-14-12-12-10-10-12-12-10-10-|
|----------------------------|------------------------------------------|
|-------10h12p10-------------|-10h12p10---------------------------------|
|-0-0-0----------0-8-8-8-8-7-|----------0-------------------------------|


  N.C.
   S  S  S S  S  S  S S  S  S  S S  S  S  S S
|----------------------------------------------||
|---------------------------------------------o||
|----------------------------------------------||
|--7h=8p=7p0--8h10p=8p0-10h12p10p0-12h14p12p0--||
|---------------------------------------------o||
|----------------------------------------------||
|
|  S  S  S S  S  S  S S  S  S  S S  S  S  S S
|----------------------------------------------||
|---------------------------------------------o||
|----------------------------------------------||
|-10h12p10p0-12h14p12p0-14h15p14p0-15h17p15p0--||
|---------------------------------------------o||
|----------------------------------------------||


   Breakdown A
    D5
    Gtrs I, II
    PM-------------------------------------------------|   PM----|
    S S S S S S S S S S S S S S S S   S S S E. S S S S S S S S S S
||----------------------------------|-------------------------------|
||o---------------------------------|-------------------------------|
||----------------------------------|-------------------------------|
||----------------------------------|-------------------------------|
||o-0-0-0-0-0---0-0-0-0-0---0---0-0-|-0-0-0----0-0-0-0-0---0-0-0-0--|
||--0-0-0-0-0---0-0-0-0-0---0---0-0-|-0-0-0----0-0-0-0-0---0-0-0-0--|


  1.                       2.
  D5
 3/4
  PM-------------------------------------|
  S S S S S S S S S E.     S S S S S S S S Q    +H.
|-----------------------||--------------------|--------|
|----------------------o||--------------------|--------|
|-----------------------||--------------------|--------|
|-----------------------||--------------------|--------|
|-0---0---0-0-0-0-0----o||-0---0---0-0-0-0-0--|-(0)----|
|-0---0---0-0-0-0-0-----||-0---0---0-0-0-0-0--|-(0)----|


    D5
   4/4
    PM-------------------------------------------------|   PM----|
    S S S S S S S S S S S S S S S S   S S S E. S S S S S S S S S S
||----------------------------------|------------------------------|
||o---------------------------------|------------------------------|
||----------------------------------|------------------------------|
||----------------------------------|------------------------------|
||o-0-0-0-0-0---0-0-0-0-0---0---0-0-|-0-0-0----0-0-0-0-0---0-0-0-0-|
||--0-0-0-0-0---0-0-0-0-0---0---0-0-|-0-0-0----0-0-0-0-0---0-0-0-0-|


  1.,2.                    3.
  D5
 3/4                      2/4
  PM--------------------------------------|
  S S S S S S S S S E.  3x  S S S S S S S S
|-----------------------||------------------||
|----------------------o||------------------||
|-----------------------||------------------||
|-----------------------||------------------||
|-0---0---0-0-0-0-0----o||--0---0---0-0-0-0-||
|-0---0---0-0-0-0-0-----||--0---0---0-0-0-0-||


   Bridge
    Q=165
    Dm                         N.C.
   4/4
    Gtr I
    Q  Q  E E E E   +E  E E. S S  S E  E  E
||--------------5-|-(5)-5-5----8h10p8-------|
||o-6--6--6-6-6-6-|-(6)-6-6-----------10h11-|
||--7--7--7-7-7-7-|-(7)-7-7-----------------|
||--0--0--0-0-0-0-|-(0)-0-0-----------------|
||o---------------|-------------------------|
||----------------|-------------------------|
|
|   Gtr II
|   Q  Q  E E E E   +E  E E. S S  S E  E  E
||--------------5-|-(5)-5-5----8h10p8-------|
||o-6--6--6-6-6-6-|-(6)-6-6-----------10h11-|
||--7--7--7-7-7-7-|-(7)-7-7-----------------|
||--0--0--0-0-0-0-|-(0)-0-0-----------------|
||o---------------|-------------------------|
||----------------|-------------------------|


  F5/Bb            Bb/G           N.C.
   Q   Q   E  E  E E   +E  E E. S E E Q
|--------------------|--------------------||
|--------------------|-------------------o||
|--------------------|--------------------||
|-10--10--10-10-10-8-|-(8)-8-8----8p7-----||
|--8---8---8--8--8-5-|-(5)-5-5--------8--o||
|--8---8---8--8--8-5-|-(5)-5-5------------||
|
|  Q   Q   E  E  E E   +E  E E. S E E Q
|--------------------|--------------------||
|--------------------|-------------------o||
|--------------------|--------------------||
|-10--10--10-10-10-8-|-(8)-8-8----8p7-----||
|--8---8---8--8--8-5-|-(5)-5-5--------8--o||
|--8---8---8--8--8-5-|-(5)-5-5------------||


    Dm                                       N.C.
     Q   E  E  E  E  E  E    +E   E  E   E    S  S  E  E  E
||------------------------|---------------------------------|
||o-----------------------|---------------------------------|
||---------------------14-|-(14)-14-14--14---14h15p14-------|
||--12--12-12-15-15-15----|---------------------------15h17-|
||o-----------------------|---------------------------------|
||------------------------|---------------------------------|
|
|    Q   Q     E  E  E  E    +E   E  E.    S  S  S  E  E  E
||----------------------5-|--(5)--5--5--------8h10p=8-------|
||o--6---6-----6--6--6--6-|--(6)--6--6----------------10h11-|
||---7---7-----7--7--7--7-|--(7)--7--7----------------------|
||---0---0-----0--0--0--0-|--(0)--0--0----------------------|
||o-----------------------|---------------------------------|
||------------------------|---------------------------------|


  1.,2.,3.
  F5/Bb              Bb/G                  N.C.
   Q   E  E  Q     E  E    +E   E  E   E    E  +E      +Q    4x
|--------------------17-|-(17)-17-17--17---17-(17)b18r(17)---||
|-----------15----15----|-----------------------------------o||
|-17--17-17-------------|------------------------------------||
|-----------------------|------------------------------------||
|-----------------------|-----------------------------------o||
|-----------------------|------------------------------------||
|
|  Q   Q     E  E  E  E    +E   E  E.    S  E   E       Q    4x
|-----------------------|------------------------------------||
|-----------------------|-----------------------------------o||
|-----------------------|------------------------------------||
|-10--10----10-10-10--8-|--(8)--8--8--------8p==7------------||
|--8---8-----8--8--8--5-|--(5)--5--5--------------------8---o||
|--8---8-----8--8--8--5-|--(5)--5--5-------------------------||


  4.
  F5/Bb              Bb/G
   Q   E  E  Q     E  E
|--------------------17b18==|
|-----------15----15--------|
|-17--17-17-----------------|
|---------------------------|
|---------------------------|
|---------------------------|
|
|  Q   Q     E  E  E  E
|---------------------------|
|---------------------------|
|---------------------------|
|-10--10----10-10-10--8-----|
|--8---8-----8--8--8--5-----|
|--8---8-----8--8--8--5-----|


   +Q     E  E  E  E  E   E    +Q     E  E  E  E  E  E
|-(17)---17-17-17-17-17r-17-|-(17)---17-17-17-17-17-15-|
|---------------------------|--------------------------|
|---------------------------|--------------------------|
|---------------------------|--------------------------|
|---------------------------|--------------------------|
|---------------------------|--------------------------|
|
|  +E  E  E  E  E  E  E   E     E  E  E  E  E  E  E  E
|---------------------------|--------------------------|
|---------------------------|--------------------------|
|---------------------------|--------------------------|
|--(8)-8--8--8--8--8--8---8-|---8--8--8--8--8--8--8--8-|
|--(5)-5--5--5--5--5--5---5-|---5--5--5--5--5--5--5--5-|
|--(5)-5--5--5--5--5--5---5-|---5--5--5--5--5--5--5--5-|


                               Q=155
  Ab/F   F5                      N.C.
   +Q     E  E  E  E  E   E    E E E  E E E E E
|-(15)---15-15-15-15-15--15--|------------------||
|----------------------------|------------6-6-6-||
|--------------------(9)-(9)-|-9-9-9--9-9-9-9-9-||
|----------------------------|------------------||
|----------------------------|------------------||
|----------------------------|------------------||
|
|   E  E  E  E  E  E  E   E    E E H.
|----------------------------|------------------||
|----------------------------|------------------||
|----------------------------|------------------||
|---8--8--5--5--5--5--5---5--|-5----------------||
|---5--5--5--5--5--5--5---5--|-5----------------||
|---5--5--5--5--5--5--5---5--|-5----------------||


   Breakdown B
    D5
    Gtrs I, II
    PM------------------------|     PM----|    PM----------|
    S S S S E S S S S S S S S E   S S S S S E. S S S S S S S S
||------------------------------|------------------------------|
||o-----------------------------|------------------------------|
||------------------------------|------------------------------|
||------------------------------|------------------------------|
||o-0-0-0-0---0-0-0-0-0-0-0-0---|---0-0---0----0-0-0-0---0-0---|
||--0-0-0-0---0-0-0-0-0-0-0-0---|---0-0---0----0-0-0-0---0-0---|
|
|   Gtr III
|   W                             W
||------------------------------|------------------------------|
||o-----------------------------|------------------------------|
||------------------------------|------------------------------|
||------------------------------|------------------------------|
||o-----------------------------|------------------------------|
||------------------------------|------------------------------|


  D5
  PM---------------------------|       PM----|      PM----------|
  S  S S S E S S S S S S  S  S  E    S S S S S E.   S S S S S S S S
|----------------------------------|---------------------------------||
|----------------------------------|--------------------------------o||
|----------------------------------|---------------------------------||
|----------------------------------|---------------------------------||
|-0--0-0-0---0-0-0-0-0-0--0--0-----|---0-0---0------0-0-0-0---0-0---o||
|-0--0-0-0---0-0-0-0-0-0--0--0-----|---0-0---0------0-0-0-0---0-0----||
|
| H.                      E     E    E   E   E    E E   E   E   E
|----------------------------------|---------------------------------||
|----------------------------------|--------------------6---6---6---o||
|------------------------(9)---(9)-|-9---9---9----9-9---9---9---9----||
|----------------------------------|---------------------------------||
|----------------------------------|--------------------------------o||
|----------------------------------|---------------------------------||


   Another Bridge
    Q=165
    D5          N.C.
    PM--------|
    S S S E S E E E E E   E E E  E E E S S S S
||----------------------|----------------------|
||o---------------------|----------------------|
||----------------------|-------10-7-----------|
||----------------------|-7-8-8------8-7h8p7p0-|
||o-0-0-0-0-0-0-7-8-8p0-|----------------------|
||--0-0-0-0-0-0---------|----------------------|
|
|   PM--------|
|   S S S E S E E E E E   E E E  E E E S S S S
||----------------------|----------------------|
||o---------------------|----------------------|
||----------------------|-------10-7-----------|
||----------------------|-7-8-8------8-7h8p7p0-|
||o-0-0-0-0-0-0-7-8-8p0-|----------------------|
||--0-0-0-0-0-0---------|----------------------|


  D5          N.C.
  PM--------|
  S S S E S E E E E E   E E E E E  E E  E
|---------------------|--------------------||
|---------------------|-------------------o||
|---------------------|-------7------------||
|---------------------|-7-8-8--------------||
|-0-0-0-0-0-0-7-8-8p0-|---------8h10------o||
|-0-0-0-0-0-0---------|--------------8h10--||
|
| PM--------|
| S S S E S E E E E E   E E E E E  E E  E
|---------------------|--------------------||
|---------------------|-------------------o||
|---------------------|-------7------------||
|---------------------|-7-8-8--------------||
|-0-0-0-0-0-0-7-8-8p0-|---------8h10------o||
|-0-0-0-0-0-0---------|--------------8h10--||


    D5
    Gtrs I, II
    PM--------------------------|         PM------|     PM------------|
    S S S S +E  S S S S S S S S +E    +S  S S +S  S +E. S S S S +S  S S +S
||----------------------------------|---------------------------------------|
||o---------------------------------|---------------------------------------|
||----------------------------------|---------------------------------------|
||----------------------------------|---------------------------------------|
||o-0-0-0-0-(0)-0-0-0-0-0-0-0-0-(0)-|-(0)-0-0-(0)-0-(0)-0-0-0-0-(0)-0-0-(0)-|
||--0-0-0-0-(0)-0-0-0-0-0-0-0-0-(0)-|-(0)-0-0-(0)-0-(0)-0-0-0-0-(0)-0-0-(0)-|
|
|   Gtr III
|   W                                  W
||----------------------------------|---------------------------------------|
||o---------------------------------|---------------------------------------|
||----------------------------------|---------------------------------------|
||----------------------------------|---------------------------------------|
||o---------------------------------|---------------------------------------|
||----------------------------------|---------------------------------------|


  1.
  D5
  PM-----------------------------|
  S  S S S +E  S S S S S S  S  S +E    +W
|------------------------------------|--------------------||
|------------------------------------|-------------------o||
|------------------------------------|--------------------||
|------------------------------------|--------------------||
|-0--0-0-0-(0)-0-0-0-0-0-0--0--0-(0)-|-(0)---------------o||
|-0--0-0-0-(0)-0-0-0-0-0-0--0--0-(0)-|-(0)----------------||
|
| H.                        E     E     E  E E E E E E E
|------------------------------------|--------------------||
|------------------------------------|-------------6-6-6-o||
|--------------------------(9)---(9)-|--9--9-9-9-9-9-9-9--||
|------------------------------------|--------------------||
|------------------------------------|-------------------o||
|------------------------------------|--------------------||


  2.
  D5                                Bb5  C5      D5
  Gtrs I, II
  PM--------------------------|
  S S S S +E  S S S S S S S S +E    H     H      H    E Q.
|---------------------------------|------------|--------------||
|---------------------------------|------------|--------------||
|---------------------------------|------------|--------------||
|---------------------------------|-8----10----|-0----0-------||
|-0-0-0-0-(0)-0-0-0-0-0-0-0-0-(0)-|-8----10----|-0----0-------||
|-0-0-0-0-(0)-0-0-0-0-0-0-0-0-(0)-|-8----10----|-0----0-------||


   Speed It Up
    Q=180
    D5            N.C.
    Gtr I
    PM----------|       PM
    S S E E S S E  E  E E    E  E  E  E  E  E  S  S  S S
||------------------------|------------------------------|
||o-----------------------|------------------------------|
||------------------------|----------10--7---------------|
||------------------------|--7--8--8--------8--7h=8p=7p0-|
||o-0-0-0-0-0-0-0--7h=8---|------------------------------|
||--0-0-0-0-0-0-0-------0-|------------------------------|
|
|   Gtr II
|   PM----------|       PM
|   S S E E S S E  E  E E    E  E  E  E  E  E  S  S  S S
||------------------------|------------------------------|
||o-----------------------|------------------------------|
||------------------------|----------14-10---------------|
||------------------------|-10-12-12-------12-10h12p10p0-|
||o-0-0-0-0-0-0-0-10h12---|------------------------------|
||--0-0-0-0-0-0-0-------0-|------------------------------|


  D5            N.C.
  PM----------|       PM
  S S E E S S E  E  E E    E  E  E  E  E  E  E  E
|-----------------------|--------------------------||
|-----------------------|-------------------------o||
|-----------------------|-----------7--------------||
|-----------------------|--7--8--8-----------------||
|-0-0-0-0-0-0-0--7h=8---|--------------8h10-------o||
|-0-0-0-0-0-0-0-------0-|--------------------8h10--||
|
| PM----------|       PM
| S S E E S S E  E  E E    E  E  E  E  E  E  E  E
|-----------------------|--------------------------||
|-----------------------|-------------------------o||
|-----------------------|----------10--------------||
|-----------------------|-10-12-12-----------------||
|-0-0-0-0-0-0-0-10h12---|-------------12h13-------o||
|-0-0-0-0-0-0-0-------0-|-------------------12h14--||


    N.C.
     S  +S   E    E    E    E    E    S  S  S  S
||-----------------------------------------------|
||o----------------------------------------------|
||--------------------17---14--------------------|
||--12-(12)s15---15-------------15---14h15p14p12-|
||o----------------------------------------------|
||-----------------------------------------------|
|
|    PM-------------------------------------------
|    S   S   S S  S S  S S  S S  S S  S  S  S  S
||-----------------------------------------------|
||o----------------------------------------------|
||-----------------------------------------------|
||-----------------------------------------------|
||o----------------------------------------------|
||---0---0---0-0--0-0--0-0--3-3--3-3--3--3--3--3-|


   E    E    E    E    E    E    E    E
|------------------------------------------|
|------------------------------------------|
|---------------------14---15---14---12----|
|------12---12---15------------------------|
|-13---------------------------------------|
|------------------------------------------|
|
|---------------------------------------|
|  S S  S S  S S  S S  S S  S S  S S  S S
|------------------------------------------|
|------------------------------------------|
|------------------------------------------|
|------------------------------------------|
|------------------------------------------|
|--8-8--8-8--8-8--8-8--8-8--8-8--8-8--8-8--|


  N.C.
   S  +S   E    E    E    E    E    S  S  S  S
|----------------------------------------------|
|----------------------------------------------|
|-------------------17---14--------------------|
|-12-(12)s15---15-------------15---14h15p14p12-|
|----------------------------------------------|
|----------------------------------------------|
|
|  PM-------------------------------------------
|  S   S   S S  S S  S S  S S  S S  S  S  S  S
|----------------------------------------------|
|----------------------------------------------|
|----------------------------------------------|
|----------------------------------------------|
|----------------------------------------------|
|--0---0---0-0--0-0--0-0--3-3--3-3--3--3--3--3-|


   E    E    E    E    E    E    E    E
|------------------------------------------||
|-----------------------------------------o||
|---------------------14---15---14---12----||
|------12---12---15------------------------||
|-13--------------------------------------o||
|------------------------------------------||
|
|---------------------------------------|
|  S S  S S  S S  S S  S S  S S  S S  S S
|------------------------------------------||
|-----------------------------------------o||
|------------------------------------------||
|------------------------------------------||
|-----------------------------------------o||
|--8-8--8-8--8-8--8-8--5-5--5-5--5-5--5-5--||


 Tempo Change Again
  Q=155
  N.C.
  PM--|          PM----------------|          PM--------|
  S S E  S  S  E E S S S S E   S S E  S  S  E E S S S S E
|----------------------------|----------------------------|
|----------------------------|----------------------------|
|----------------------------|----------------------------|
|----------------------------|----------------------------|
|--------7h=8p=7-------------|--------7h=8p=7-------------|
|-0-0-0----------0-0-0-0-0-0-|-0-0-0----------0-0-0-0-0-0-|
|
| PM--|          PM----------------|          PM--------|
| S S E  S  S  E E S S S S E   S S E  S  S  E E S S S S E
|----------------------------|----------------------------|
|----------------------------|----------------------------|
|----------------------------|----------------------------|
|----------------------------|----------------------------|
|-------10h12p10-------------|-------10h12p10-------------|
|-0-0-0----------0-0-0-0-0-0-|-0-0-0----------0-0-0-0-0-0-|


  N.C.
  PM--|          PM--------|
  S S E  S  S  E E S S S S E    S  S  S S  S  S  S S  S  S  S S  S  S  S S
|----------------------------|---------------------------------------------|
|----------------------------|---------------------------------------------|
|----------------------------|---------------------------------------------|
|----------------------------|--7h=8p=7p0--8h10p=8p0-10h12p10p0-12h14p12p0-|
|--------7h=8p=7-------------|---------------------------------------------|
|-0-0-0----------0-0-0-0-0-0-|---------------------------------------------|
|
| PM--|          PM--------|
| S S E  S  S  E E S S S S E    S  S  S S  S  S  S S  S  S  S S  S  S  S S
|----------------------------|---------------------------------------------|
|----------------------------|---------------------------------------------|
|----------------------------|---------------------------------------------|
|----------------------------|-10h12p10p0-12h14p12p0-14h15p14p0-15h17p15p0-|
|-------10h12p10-------------|---------------------------------------------|
|-0-0-0----------0-0-0-0-0-0-|---------------------------------------------|


 Breakdown C
  Q=160
  D5
  Gtrs I, II
  PM-------------|      PM------------|
  S S S S Q  E E Q    E S E S E E. E. E
|-------------------|-------------------|
|-------------------|-------------------|
|-------------------|-------------------|
|-------------------|-------------------|
|-0-0-0------0-0----|---0-0-0-0-0--0--0-|
|-0-0-0------0-0----|---0-0-0-0-0--0--0-|


    D5
    PM------------------------------------------|
  E S S S S Q  S S S S S S   S S S S Q  S S S S Q
|--------------------------|-----------------------|
|--------------------------|-----------------------|
|--------------------------|-----------------------|
|--------------------------|-----------------------|
|---0-0-0------0-0-0-0-0-0-|-0-0-0------0-0-0------|
|---0-0-0------0-0-0-0-0-0-|-0-0-0------0-0-0------|


    D5
    PM------------|     PM-------------------|
  E S E S E E. E. E   E S S S S Q  S S S S S S
|-------------------|--------------------------|
|-------------------|--------------------------|
|-------------------|--------------------------|
|-------------------|--------------------------|
|---0-0-0-0-0--0--0-|---0-0-0------0-0-0-0-0-0-|
|---0-0-0-0-0--0--0-|---0-0-0------0-0-0-0-0-0-|


  D5
  Gtrs I, II
   PM--------------------------|
   S   S   S S  Q     S S  S S  Q
|------------------------------------------|
|------------------------------------------|
|------------------------------------------|
|------------------------------------------|
|--0---0---0----------0-0--0---------------|
|--0---0---0----------0-0--0---------------|
|
| Gtr III
|  S  +S   E    E  E  E    E    S  S  S  S
|------------------------------------------|
|------------------------------------------|
|-----------------17-14--------------------|
|-12-(12)s15---15---------15---14h15p14p12-|
|------------------------------------------|
|------------------------------------------|


      PM-----------------------|             PM---------------------------|
   E  S E    S  E  E.    E.     E    E       S S  S S  Q     S S  S  S  S  S
|---------------------------------|------------------------------------------|
|---------------------------------|------------------------------------------|
|---------------------------------|------------------------------------------|
|---------------------------------|------------------------------------------|
|-----0-0----0--0--0-----0------0-|----------0-0--0----------0-0--0--0--0--0-|
|-----0-0----0--0--0-----0------0-|----------0-0--0----------0-0--0--0--0--0-|
|
|  E  E    E    E  E   E     E  E    S  +S   E    E    E  E  E    S  S  S  S
|---------------------------------|------------------------------------------|
|---------------------------------|------------------------------------------|
|-----------------14--15----14-12-|-------------------17-14------------------|
|----12---12---15-----------------|-12-(12)s15---15---------15---14h15p14p12-|
|-13------------------------------|------------------------------------------|
|---------------------------------|------------------------------------------|


  D5
   PM-----------------------|                PM--------------------------|
   S S  S S  Q     S S  S S  Q       E       S E    S  E  E.    E.        E
|---------------------------------|--------------------------------------------|
|---------------------------------|--------------------------------------------|
|---------------------------------|--------------------------------------------|
|---------------------------------|--------------------------------------------|
|--0-0--0----------0-0--0---------|----------0-0----0--0--0-----0---------0----|
|--0-0--0----------0-0--0---------|----------0-0----0--0--0-----0---------0----|
|
|  E    E    E  E  E    E    E  E    S  +S   E    E    E  E   E     S  S  S  S
|---------------------------------|--------------------------------------------|
|---------------------------------|--------------------------------------------|
|-----------------14---15---14-12-|-------------------17-14--------------------|
|------12---12-15-----------------|-12-(12)s15---15----------15----14h15p14p12-|
|-13------------------------------|--------------------------------------------|
|---------------------------------|--------------------------------------------|


     D5
      PM-----------------------------
   E  S S  S S  Q     S S  S S  S S
|-----------------------------------|
|-----------------------------------|
|-----------------------------------|
|-----------------------------------|
|-----0-0--0----------0-0--0-0--0-0-|
|-----0-0--0----------0-0--0-0--0-0-|
|
|  E  E    E    E  E  E    E    E
|-----------------------------------|
|-----------------------------------|
|-----------------14h15p==14---12---|
|----12---12---15-------------------|
|-13--------------------------------|
|-----------------------------------|


 ------------------------------|                 PM-----------------------|
   S   S   S S  Q     S S  S S  Q             E  S E    S  E  E.    E.     E
|------------------------------------------|----------------------------------|
|------------------------------------------|----------------------------------|
|------------------------------------------|----------------------------------|
|------------------------------------------|----------------------------------|
|--0---0---0----------0-0--0---------------|-----0-0----0--0--0-----0------0--|
|--0---0---0----------0-0--0---------------|-----0-0----0--0--0-----0------0--|
|
|  S  +S   E    E  E  E    E    S  S  S  S    E  E    E    E  E   E     E  E
|------------------------------------------|----------------------------------|
|------------------------------------------|----------------------------------|
|-----------------17-14--------------------|-----------------14--15----14-12--|
|-12-(12)s15---15---------15---14h15p14p12-|----12---12---15------------------|
|------------------------------------------|-13-------------------------------|
|------------------------------------------|----------------------------------|


   Outro
    D5                 F5                         Bb5
    Gtrs I, II
     PM--------------------------|                 PM-----------------------|
     S   S   S S  Q     S S  S S  Q             E  S E    S  E  E.    E.     E
||-------------------------------------------|---------------------------------|
||o------------------------------------------|---------------------------------|
||-------------------------------------------|---------------------------------|
||-------------------------------------------|---------------------------------|
||o--0---0---0----------3-3--3---------------|-----8-8----8--8--8-----8------8-|
||---0---0---0----------3-3--3---------------|-----8-8----8--8--8-----8------8-|
|
|   Gtr III
|    S  +S   E    E  E  E    E    S  S  S  S    E  E    E    E  E   E     E  E
||-------------------------------------------|---------------------------------|
||o------------------------------------------|---------------------------------|
||------------------17-14--------------------|-----------------14--15----14-12-|
||--12-(12)s15---15---------15---14h15p14p12-|----12---12---15-----------------|
||o------------------------------------------|-13------------------------------|
||-------------------------------------------|---------------------------------|
|
|   Gtr IV
|    S  +S   E    E  E  E    E    S  S  S  S    E  E    E    E  E   E     E  E
||------------------12-----------------------|---------------------------------|
||o--------------------13--------------------|-----------------13--15----13-11-|
||--10-(10)s14---14---------14---12h14p12p10-|----10---10---14-----------------|
||-------------------------------------------|-12------------------------------|
||o------------------------------------------|---------------------------------|
||-------------------------------------------|---------------------------------|


          D5              F5                 Bb5
           PM----------------------------------------------------------|
   E       S S  S S  Q     S S  S  S  S  S    S S  S S  Q     S S  S S  Q
|------------------------------------------|---------------------------------|
|------------------------------------------|---------------------------------|
|------------------------------------------|---------------------------------|
|------------------------------------------|---------------------------------|
|----------0-0--0----------3-3--3--3--3--3-|--8-8--8----------8-8--8---------|
|----------0-0--0----------3-3--3--3--3--3-|--8-8--8----------8-8--8---------|
|
|  S  +S   E    E    E  E  E    S  S  S  S    E    E    E  E  E    E    E  E
|------------------------------------------|---------------------------------|
|------------------------------------------|---------------------------------|
|-------------------17-14------------------|-----------------14---15---14-12-|
|-12-(12)s15---15---------15---14h15p14p12-|------12---12-15-----------------|
|------------------------------------------|-13------------------------------|
|------------------------------------------|---------------------------------|
|
|  S  +S   E    E    E  E  E    S  S  S  S    E    E    E  E  E    E    E  E
|-------------------12---------------------|---------------------------------|
|----------------------13------------------|-----------------13---15---13-11-|
|-10-(10)s14---14---------14---12h14p12p10-|------10---10-14-----------------|
|------------------------------------------|-12------------------------------|
|------------------------------------------|---------------------------------|
|------------------------------------------|---------------------------------|


  1.,2.
          D5           F5
           PM--------------------------|
   E       S E    S  E  E.    E.        E
|--------------------------------------------|
|--------------------------------------------|
|--------------------------------------------|
|--------------------------------------------|
|----------0-0----0--0--3-----3---------3----|
|----------0-0----0--0--3-----3---------3----|
|
|  S  +S   E    E    E  E   E     S  S  S  S
|--------------------------------------------|
|--------------------------------------------|
|-------------------17-14--------------------|
|-12-(12)s15---15----------15----14h15p14p12-|
|--------------------------------------------|
|--------------------------------------------|
|
|  S  +S   E    E    E  E   E     S  S  S  S
|-------------------12-----------------------|
|----------------------13--------------------|
|-10-(10)s14---14----------14----12h14p12p10-|
|--------------------------------------------|
|--------------------------------------------|
|--------------------------------------------|


     Bb5
      PM--------------------------|
   E  S S  S S  Q     S S  S S  S S   3x
|-------------------------------------||
|------------------------------------o||
|-------------------------------------||
|-------------------------------------||
|-----8-8--8----------8-8--8-8--8-8--o||
|-----8-8--8----------8-8--8-8--8-8---||
|
|  E  E    E    E  E  E    E    E     3x
|-------------------------------------||
|------------------------------------o||
|-----------------14-15---14---12-----||
|----12---12---15---------------------||
|-13---------------------------------o||
|-------------------------------------||
|
|  E  E    E    E  E  E    E    E     3x
|-------------------------------------||
|-----------------13-15---13---11----o||
|----10---10---14---------------------||
|-12----------------------------------||
|------------------------------------o||
|-------------------------------------||


  3.
  D5
  Gtrs I, II
  PM--|      PM--|            PM---------|
  S S E +Q   S S E +Q     +E  S E S E Q  Q    W          +W
|-----------------------|-------------------|----------|--------*|
|-----------------------|-------------------|----------|--------*|
|-----------------------|-------------------|----------|--------*|
|-----------------------|-------------------|----------|--------*|
|-0-0-0-(0)--0-0-0-(0)--|-(0)-0-0-0-0-0--0--|-0--------|-(0)----*|
|-0-0-0-(0)--0-0-0-(0)--|-(0)-0-0-0-0-0--0--|-0--------|-(0)----*|



** Generated using Power Tab Editor by Brad Larsen: The Official Power Tab Web Site
comments
print report bad tab
30 comments total. Showing first comments.
0 reply
MetalorDIE wrote on June 19 2007, 01:53 pm

excellent job man! think ull do any guitar pro converts?

+1 reply
adtthosa wrote on June 19 2007, 03:38 pm

Thanks dude, I guess I could but I'm no drummer so it would just be guitar. Then again I guess the powertab version is just guitar too. Tell you what, I'll work on it. If anyone's interested in adding drums/bass email me.

0 reply
THEhardcoreSIHT wrote on June 19 2007, 05:36 pm

****ing great job man, its a little long but its top notch!

I want to post or [tab]
guest
You may want to rate the tab now too:
select rating
Please do not post tabs as comments. Select "correction" instead!