Oops, an error
Loading. Please wait.

Composure Bass Tab

ver2
ver2

Whole song

More versions @911Tabs.com
7,459 views 9 this week
no commentswrite comment
1 2 3 4 5
not so good
x 1
Autoscroll
+/-
esc
set tempo
stop
Contributor
WARNING: You are trying to view
                                    content from Ultimate-Guitar.com
                                    in an unauthorized application,
                                    which is prohibited.

                                    Please use an official Ultimate
                                    Guitar Tabs application for iPhone,
                                    iPad or Android to access legitimate
                                    chords, guitar, bass, and drum tabs
                                    from Ultimate-Guitar.com database.

                                    Type "ultimate guitar tabs" in Apple
                                    App Store's or Android Market's
                                    search to find the application.
                                  Composure

August Burns Red
Bass Tab


     W                   W                   W
F||-------------------|-------------------|-------------------|
C||-------------------|-------------------|-------------------|
G||-------------------|-------------------|-------------------|
C||--0----------------|--L----------------|--0----------------|


  H         H           W                   W
---------------------|-------------------|-------------------|
---------------------|-------------------|-------------------|
---------------------|-------------------|-------------------|
--L--------10--------|--8----------------|--L----------------|


  W                   H        H           W
-------------------|--------------------|-------------------|
-------------------|--------------------|-------------------|
-------------------|--------------------|-------------------|
--8----------------|--L--------5--------|--0----------------|


  W                   W                   H         H
-------------------|-------------------|---------------------|
-------------------|-------------------|---------------------|
-------------------|-------------------|---------------------|
--L----------------|--0----------------|--L--------10--------|


  W                   W                   W
-------------------|-------------------|-------------------|
-------------------|-------------------|-------------------|
-------------------|-------------------|-------------------|
--8----------------|--L----------------|--8----------------|


   H.            E  E       E   E   E  E  E  E  E  E
-----------------------||-----------------------------|
-----------------------||*----------------------------|
-----------------------||*----------------------5-----|
--10-------------L-----||---7h--8p--0--2--0--0-----0--|


  E   E   E  E  E  E  E  E     E   E   E  E  E  E  E  E
----------------------------|----------------------------|
----------------------------|----------------------------|
----------------------5-----|----------------------5-----|
--7h--8p--0--2--0--0-----0--|--7h--8p--0--2--0--0-----0--|


  E   E   E  E  E  E  E  E     E  E  E  E  E  E   E  E
----------------------------|---------------------------|
----------------------------|---------------------------|
----------------------5-----|--7--8--------------10-----|
--7h--8p--0--2--0--0-----0--|--------7--8--8--8------8--|


  E  E  E  E  E  E   E  E     E  E  E  E  E  E   E  E
---------------------------|---------------------------|
---------------------------|---------------------------|
--7--8--------------10-----|--7--8--------------10-----|
--------7--8--8--8------8--|--------7--8--8--8------8--|


  E  E  E  E  E  E   E  E       E  E  E  E  E  E   E  E
----------------------------||---------------------------|
---------------------------*||---------------------------|
--7--8--------------10-----*||--7--8--------------10-----|
--------7--8--8--8------8---||--------7--8--8--8------8--|


  E   E   E  E  E  E   E  E     E   E   E  E  E  E   E  E
-----------------------------|-----------------------------|
-----------------------------|-----------------------------|
--7h--8p--0-----------10-----|--7h--8p--0-----------10-----|
-------------8--8--8------8--|-------------8--8--8------8--|


  E   E   E  E  E  E   E  E     S S E  S  S  E  E  S S S S E
-----------------------------|--------------------------------|
-----------------------------|--------------------------------|
--7h--8p--0-----------10-----|---------7h-8p-7-----5-5-5-5----|
-------------8--8--8------8--|--0-0-0-----------0----------7--|


  S S E  S  S  E  E  S S S S E     S  S  E  E  S S S S S S S S S S
--------------------------------|----------------------------------|
--------------------------------|----------------------------------|
---------7h-8p-7----------------|--7h-8p-7-----8-8-7-7-5-5-7-7-5-5-|
--0-0-0-----------0--8-8-8-8-7--|-----------0----------------------|


  S  S  S  S  S   S  S  S   S   S   S  S   S   S   S   S
----------------------------------------------------------|
----------------------------------------------------------|
--7h-8p-7-(0)-8h-10p-8-(0)-10h-12p-10-(0)-12h-13p-12-(13)-|
----------------------------------------------------------|


  S S E  S  S  E  E  S S S S E     S S E  S  S  E  E  S S S S E
--------------------------------|--------------------------------|
--------------------------------|--------------------------------|
---------7h-8p-7-----5-5-5-5----|---------7h-8p-7-----5-5-5-5----|
--0-0-0-----------0----------7--|--0-0-0-----------0----------7--|


  S S E  S  S  E  E  S S S S E     S  S  E  E  S S S S S S S S S S
--------------------------------|----------------------------------|
--------------------------------|----------------------------------|
---------7h-8p-7----------------|--7h-8p-7-----8-8-7-7-5-5-7-7-5-5-|
--0-0-0-----------0--8-8-8-8-7--|-----------0----------------------|


  S  S  S  S  S   S  S  S   S   S   S  S   S   S   S   S
----------------------------------------------------------|
----------------------------------------------------------|
--7h-8p-7-(0)-8h-10p-8-(0)-10h-12p-10-(0)-12h-13p-12-(13)-|
----------------------------------------------------------|


  S S E  S  S  E  E  S S S S E     S S E  S  S  E  E  S S S S E
--------------------------------|--------------------------------|
--------------------------------|--------------------------------|
---------7h-8p-7-----5-5-5-5----|---------7h-8p-7----------------|
--0-0-0-----------0----------7--|--0-0-0-----------0--8-8-8-8-7--|


  S  S  E  E  E  H
--------------------------|
--------------------------|
--7h-8p-7-----------------|
-----------0--------------|


  S  S  S  S  S   S  S  S   S   S   S  S   S   S   S   S
----------------------------------------------------------|
----------------------------------------------------------|
--7h-8p-7-(0)-8h-10p-8-(0)-10h-12p-10-(0)-12h-13p-12-(13)-|
----------------------------------------------------------|


  S S E  S  S  E  E  S S S S E     S S E  S  S  E  E  S S S S E
--------------------------------|--------------------------------|
--------------------------------|--------------------------------|
---------7h-8p-7-----5-5-5-5----|---------7h-8p-7----------------|
--0-0-0-----------0----------7--|--0-0-0-----------0--8-8-8-8-7--|


  S  S  E  E  S S S S S S S S S S
----------------------------------|
----------------------------------|
--7h-8p-7-----8-8-7-7-5-5-7-7-5-5-|
-----------0----------------------|


  S  S  S  S  S   S  S  S   S   S   S  S   S   S   S   S
----------------------------------------------------------|
----------------------------------------------------------|
--7h-8p-7-(0)-8h-10p-8-(0)-10h-12p-10-(0)-12h-13p-12-(13)-|
----------------------------------------------------------|


    S S S S S S S S S S S S S S S S    S S S S E  S S S S S S S S S S
|-----------------------------------|---------------------------------|
|*----------------------------------|---------------------------------|
|*----------------------------------|---------------------------------|
|---0-0-0-0-0---0-0-0-0-0---0---0-0-|--0-0-0------0-0-0-0-0---0-0-0-0-|


  S S S S S S S S S S E       S S S S S S S S Q       H.
--------------------------||-----------------------|---------------|
-------------------------*||-----------------------|---------------|
-------------------------*||-----------------------|---------------|
--0---0---0-0-0-0-0-------||--0---0---0-0-0-0-0----|--L------------|


  S S S S S S S S S S S S S S S S    S S S S E  S S S S S S S S S S
----------------------------------|---------------------------------|
----------------------------------|---------------------------------|
----------------------------------|---------------------------------|
--0-0-0-0-0---0-0-0-0-0---0---0-0-|--0-0-0------0-0-0-0-0---0-0-0-0-|


  S S S S S S S S S S E     S S S S S S S S S S S S S S S S
-------------------------|----------------------------------|
-------------------------|----------------------------------|
-------------------------|----------------------------------|
--0---0---0-0-0-0-0------|--0-0-0-0-0---0-0-0-0-0---0---0-0-|


  S S S S E  S S S S S S S S S S    S S S S S S S S S S E
---------------------------------|-------------------------|
---------------------------------|-------------------------|
---------------------------------|-------------------------|
--0-0-0------0-0-0-0-0---0-0-0-0-|--0---0---0-0-0-0-0------|


  S S S S S S S S S S S S S S S S    S S S S E  S S S S S S S S S S
----------------------------------|---------------------------------|
----------------------------------|---------------------------------|
----------------------------------|---------------------------------|
--0-0-0-0-0---0-0-0-0-0---0---0-0-|--0-0-0------0-0-0-0-0---0-0-0-0-|


  S S S S S S S S    Q    Q    E  E  E  E     E  E  E.  S S  S  E  E   E
------------------|------------------------|------------------------------|
------------------|------------------------|--------------7h-8p-7---------|
------------------|---------------------5--|--L--5--5--------------8--10--|
--0---0---0-0-0-0-|--0----0----0--0--0-----|------------------------------|


  Q    Q    E  E  E  E     E  E  E.  S E   E  Q       Q    Q    E  E  E  E
------------------------|--------------------------|------------------------|
------------------------|--------------8p--7-------|------------------------|
------------------------|---------------------8----|---------------------5--|
--8----8----8--8--8--5--|--L--5--5-----------------|--0----0----0--0--0-----|


  E  E  E.  S S  S  E  E   E     Q    Q    E  E  E  E
------------------------------|------------------------|
--------------7h-8p-7---------|------------------------|
--L--5--5--------------8--10--|------------------------|
------------------------------|--8----8----8--8--8--5--|


  E  E  E.  S E   E  Q       Q    Q    E  E  E  E
--------------------------|------------------------|
--------------8p--7-------|------------------------|
---------------------8----|---------------------5--|
--L--5--5-----------------|--0----0----0--0--0-----|


  E  E  E.  S S  S  E  E   E     Q    Q    E  E  E  E
------------------------------|------------------------|
--------------7h-8p-7---------|------------------------|
--L--5--5--------------8--10--|------------------------|
------------------------------|--8----8----8--8--8--5--|


  E  E  E.  S E  E  Q       Q    Q    E  E  E  E
-------------------------|------------------------|
--------------8--7-------|------------------------|
--------------------8----|---------------------5--|
--L--5--5----------------|--0----0----0--0--0-----|


  E  E  E.  S S  S  E  E   E     Q    Q    E  E  E  E
------------------------------|------------------------|
--------------7h-8p-7---------|------------------------|
--L--5--5--------------8--10--|------------------------|
------------------------------|--8----8----8--8--8--5--|


  E  E  E.  S E  E  Q       Q    Q    E  E  E  E
-------------------------|------------------------|
--------------8--7-------|------------------------|
--------------------8----|---------------------5--|
--L--5--5----------------|--0----0----0--0--0-----|


  E  E  E.  S S  S  E  E   E     Q    Q    E  E  E  E
------------------------------|------------------------|
--------------7h-8p-7---------|------------------------|
--L--5--5--------------8--10--|------------------------|
------------------------------|--8----8----8--8--8--5--|


  E  E  E.  S E  E  Q       Q    Q    E  E  E  E
-------------------------|------------------------|
--------------8--7-------|------------------------|
--------------------8----|---------------------5--|
--L--5--5----------------|--0----0----0--0--0-----|


  E  E  E.  S S  S  E  E   E     Q    Q    E  E  E  E
------------------------------|------------------------|
--------------7h-8p-7---------|------------------------|
--L--5--5--------------8--10--|------------------------|
------------------------------|--8----8----8--8--8--5--|


  E  E  E  E  E  E  E  E     E  E  E  E  E  E  E  E
--------------------------|--------------------------|
--------------------------|--------------------------|
--------------------------|--------------------------|
--L--5--5--5--5--5--5--5--|--5--5--5--5--5--5--5--5--|


  E  E  E  E  E  E  E  E     E  E  H.
--------------------------|---------------------|
--------------------------|---------------------|
--------------------------|---------------------|
--5--5--5--5--5--5--5--5--|--5------------------|


    S S S S E  S S S S S S S S E     S S S S S S E  S S S S S S S S
|---------------------------------|---------------------------------|
|*--------------------------------|---------------------------------|
|*--------------------------------|---------------------------------|
|---0-0-0-0----0-0-0-0-0-0-0-0----|----0-0---0------0-0-0-0---0-0---|


  S S S S E  S S S S S S S S E     S S S S S S E  S S S S S S S S
--------------------------------|----------------------------------||
--------------------------------|---------------------------------*||
--------------------------------|---------------------------------*||
--0-0-0-0----0-0-0-0-0-0-0-0----|----0-0---0------0-0-0-0---0-0----||


  S S S E  S E  E  E  E   E     E  E  E   E  E  E  S  S  S  S
-----------------------------|-----------10--7----------------|
-----------------------------|--7--8--8---------8--7h-8p-7p-0-|
----------------7--8--8p--0--|--------------------------------|
--0-0-0-0--0-0---------------|--------------------------------|


  S S S E  S E  E  E  E   E     E  E  E  E  E    E  E    E
-----------------------------|-----------7------------------|
-----------------------------|--7--8--8---------------------|
----------------7--8--8p--0--|--------------8h--10----------|
--0-0-0-0--0-0---------------|----------------------8h--10--|


  S S S E  S E  E  E  E   E     E  E  E   E  E  E  S  S  S  S
-----------------------------|-----------10--7----------------|
-----------------------------|--7--8--8---------8--7h-8p-7p-0-|
----------------7--8--8p--0--|--------------------------------|
--0-0-0-0--0-0---------------|--------------------------------|


  S S S E  S E  E  E  E   E     E  E  E  E  E    E  E    E
-----------------------------|-----------7------------------|
-----------------------------|--7--8--8---------------------|
----------------7--8--8p--0--|--------------8h--10----------|
--0-0-0-0--0-0---------------|----------------------8h--10--|


  S S S S E  S S S S S S S S E     S S S S S E.  S S S S S S S S
--------------------------------|--------------------------------|
--------------------------------|--------------------------------|
--------------------------------|--------------------------------|
--0-0-0-0-L--0-0-0-0-0-0-0-0-L--|--L-0-0-L-0-L---0-0-0-0-L-0-0-L-|


  S S S S E  S S S S S S S S E     W
--------------------------------|-------------------|
--------------------------------|-------------------|
--------------------------------|-------------------|
--0-0-0-0-L--0-0-0-0-0-0-0-0-L--|--L----------------|


  S S S S E  S S S S S S S S E     S S S S S E.  S S S S S S S S
--------------------------------|--------------------------------|
--------------------------------|--------------------------------|
--------------------------------|--------------------------------|
--0-0-0-0-L--0-0-0-0-0-0-0-0-L--|--L-0-0-L-0-L---0-0-0-0-L-0-0-L-|


  S S S S E  S S S S S S S S E     H         H           H        E  E  Q
--------------------------------|---------------------|----------------------|
--------------------------------|---------------------|----------------------|
--------------------------------|---------------------|----------------------|
--0-0-0-0-L--0-0-0-0-0-0-0-0-L--|--8--------10--------|--0--------0----------|


  S S S E  S E  E  E  E   E     E  E  E   E  E  E  S  S  S  S
-----------------------------|-----------10--7----------------|
-----------------------------|--7--8--8---------8--7h-8p-7p-0-|
----------------7--8--8p--0--|--------------------------------|
--0-0-0-0--0-0---------------|--------------------------------|


  S S S E  S E  E  E  E   E     E  E  E  E  E    E  E    E
-----------------------------|-----------7------------------|
-----------------------------|--7--8--8---------------------|
----------------7--8--8p--0--|--------------8h--10----------|
--0-0-0-0--0-0---------------|----------------------8h--10--|


  S S S E  S E  E  E  E   E     E  E  E   E  E  E  S  S  S  S
-----------------------------|-----------10--7----------------|
-----------------------------|--7--8--8---------8--7h-8p-7p-0-|
----------------7--8--8p--0--|--------------------------------|
--0-0-0-0--0-0---------------|--------------------------------|


  S S S E  S E  E  E  E   E     E  E  E  E  E    E  E    E
-----------------------------|-----------7------------------|
-----------------------------|--7--8--8---------------------|
----------------7--8--8p--0--|--------------8h--10----------|
--0-0-0-0--0-0---------------|----------------------8h--10--|


  S S S S S S S S S S S S S S S S    S S S S S S S S S S S S S S S S
----------------------------------|----------------------------------|
----------------------------------|----------------------------------|
----------------------------------|----------------------------------|
--0-0-0-0-0-0-0-0-3-3-3-3-3-3-3-3-|--8-8-8-8-8-8-8-8-8-8-8-8-8-8-8-8-|


  S S S S S S S S S S S S S S S S    S S S S S S S S S S S S S S S S
----------------------------------|----------------------------------|
----------------------------------|----------------------------------|
----------------------------------|----------------------------------|
--0-0-0-0-0-0-0-0-3-3-3-3-3-3-3-3-|--8-8-8-8-8-8-8-8-5-5-5-5-5-5-5-5-|


  S S S S S S S S S S S S S S S S    S S S S S S S S S S S S S S S S
----------------------------------|----------------------------------|
----------------------------------|----------------------------------|
----------------------------------|----------------------------------|
--0-0-0-0-0-0-0-0-3-3-3-3-3-3-3-3-|--8-8-8-8-8-8-8-8-8-8-8-8-8-8-8-8-|


  S S S S S S S S S S S S S S S S    S S S S S S S S  S  S  S  S  S  S  S  S
----------------------------------|------------------------------------------|
----------------------------------|------------------------------------------|
----------------------------------|------------------------------------------|
--0-0-0-0-0-0-0-0-3-3-3-3-3-3-3-3-|--8-8-8-8-8-8-8-8-10-10-10-10-10-10-10-10-|


  S S E  S  S  E  E  S S S S E     S S E  S  S  E  E  S S S S E
--------------------------------|--------------------------------|
--------------------------------|--------------------------------|
---------7h-8p-7----------------|---------7h-8p-7----------------|
--0-0-0-----------0--0-0-0-0-0--|--0-0-0-----------0--0-0-0-0-0--|


  S S E  S  S  E  E  S S S S E     E  E  E  E   H
--------------------------------|-------------------------|
--------------------------------|-------------------------|
---------7h-8p-7----------------|-------------------------|
--0-0-0-----------0--0-0-0-0-0--|--------------12\--------|


  S S S S Q    E  E  Q       E  S E  S E  E.  E.  E
--------------------------|--------------------------|
--------------------------|--------------------------|
--------------------------|--------------------------|
--0-0-0--------0--0-------|-----0-0--0-0--0---0---0--|


  E  S S S S Q    S S S S S S    S S S S Q    S S S S Q
------------------------------|----------------------------|
------------------------------|----------------------------|
------------------------------|----------------------------|
-----0-0-0--------0-0-0-0-0-0-|--0-0-0--------0-0-0--------|


  E  S E  S E  E.  E.  E     E  S S S S Q    S S S S S S
--------------------------|------------------------------|
--------------------------|------------------------------|
--------------------------|------------------------------|
-----0-0--0-0--0---0---0--|-----0-0-0--------0-0-0-0-0-0-|


  S S S S Q    S S S S Q       E  S E  S E  E.  E.  E
----------------------------|--------------------------|
----------------------------|--------------------------|
----------------------------|--------------------------|
--0-0-0--------0-0-0--------|-----0-0--0-0--0---0---0--|


  E  S S S S Q    S S S S S S    S S S S Q    S S S S Q
------------------------------|----------------------------|
------------------------------|----------------------------|
------------------------------|----------------------------|
-----0-0-0--------0-0-0-0-0-0-|--0-0-0--------0-0-0--------|


  E  S E  S E  E.  E.  E     E  S S S S Q    S S S S S S
--------------------------|------------------------------|
--------------------------|------------------------------|
--------------------------|------------------------------|
-----0-0--0-0--0---0---0--|-----0-0-0--------0-0-0-0-0-0-|


  S S S S Q    S S S S Q       E  S E  S E  E.  E.  E
----------------------------|--------------------------|
----------------------------|--------------------------|
----------------------------|--------------------------|
--0-0-0--------0-0-0--------|-----0-0--0-0--0---0---0--|


  S S S S Q    S S S S Q       E  S E  S E  E.  E.  E
----------------------------|--------------------------|
----------------------------|--------------------------|
----------------------------|--------------------------|
--0-0-0--------3-3-3--------|-----8-8--8-8--8---8---8--|


  E  S S S S Q    S S S S S S    S S S S Q    S S S S Q
------------------------------|----------------------------|
------------------------------|----------------------------|
------------------------------|----------------------------|
-----0-0-0--------3-3-3-3-3-3-|--8-8-8--------8-8-8--------|


  E  S E  S E  E.  E.  E     E  S S S S Q    S S S S S S
--------------------------|------------------------------|
--------------------------|------------------------------|
--------------------------|------------------------------|
-----0-0--0-0--3---3---3--|-----8-8-8--------8-8-8-8-8-8-|


  S S S S Q    S S S S Q       E  S E  S E  E.  E.  E
----------------------------|--------------------------|
----------------------------|--------------------------|
----------------------------|--------------------------|
--0-0-0--------3-3-3--------|-----8-8--8-8--8---8---8--|


  E  S S S S Q    S S S S S S    S S S S Q    S S S S Q
------------------------------|----------------------------|
------------------------------|----------------------------|
------------------------------|----------------------------|
-----0-0-0--------3-3-3-3-3-3-|--8-8-8--------8-8-8--------|


  E  S E  S E  E.  E.  E     E  S S S S Q    S S S S S S
--------------------------|------------------------------|
--------------------------|------------------------------|
--------------------------|------------------------------|
-----0-0--0-0--3---3---3--|-----8-8-8--------8-8-8-8-8-8-|


  S S S S Q    S S S S Q       E  S E  S E  E.  E.  E
----------------------------|--------------------------|
----------------------------|--------------------------|
----------------------------|--------------------------|
--0-0-0--------3-3-3--------|-----8-8--8-8--8---8---8--|


  E  S S S S Q    S S S S S S    S S S S Q    S S S S Q
------------------------------|----------------------------|
------------------------------|----------------------------|
------------------------------|----------------------------|
-----0-0-0--------3-3-3-3-3-3-|--8-8-8--------8-8-8--------|


  S S E  Q    S S E  Q       E  S E  S E  Q    Q       W
--------------------------|-------------------------|-------------------|
--------------------------|-------------------------|-------------------|
--------------------------|-------------------------|-------------------|
--0-0-0--L----0-0-0--L----|--L--0-0--0-0--0----0----|--0----------------|


  W
-------------------||
-------------------||
-------------------||
--L----------------||

IF YOU ARE LOST YOU CAN WATCH THE VIDEO ON YOUTUBE
WWW.YOUTUBE.COM/THEPAPAX


Duration Legend
---------------
W - whole
H - half
Q - quarter
E - 8th
S - 16th
T - 32nd
X - 64th
. - note dotted
|-n-|  - n-tuplets


Tablature Legend
----------------
L - tied note
x - dead note
g - grace note
(n) - ghost note
> - accentuded note
NH - natural harmonic
AH - artificial harmonic
TH - tapped harmonic
SH - semi harmonic
PH - pitch harmonic
h - hammer on
p - pull off
b - bend
br - bendRelease
pb - preBend
pbr - preBendRelease
brb - bendReleaseBend
\n/ - tremolo bar dip
\n - tremolo bar dive
-/n - tremolo bar Release up
/n\ - tremolo bar inverted dip
/n - tremolo bar return
-\n - tremolo bar Release down
S - shift slide
s - legato slide
/ -  slide into from below or out of upwards
\ -  slide into from above or out of downwards
~ - vibrato
W - wide vibrato
tr - trill
TP - tremolo picking
T - tapping
S - slap
P - pop
< - fade in
^ - brush up
v - brush down
comments
We did not receive enough feedback on this tab! Please rate:
print report bad tab
1 2 3 4 5
I want to post or [tab]
guest
You may want to rate the tab now too:
select rating
Please do not post tabs as comments. Select "correction" instead!