Oops, an error
Loading. Please wait.

Constellations Tab

15,519 views 27 this week
3 commentsread comments
1 2 3 4 5
excellent!
x 9
add to favorites launch autoscroll
font size
0
reset
Autoscroll
+/-
esc
set tempo
stop
Contributor
Difficulty
Tuning
intermediate
C G C F A D
WARNING: You are trying to view
                                    content from Ultimate-Guitar.com
                                    in an unauthorized application,
                                    which is prohibited.

                                    Please use an official Ultimate
                                    Guitar Tabs application for iPhone,
                                    iPad or Android to access legitimate
                                    chords, guitar, bass, and drum tabs
                                    from Ultimate-Guitar.com database.

                                    Type "ultimate guitar tabs" in Apple
                                    App Store's or Android Market's
                                    search to find the application.
[Constellations]
[August Burns Red]

Tuning: CGCFAD (Drop C or Drop D 1 Step Down)
joshuaoliveira@hotmail.com

Note: to find each song, instead of scrolling up n down fr a million
hours lol just hit F5 n search the name of the song. i tried to make the
song names big n noticeable.. but the tabs huge, it really does it no
justice lol. this took me since.. it came out basically ahaha i think
its like 90% correct :P

Watch the times, they show whats happening where and if anything overlaps.
See how many times each riff is played (No indication means 1).
Watch if each part has one guitar or more and check if they match up.
For most break downs each "-" is a 16th note if and is tabbed accordingly.
Symbols listed at bottum.

Enjoy!


----------------------------------------------------------------------------

----------------------------------------------------------------------------

--------------------- [01. Thirty And Seven] - [03:18] ---------------------

----------------------------------------------------------------------------

----------------------------------------------------------------------------


[Riff 1] - [00:00] - [00:04]
- --------------------------------|
- --------------------------------|
- --------------------------------|
- -0~----------------------///----|
- -0~----------------------///----|
- -0~----------------------///----|

----------------------------------------------------------------------------

[Riff 2] - [00:04] - [00:34]
- -----------------------------------------------------------------|
- -----------------------------------------------------------------|
- -----------------------------------------------------------------|
- -------7---5---------------------------------------3p2---------5-|
- -8-------------7/8---8---8---3---5p0-----------3h5-----3-----7---|
- ---0-0---0---0-----0---0---0---0-----0-0-0-0-0-----------5h8-----|
PM   ...   .   .     .   .   .   .     .........

- ---------------------------------------------------------6---6---|
- -----------------------------------------------6-----------------|
- -----------------------------5--/7-----7---7-----7---7-----------|
- ---------------7p3---3---3---------5-5---5---5-----5---5---5---5-|
- -8p5---8---8-----------------------------------------------------|
- -----0---0---0-----0---0---0-------------------------------------|
PM     .   .   .     .   .   .       ...   .   .     .   .   .   .

- -----------------------------------------------------------------|
- -----------------------------------------------------------------|
- -----------------------------------------------------------------|
- -7-------------0h3h5p3p0-2h3h5---------------------3p2---------5-|
- -------5---5-------------------3h5p0-----------3h5-----3-----7---|
- ---0-0---0---0-----------------------0-0-0-0-0-----------5h8-----|
PM   ...   .   .                       .........

- -----------------------------------------------------------------|
- -----------------------------------------------6---------5h6-----|
- -----------------------------5--/7-----7---7-----7---7-------7---|
- ---------------7p3---3---3---------5-5---5---5-----5---5---------|
- -8p5---8---8-----------------------------------------------------|
- -----0---0---0-----0---0---0-------------------------------------|
PM     .   .   .     .   .   .       ...   .   .     .   .

- ---------------------------------------------------------------|
- -----------------------------------------------------------10--|
- -3-----3---3---7-7---7---7---3---2h3p2------------------10-----|
- ---5-5---5---5-----5---5---5---5-------3p2h3---------10--------|
- ---------------------------------------------3/5-5/8-----------|
- ---------------------------------------------------------------|
PM   ...   .   .     .   .   .   .

- -------------------8/10--------[10~]---------|
- -------11p10h10p11---------------------------|
- -10/12---------------------------------------|
- ---------------------------------------------|
- ---------------------------------------------|
- ---------------------------------------------|

- -----------------------------------------------|
- -----------------------------------------------|
- -10h12p10----10h14p12p10-9h10h12----9h10-------|
- ----------12---------------------10------12p10-|
- -----------------------------------------------|
- -----------------------------------------------|

[Riff 3] - [00:24] - [00:34]
- ---------|
- ---6---6-|
- ---7---7-|  Play for 2 bars each behind riff 2
- -8-7-8-7-|  i dont think its strummed. but you can if you
- -5-5-5-5-|  think so!
- -5---5---|

[Riff 4] - [00:34] - [00:44]
- -------------------------------------17h18-15h17-13h15-|
- -------------------13-15-15/18-17-18-------------------|
- -10-12-12/15-14-15-------------------------------------|
- -------------------------------------------------------|
- -------------------------------------------------------|
- -------------------------------------------------------|

- ----------------------------17h18p17-------------------|
- -------------------13-15/18----------18----------18\17-|
- -10-12-12/15-14-15----------------------17----17-------|
- -------------------------------------------19----------|
- -------------------------------------------------------|
- -------------------------------------------------------|

- -------------------------------------17h18-15h17-13h15-|
- -------------------13-15-15/18-17-18-------------------|
- -10-12-12/15-14-15-------------------------------------|
- -------------------------------------------------------|
- -------------------------------------------------------|
- -------------------------------------------------------|

- ---------------------------------------------13-|
- -10h13---------------------------------13h15----|
- -------9h10-------------------10h12/14----------|
- ------------10h12-------10h12-------------------|
- ------------------10h12-------------------------|
- ------------------------------------------------|

[Riff 3, Guitar 1 & 2] - [00:44] - [00:54]
- -8--------8---------8---------8/13~------8--------8------------|
- ----10--------10--------10------------------10--------10----10-|
- -------10--------10--------10------------------10--------10----|
- ---------------------------------------------------------------|
- ---------------------------------------------------------------|
- ---------------------------------------------------------------|
-
- ---------------------------------------------------------------|
- -10-------10--------10--------10/15~-----10-------10-----------|
- ----10--------10--------10------------------10--------10----10-|
- -------12--------12--------12------------------12--------12----|
- ---------------------------------------------------------------|
- ---------------------------------------------------------------|


- -----------------------------------------------------------------|
- ----------------8h10-11p10----11-p10----11-p10-------------------|
- --------------7------------10--------10--------10h12-9h10--------|
- -7----7-8--10----------------------------------------------10h12-|
- ---10------------------------------------------------------------|
- -----------------------------------------------------------------|
PM ..............
-
- -----------------------------------------------------------------|
- -----------------------------------------------------------------|
- ----------------9h10-12p10----12-p10----12-p10-------------------|
- -----------7--8------------12--------12--------12h14-10h12-------|
- -8-7--8-10-------------------------------------------------12h13-|
- -----------------------------------------------------------------|
PM ..............


- ---------------------------------------|
- -10h11p10------------------------------|
- ----------10p9-12p10p9-7h9h10---9h10-7-|
- ------------------------------7--------|
- ---------------------------------------|
- ---------------------------------------|
-
- ---------------------------------------|
- -10h11p10------------------------------|
- ----------10p9-12p10p9------7---5h7----|
- -----------------------8h10------------|
- ------------------------------8------5-|
- ---------------------------------------|

[Riff 5] - [00:34] - [00:54]
- ---------------|
- -3-6-3---3-6-3-|
- -3-7-3---3-7-3-|
- -3-7-3-7-3-7-3-| strum for 2 bars each behind riff 4
- -1-5-1-3-1-5-1-|
- -------3-------|

----------------------------------------------------------------------------

[Riff 6,Guitar 1 & 2] - [00:54] - [01:05]---------------------------| 2x
- ------------------------------------------------------------------|
- ------------------------------------------------------------------|
- ------------------------------------------------------------------|
- ---------------------------------------------------3p2---5--------|
- -0---0---000---0---000---000000000-000-0-000---0-5-----4---1h4p0--|
- -0---0---000---0---000---000000000-000-0-000---0------------------|
PM .................................................     .
-
- -----------------------------------------------------------------|
- -----------------------------------------------------------------|
- -----------------------------------------------------------------|
- -----7-8-7-----------7-8-7-----------7-8-7---------7p5---8-------|
- -5-8-------8-7-4-5-8-------8-7-4-5-8-------8-7-4-8-----7---5h7p4-|
- -----------------------------------------------------------------|
PM                                                 .     .


[Riff 7a] - [01:05] - [01:10]
- ------------------------------------------------------------------|
- ------------------------------------------------------------------|
- --------(Let Notes Ring Out)--------------------------------------|
- -------------------------------------------------8---5---7---[7~]-|
- -0---0---000---0---000---000000000-000-0-000---0------------------|
- -0---0---000---0---000---000000000-000-0-000---0---00--00--00-----|
PM ...............................................   ..  ..  ..

[Riff 7b] - [01:05] - [01:10]
- --------------------------------------------------------------------------|
- -----10-11-10-----------10-11-10-----------10-11-10-----------------------|
- -7-10--------10-9-6-7-10--------10-9-6-7-10--------10-9-6-7-------6--[6~]-|
- --------------------------------------------------------------8-----------|
- --------------------------------------------------------------------------|
- ------------------------------------------------------------00--00--00----|
PM                                                            ..  ..  ..


[Riff 8a] - [01:10] - [01:16]
- -----------------------------------------------------------------|
- -----------------------------------------------------------------|
- -----------------------------------------------------------------|
- -------------------------------------------------8---5---7-------|
- -0---0---000---0---000---000000000-000-0-000---0-------------7\--|
- -0---0---000---0---000---000000000-000-0-000---0-----------------|
PM .........................................................
AP                                                 .........


[Riff 8b, Guitar 1 & 2] - [01:10] - [01:16]
- --------------------------------------------------------------------------|
- -----10-11-10-----------10-11-10-----------10-11-10-----------------------|
- -7-10--------10-9-6-7-10--------10-9-6-7-10--------10-9-6-----------------|
- ----------------------------------------------------------12--8---11--7\--|
- --------------------------------------------------------------------------|
- --------------------------------------------------------------------------|
PM                                                          ..........
AP                                                          ..........
-
- --------------------------------------------------------------------------|
- -----6--8--6------------6--8--6------------6--8--6------------------------|
- ---7---------7--6-----7---------7--6-----7---------7--6-------------------|
- -7----------------7-7----------------7-7----------------7-----------------|
- --------------------------------------------------------------------------|
- --------------------------------------------------------------------------|

----------------------------------------------------------------------------

[Riff 9, Guitar 1 & 2] - [01:16] - [01:21]
- -----------------------------------------------------------------|
- -----------------------------------------------------------------|
- -----------------------------------------------------------------|
- -0~------------------------------///-----------------------------|
- -0~------------------------------///-----------------------------|
- -0~------------------------------///-----------------------------|
-
- -----------------------------------------------------------------|
- -----------------------------------------------------------------|
- -----------------------------------------------------------------|
- -0~----------------------------------------------///-------------|
- -0~----------------------------------------------///-------------|
- -0~----------------------------------------------///-------------|

----------------------------------------------------------------------------

[Riff 10] - [01:21] - [01:31]
- ----------------------------------------------|
- ----------------------------------------------|
- ----------------------------------------------|
- -----5h7p0-5h7p0-----7h12p0-7h12p0-8h12p0-----|
- ----------------------------------------------|
- -000-------------000----------------------000-|
PM ...             ...                      ...

- ----------------------------------------------|
- ----------------------------------------------|
- -----------------------------------6h7p6-[7~]-|
- -----5h7p0-5h7p0-----8h12p0-7h12p0------------|
- ----------------------------------------------|
- -000-------------000--------------------------|
PM ...             ...

- ----------------------------------------------|
- ----------------------------------------------|
- ----------------------------------------------|
- -----5h7p0-5h7p0-----7h12p0-7h12p0-8h12p0-----|
- ----------------------------------------------|
- -000-------------000----------------------000-|
PM ...             ...                      ...

- ----------------------------------------------|
- ----------------------------------------------|
- ---------------------6h7p6--------------------|
- -----5h7p0-5h7p0-----------7-------3-0~-------|
- -----------------------------0h3h7---0~-------|
- -000-------------000-----------------0~-------|
PM ...             ...

[Riff 11] - [01:31] - [01:42]
- -------------------------------------------|
- -------------------------------------------|
- -------------------------------------------|
- -----3h7p0-3h7p0-----5h8p0-5h8p0-3h7p0-----|
- -------------------------------------------|
- ---0-------------000-------------------000-|
PM   .             ...                   ...

- -------------------------------------------|
- -------------------------------------------|
- ---------------------------------6h7p6-----|
- -----3h7p0-3h7p0-----5h8p0-3h7p0-------7---|
- -------------------------------------------|
- -000-------------000-----------------------|
PM ...             ...

- -------------------------------------------|
- -------------------------------------------|
- -------------------------------------------|
- -----3h7p0-3h7p0-----5h8p0-5h8p0-3h7p0-----|
- -------------------------------------------|
- -000-------------000-------------------000-|
PM ...             ...                   ...

- -------------------------------------------|
- -------------------------------------------|
- ---------------------------------6h7p6-----|
- -----3h7p0-3h7p0-----5h8p0-3h7p0-------7---|
- -------------------------------------------|
- -000-------------000-----------------------|
PM ...             ...

----------------------------------------------------------------------------

[Riff 12a] - [01:42] - [01:53]
- -----------------------------------------|
- -----------------------------------------|
- -----9h10p9--------------9h10p9----------|
- -7-7--------12-12-12-7-7--------12-12-12-|
- -----------------------------------------|
- -----------------------------------------|
PM ...                 ...

- ------------------------------------------|
- ---------------------11-10-8--------------|
- -9-9-12-12-9-9-10-10---------10-9----10-9-|
- ----------------------------------11------|
- ------------------------------------------|
- ------------------------------------------|

- ------------------------------------|
- ------------------------------------|
- -------------------10---------------|
- ----8-7-8----8-7-8----8-7-8-----5-7-|
- -10-------10----------------7-8-----|
- ------------------------------------|

- -----------------10-6-------------|
- ----------------------8-5-6---5---|
- -------------6-9------------7---6-|
- -------7-5-8----------------------|
- -7-5-4----------------------------|
- ----------------------------------|

[Riff 12b] - [01:42] - [01:53]
- -----------------------------------------------------------------|
- -----------------------------------------------------------------|
- -2-2-2-2-2-2-2-2-2-2-2-2-2-2-2-2-0-0-0-0-0-0-0-0-0-0-0-0-0-0-0-0-|
- -3-3-3-3-3-3-3-3-3-3-3-3-3-3-3-3-2-2-2-2-2-2-2-2-2-2-2-2-2-2-2-2-|
- -5-5-5-5-5-5-5-5-5-5-5-5-5-5-5-5-4-4-4-4-4-4-4-4-4-4-4-4-4-4-4-4-|
- -----------------------------------------------------------------|
PM ...............................................................

- -----------------------------------------------------------------|
- -----------------------------------------------------------------|
- ---------0---------------0---------------0-----------------------|
- -3-3-3-3-3-3-3-3-3-3-3-3-3-3-3-3-2-2-2-2-2-2-2-2-2-2-2-2-2-2-2-2-|
- -1-1-1-1-1-1-1-1-1-1-1-1-1-1-1-1-0-0-0-0-0-0-0-0-0-0-0-0-0-0-0-0-|
- -----------------------------------------------------------------|
PM .......   .............   .............   .....................

----------------------------------------------------------------------------

[Riff 13, Guitar 1 & 2] - [01:53] - [02:04]--------------------------| 2x
- -------------------------------------------------------------------|
- -------------------------------------------------------------------|
- -------------------------------------------------------------------|
- -------------------------------------------------------------------|
- -000-0-0-0-0-000-0-0-0-0-000-000-000-0-0-000-000-0-0-0-0-00000000--|
- -000-0-0-0-0-000-0-0-0-0-000-000-000-0-0-000-000-0-0-0-0-00000000--|
PM ................................................................
-
- ------------------------------------------------------------------|
- ------------------------------------------------------------------|
- ------------------------------------------------------------------|
- ------------------------------------------------------------------|
- -000---------000---------000-000-000-----000-000---------00000000-|
- -000---------000---------000-000-000-----000-000---------00000000-|
PM ................................................................

----------------------------------------------------------------------------

[Riff 14, Guitar 1 & 2] - [02:04] - [02:06]
- ---------------------------------|
- ---------------------------------|
- -----------------------------6---|
- -8---5h7-----------8p7---7-------|
- -----------7---8-------8---------|
- ---0-----0---0---0---------0-----|
PM   .     .   .   .     .   .
-
- ---------------------------------|
- ---------------------------------|
- ---------------------------------|
- -5---2h3-----------5p3p0-----7---|
- -----------3---5---------7-------|
- ---0-----0---0---0---------0-----|
PM   .     .   .   .         .

----------------------------------------------------------------------------

[Riff 15] - [02:06] - [02:15]
- ---------------------------------------|
- ---------------------------------------|
- -7-----10---9--------------------------|
- ----------------10h12---12---12--------|
- ----------------------------------12---|
- ---0-0----0---0-------0----0----0----0-|
PM   ...    .   .       .    .    .    .

- ------------------------------------------|
- ------------------------------------------|
- ----------------------10p9-------------12-|
- -12p0-----------10h12------10-------12----|
- ------------------------------10h13-------|
- ------0-0-0-0-0---------------------------|
PM      .........

- ------------------------------------|
- ------------------------------------|
- ------------------------------------|
- -12p0---10---12---7h8---8---8---5---|
- ------------------------------------|
- ------0----0----0-----0---0---0---0-|
PM      .    .    .     .   .   .   .

- -------------------------6---6---|
- ---------------6-----------------|
- -7-----7---7-----7---7-----------|
- ---5-5---5---5-----5---5---5---5-|
- ---------------------------------|
- ---------------------------------|
PM   ...   .   .     .   .   .   .

----------------------------------------------------------------------------

[Riff 16, Guitar 1 & 2] - [02:15] - [02:25]
- -----------------------------------------|
- -----------------------------------------|
- -7------10---9---------------------------|
- ------------------10h12---12---12--------|
- ------------------------------------12---|
- ----0-0----0----0-------0----0----0----0-|
PM    ...    .    .       .    .    .    .
-
- -----------------------------------------|
- -----------------------------------------|
- -10-----14---12--------------------------|
- ------------------14h15---15---15---12---|
- -----------------------------------------|
- ----0-0----0----0-------0----0----0----0-|
PM    ...    .    .       .    .    .    .


- -------------------------------------------|
- -------------------------------------------|
- ----------------------10p9--------------12-|
- -12p0-----------10h12-------10-------12----|
- -------------------------------10h13-------|
- ------0-0-0-0-0----------------------------|
PM      .........
-
- -------------------------------------------|
- -------------------------------------------|
- ----------------------14p12-------------15-|
- -15p0-----------14h15-------14-------15----|
- -------------------------------13h17-------|
- ------0-0-0-0-0----------------------------|
PM      .........


- ----------------------------------------|
- ----------------------------------------|
- ----------------------------------------|
- -12p0---10---12----7h8----8----8----5---|
- ----------------------------------------|
- ------0----0----0-------0----0----0---0-|
PM      .    .    .       .    .    .   .
-
- ----------------------------------------|
- ----------------------------------------|
- ----------------------------------------|
- -15p0---14---15---10h12---12---12---8---|
- ----------------------------------------|
- ------0----0----0-------0----0----0---0-|
PM      .    .    .       .    .    .   .


- ----------------------------------------|
- ------------------6------------5h6------|
- -7------7----7-------7----7---------7---|
- ----5-5----5----5-------5----5----------|
- ----------------------------------------|
- ----------------------------------------|
PM    ...    .    .       .    .
-
- ----------------------------------------|
- ------------------10-------------10-----|
- -10-----10---10------10---10---9----10--|
- ----8-8----8----8-------8----8----------|
- ----------------------------------------|
- ----------------------------------------|
PM    ...    .    .       .    .

----------------------------------------------------------------------------

[Riff 17, Guitar 1 & 2] - [02:25] - [02:35]
- ---------------------------------|
- ---------------------------------|
- ---------------------------------|
- -5-----------------------7-------|
- -----------------8---------------|
- ---------------------------------|
AP .........................
-
- ---------------------------------|
- ---------------------------------|
- --------7----------------10------|
- -8-------------------------------|
- ---------------------------------|
- ---------------------------------|
AP ..........................

----------------------------------------------------------------------------

[Riff 18, Guitar 1 & 2] - [02:35] - [02:45]
- -----------------------------------------------------------------|
- -----------------------------------------------------------------|
- -----------------------7-----------------------------------------|
- -8-----8-----7---8---------5-------------------7---------------7-|
- -----------------------------------------8\3/5-----------8\3/5---|
- ---5-5---5-5---5---5-5---5---5-5-000-000---------000-000---------|
PM   ...   ...   .   ...   .   ...........         .......
-
- ------------------------------------------------------------------|
- -----------------------6-----------------------6---------------5--|
- -7-----7-----5---7------------------------------------------------|
- ---------------------------8-------------0h2h3-----------0h2h3----|
- ------------------------------------------------------------------|
- ---5-5---5-5---5---5-5---5---5-5-000-000---------000-000----------|
PM   ...   ...   .   ...   .   ...........         .......


- -----------------------------------------------------|
- -----------------------------------------------------|
- -----------------------------------------------------|
- -5-----5---------5-----8---7-------------------------|
- -------------8-----------------000000000-0-0-0-------|
- ---5-5---5-5---5---5-5---5-----000000000-0-0-0-------|
PM   ...   ...   .   ...   .     ...............
-
- -----------------------------------------------------|
- ---------------------------6-------------------------|
- -----------------------7-----------------------------|
- -8-----8-----7---8-----------------------------------|
- -------------------------------000000000-0-0-0-------|
- ---5-5---5-5---5---5-5---5-----000000000-0-0-0-------|
PM   ...   ...   .   ...   .     ...............

----------------------------------------------------------------------------

[Riff 19] - [02:45] - [02:53]-----------------------| 2x
- --------------------------------------------------|
- --------------------------------------------------|
- --------------------------------------------------|
- --------------------------------------------------|
- -000000000-0-0-0-----00000---000-000---00000-0-0--|
- -000000000-0-0-0-----00000---000-000---00000-0-0--|
PM ...............................................

----------------------------------------------------------------------------

[Riff 20a] - [02:53] - [03:04]--------------------------------------| 2x
- ------------------------------------------------------------------|
- ------------------------------------------------------------------|
- ------------------------------------------------------------------|
- ------------------------------------------------------------------|
- -000000000-0-0-0-----00000---000-000---00000-0-0---00000-0-00000--|
- -000000000-0-0-0-----00000---000-000---00000-0-0---00000-0-00000--|
PM ...............................................................

[Riff 21b, Guitar 1 & 2] - [02:53] - [03:04]
- ---------------------------------|
- ---------------------------------|
- ---------------------------------|
- -----------------3---------------|
- -5-------1---0-----------5---4---|
- ---------------------------------|
AP .............................
-
- ---------------------------------|
- ---------------------------------|
- ---------------------------------|
- -7-------------------------------|
- -------------------------8---7---|
- ---------------------------------|
AP .............................

----------------------------------------------------------------------------

[Riff 22] - [03:04] - [03:18]
- ---------|
- ---------|
- ---------|
- -0~------|
- -0~------|
- -0~------|


----------------------------------------------------------------------------

----------------------------------------------------------------------------

------------------------- [02. Existence] - [03:54] ------------------------

----------------------------------------------------------------------------

----------------------------------------------------------------------------


[Riff 1, Guitar 1 & 2] - [00:00] - [00:10]
- -----------------------------------------------------------------|
- -----------------------------------------------------------------|
- -7-------------7-----------------7-------------7-----------------|
- -----------7h8-----------------------------7h8-------------------|
- ---0-0-0-0-------0-0-0-0-000-0-0---0-0-0-0-------0-0-0-0-0-------|
- ---0-0-0-0-------0-0-0-0-000-0-0---0-0-0-0-------0-0-0-0-0-------|
PM   .......       ...............   .......       .........
-
- -----------------------------------------------------------------|
- -----------------------------------------------------------------|
- -----------------------------------------------------------------|
- ---------------------------------------------------------------3-|
- -0-0-0-0-0-----------------------0-0-0-0-0-------0-0-0-0-5p0h1---|
- -0-0-0-0-0-----------------------0-0-0-0-0-------0-0-0-0---------|
PM .......................................................


- ------------------------------------------------------------------------|
- ------------------------------------------------------------------------|
- -7-------------7-----------------7---------------10-9-7-----7-----------|
- -----------7h8-----------------------------7h8-----------10----10-8--7--|
- ---0-0-0-0-------0-0-0-0-000-0-0---0-0-0-0------------------------------|
- ---0-0-0-0-------0-0-0-0-000-0-0---0-0-0-0-----0------------------------|
PM   .......       ...............   .......     .
-
- ------------------------------------------------------------------------|
- -------------------------------------------------10-8-------------------|
- ------------------------------------------------------10-9--10-9--------|
- ------------------------------------------------------------------12-10-|
- -0-0-0-0-0-----------------------0-0-0-0-0------------------------------|
- -0-0-0-0-0-----------------------0-0-0-0-0------------------------------|
PM .........................................

----------------------------------------------------------------------------

[Riff 2] - [00:10] - [00:19]
- -------------------------------------------------------------------|
- -------------------------------------------------------------------|
- -7-------------7---------------7-7-------------7-7-7-7-7-10-7----7-|
- -----------7h8-------8---7h8---------8---7h8------------------10---|
- -------------------------------------------------------------------|
- ---0-0-0-0-------0-0---0-----0-----0---0-----0---------------------|
PM   .......       ...   .     .     .   .     .

- ----------------------------------------------------------------------|
- ----------------------------------------------------------------------|
- -7--------------7---------------7-7---------------10-9-7----7---------|
- ------------7h8-------8---7h8---------8---7h8------------10---10-8-7--|
- ----------------------------------------------------------------------|
- ---0-0-0-0--------0-0---0-----0-----0---0-----0-0---------------------|
PM   .......        ...   .     .     .   .     ...

- ----------------------|
- -10-8-----------------|
- ------10-9-10-9-------| harmony part played at end.
- ----------------12-10-|
- ----------------------|
- ----------------------|


----------------------------------------------------------------------------

[Riff 2] - [00:19] - [00:28]

[Riff 3] - [00:19] - [00:28]
- -------------------------------------------------------------|
- -------------------------------------------------------------|
- -10---------------10------------------10-10------------------|
- ------------10h12--------12---10h12-----------12---10h12-----|
- -------------------------------------------------------------|
- ----0-0-0-0----------0-0----0-------0-------0----0-------0-0-|
PM    .......          ...    .       .       .    .       ...

- -------------------------------------------------------------|
- -------------------------------------------------------------|
- -------------10--------------------------10------------------|
- -10-10-10-10----10-9-10-10---------10h12--------12---10h12---|
- -------------------------------------------------------------|
- ---------------------------0-0-0-0----------0-0----0-------0-|
PM                           .......          ...    .       .

- ---------------------------------------------|
- ------------------------10-8-----------------|
- -10-10-----------------------10-9-10-9-------|
- ---------12---10h12--------------------12-10-|
- ---------------------------------------------|
- -------0----0-------0-0----------------------|
PM       .    .       ...

----------------------------------------------------------------------------

[Riff 4, Guitar 1 & 2] - [00:28] - [00:43]-------------------------------| 3x
- -----------------------------------------------------------------------|
- -------------------------8---11p10-------------------------------------|
- ---------7-----9----10-------------10---------7------------------------|
- -----7------------------------------------7---------7---7---8---8-8-8--|
- ----------------------------------------------------3---3---5---5-5-5--|
- -0-0---0---0-0----0----0---0----------0-0---0---0-0-3---3---5---5-5-5--|
PM ...   .   ...    .    .   .          ...   .   ...
-
- ----------------------------------------------------------------------|
- ----------------------------------------------------------------------|
- -------------------------9---12p10------------------2---2---3---3-3-3-|
- ---------8-----10---12-------------12---------8-----3---3---5---5-5-5-|
- -----8------------------------------------8---------------------------|
- -0-0---0---0-0----0----0---0----------0-0---0---0-0-------------------|
PM ...   .   ...    .    .   .          ...   .   ...

[Riff 5, Guitar 1 & 2] - [00:43] - [00:46]
- ---------------------------12---15-13--------------------|
- ----------11-----13---15--------------15----------11-----|
- -----10--------------------------------------10----------|
- ---------------------------------------------------------|
- ---------------------------------------------------------|
- -0-0----0----0-0----0----0----0----------0-0----0----0-0-|
PM ...    .    ...    .    .    .          ...    .    ...
-
- ---------------------------15---18-17--------------------|
- ----------15-----17---18--------------18----------15-----|
- -----14--------------------------------------14----------|
- ---------------------------------------------------------|
- ---------------------------------------------------------|
- -0-0----0----0-0----0----0----0----------0-0----0----0-0-|
PM ...    .    ...    .    .    .          ...    .    ...

----------------------------------------------------------------------------

[Riff 6, Guitar 1 & 2] - [00:46] - [00:53]
- ----------------------------------------------------------------------|
- ----------------------------------------------------------------------|
- -----------------------------------------------------------------9/12-|
- -7---7---8---8-8-8-1212121215151511111111111111111111111111111111x-x--|
- -3---3---5---5-5-5-8-8-8-8-1212127-7-7-7-7-7-7-7-7-7-7-7-7-7-7-7-7/10-|
- -3---3---5---5-5-5-8-8-8-8-1212127-7-7-7-7-7-7-7-7-7-7-7-7-7-7-7------|
-
- ----------------------------------------------------------------------|
- ----------------------------------------------------------------------|
- -2---2---3---3-3-3-7-7-7-7-1010106-6-6-6-6-6-6-6-6-9-9-9-9-9-9-9-9-9--|
- -3---3---5---5-5-5-8-8-8-8-1212127-7-7-7-7-7-7-7-7-7-7-7-7-7-7-7-7-7--|
- ---------------------------------------------------7-7-7-7-7-7-7-7-7--|
- ----------------------------------------------------------------------|


- ------------------------------------------------|
- ------------------------------------------------|
- -12-12-12-12-12-12-12/15-15-15-15-15------------|
- -x--x--x--x--x--x--x--x--x--x--x--x--12\--------|
- -10-10-10-10-10-10-10/13-13-13-13-13-12\--------|
- -------------------------------------12\--------|
-
- ------------------------------------------------|
- ------------------------------------------------|
- -9--9--9--9--9--9--9--9--9--9--9--9-------------|
- -7--7--7--7--7--7--7--7--7--7--7--7--12\--------|
- -7--7--7--7--7--7--7--7--7--7--7--7--12\--------|
- -------------------------------------12\--------|

if my gp gets accepted it'll explain this part Muchh more clearly.. lol

----------------------------------------------------------------------------

[Riff 7] - [00:53] - [01:04]
- ------------------------------------------------------------------------|
- ---------------------(Let notes ring out)-------------------------------|
- ------------------------------------------------------------------------|
- ------------------------------------------------------------------------|
- -0000-0000---0000-0000-0000---0000-0000-0000-0000---0000-0000---0000----|
- -0000-0000---0000-0000-0000---0000-0000-0000-0000---0000-0000---0000----|
PM ...................................................................

- ----------|
- ----------|
- ----------|
- ----------|
- -00000000-|
- -00000000-|
PM ........

----------------------------------------------------------------------------

[Riff 8a] - [01:04] - [01:23]----------------------------------------------| 2x
- -------------------------------------------------------------------------|
- -------------------------------------------------------------------------|
- -------------------------------------------------------------------------|
- -------------------------------------------------------------------------|
- -8888-8888---8888-8883-3333---3333-3333-7777-7777---7777-7773---3333-----|
- -8888-8888---8888-8883-3333---3333-3333-7777-7777---7777-7773---3333-----|
PM ...................................................................

- ----------|
- ----------|
- ----------|
- ----------|
- -33333333-|
- -33333333-|
PM ........

[Riff 8b] - [01:04] - [01:23]----| 2x
- -------------------------------|
- -3-1-1-1-----------------------|
- -3-2-0-2-----------------------|
- -3-3-2-3-----------------------|
- -1-3-3-3-----------------------| strum for 2 bars each behind riff 8a
- -------------------------------|
PM .......

----------------------------------------------------------------------------

[Riff 8b] - [01:23] - [01:43] - 2x

[Riff 9] - [01:23] - [01:43]------------------------------------------------| 2x
- --------------------------------------------------------------------------|
- --------------------------------------------------------------------------|
- --------------------10p7-----------------------14p10----------------------|
- -0h5h7p0-12p8------------8----8p7----0h10h12p0-------------3-----8-5-7-7--|
- ---------------------------10-----10-------------------------5-3----------|
- --------------8-8-8----------------------------------000-0----------------|
PM              .....                                  ...........

- ---------------------------------------------------------------------|
- ---------------------------------------------------------------------|
- ------------------------10p7-----------------------14p10-------------|
- -0h10p7p0-12p8---------------8----8p7----0h10h12p0-------------3-----|
- -------------------------------10-----10-------------------------5-3-|
- ---------------10-10-10----------------------------------000-0-------|
PM               ........                                  ...........

- ---------|
- ---------|
- ---------|
- -8-5-7-7-|
- ---------|
- ---------|

----------------------------------------------------------------------------

[Riff 9] - [01:43] - [02:03] - 2x

[Riff 10] - [[01:43] - [02:03]-----------------------------------------------| 2x
- ---------------------------------------------------------------------------|
- -------------------10------------------------------------------------------|
- ----------10p7--------10-7---7----------------------------------7----------|
- -0h8h10p0------------------8---10-7-0h14h15p0-15p12-------7-------8-10-10--|
- ------------------------------------------------------------8-7------------|
- --------------8-8-8--------------------------------000-0-------------------|
PM              .....                                ............

- -----------------------------------------------------------------------|
- --------------------------10-------------------------------------------|
- -----------------------------10-7---7----------------------------------|
- -0h14p10p0-15p12------------------8---10-7-0h14h15p0-15p12-------7-----|
- -------------------------------------------------------------------8-7-|
- -----------------10-10-10----------------------------------000-0-------|
PM                 ........                                  ...........

- -----------|
- -----------|
- -7---------|
- ---8-10-10-|
- -----------|
- -----------|

----------------------------------------------------------------------------

[Riff 1, Guitar 1 & 2] - [02:03] - [02:12]

----------------------------------------------------------------------------

[Riff 11] - [02:12] - [02:32]------------------------------------------------| 2x
- ---------------------------------------------------------------------------|
- ---------------------------------------------------------------------------|
- -7---------------10---7-----------------------------------------7----7-----|
- -------8---7h8-------------8-----7h8--5p0---5---5h7h8/10---10--------------|
- ---------------------------------------------------------------------------|
- ---0-0---0-----0----0----0----0-----------0---0-----------0---0----0----0--|
PM   ...   .     .    .    .    .           .   .           .   .    .    .
-
- --------------------------------------------------------------------------|
- -----------------10-------------------------------------------------------|
- -10-------------------10--------------------------------9---9---10---10---|
- ------12--10h12------------12---10h12-8p0---8---8h10h12-------------------|
- --------------------------------------------------------------------------|
- ---0-0---0-----0----0----0----0-----------0---0-----------0---0----0----0-|
PM   ...   .     .    .    .    .           .   .           .   .    .    .


- --------------------------------------------------------------------------|
- --------------------------------------------------------------------------|
- -7---------------10---7----------------------------------------9h10-10h12-|
- -------8---7h8-------------8-----7h8--5p0----------------7----------------|
- ---------------------------------------------7h8-----7h8---8--------------|
- ---0-0---0-----0----0----0----0-----------0-------0-----------0----0------|
PM   ...   .     .    .    .    .           .       .           .    .
-
- --------------------------------------------------------------------------|
- -----------------10--------------------------------------------8h10-10h11-|
- -10-------------------10---------------------------------10---------------|
- ------12--10h12------------12---10h12-8p0-----------10h12--12-------------|
- --------------------------------------------10h12-------------------------|
- ---0-0---0-----0----0----0----0-----------0-------0-----------0----0------|
PM   ...   .     .    .    .    .           .       .           .    .

----------------------------------------------------------------------------

[Riff 12, Guitar 1 & 2] - [02:32] - [02:43]
- -----------------------------------------------------------------|
- -----------------------------------------------------------------|
- -----------------------------------------------------------------|
- -7-7-7-7-7-7-7---------------------------------------------------|
- -5-5-5-5-5-5-5-8-8-8-8-8-8-8-8-8-3-3-3-3-3-3-3-5-5-5-5-5-5-5-5-5-|
- ---------------8-8-8-8-8-8-8-8-8-3-3-3-3-3-3-3-5-5-5-5-5-5-5-5-5-|
PM ...............................................................
-
- -----------------------------------------------------------------|
- -----------------------------------------------------------------|
- -----------------------------------------------------------------|
- -3-3-3-3-3-3-3-3-5-5-5-5-5-5-5-5-3-3-3-3-3-3-3-3-5-5-5-5-5-5-5-5-|
- -----------------------------------------------------------------|
- -----------------------------------------------------------------|
PM .......................................................


- -----------------------------------------------------------------|
- -----------------------------------------------------------------|
- -----------------------------------------------------------------|
- -7-7-7-7-7-7-7-3-3-3-3-3-3-3-3-3-5-5-5-5-5-5-5-7-7-7-7-7-7-7-7-7-|
- -5-5-5-5-5-5-5-3-3-3-3-3-3-3-3-3-5-5-5-5-5-5-5-7-7-7-7-7-7-7-7-7-|
- ---------------3-3-3-3-3-3-3-3-3-5-5-5-5-5-5-5-7-7-7-7-7-7-7-7-7-|
-
- -----------------------------------------------------------------|
- ---------------6-6-6-6-6-6-6-6-6-8~--8~--8---10~---10~-10~-------|
- -----------------------------------------------------------------|
- -3-3-3-3-3-3-3---------------------------------------------------|
- -----------------------------------------------------------------|
- -----------------------------------------------------------------|

----------------------------------------------------------------------------

[Riff 14a] - [02:43] - [02:52]
- ------------------------------------------------10--10-13/15-13-15/17----|
- ------------------------------------10h13p10--13--13---------------------|
- -----------10h12p10-12brb-10----------------12---------------------------|
- ------10h12-----------------12-------------------------------------------|
- -10h12-------------------------------------------------------------------|
- -------------------------------------------------------------------------|

- -22p17p15h17-22p17p15h17-22p17p15h17-22p17p15h17-22p17p15h17-22p17p15h17-|
- -------------------------------------------------------------------------|
- -------------------------------------------------------------------------|
- -------------------------------------------------------------------------|
- -------------------------------------------------------------------------|
- -------------------------------------------------------------------------|

- -22p17p15h17-22p17p15h17----------------------15-17-15-------------------|
- -------------------------18-15----------15-18----------18-15\------------|
- -------------------------------17-14-17------------------------9--10~----|
- ---------------------------------------------------------------10-12~----|
- -------------------------------------------------------------------------|
- -----------------------------(Two different guitars ___________^^^^^ )---|

[Riff 14b] - [02:43] - [02:52]
- -----------------|
- -----------------|
- -----------------|
- -7-3-3-5-7-3-5-7-| strum for 1 bar each behind riff 14a
- -5-1-3-5-5-3-5-7-|
- -----3-5---3-5-7-|

----------------------------------------------------------------------------

[Riff 15] - [02:52] - [03:11]----| 8x
- -------------------------------|
- -------------------------------|
- -------------------------------|
- -------------------------------|
- -00000-0-0-0-0-00000-0-0-0-----|
- -00000-0-0-0-0-00000-0-0-0-----|
PM .........................

----------------------------------------------------------------------------

[Riff 15] - [03:11] - [03:28] - 6x

- -------------------------------------|
- -------------------------------------|
- -------------------------------------|  play riff 15 6x then end with this.
- -------------------------------------|
- -00000-0-0-0-0-00000-0-0-0-0-0-0-0-0-|
- -00000-0-0-0-0-00000-0-0-0-0-0-0-0-0-|
PM ...................................

[Riff 16] - [03:11] - [03:28]-----------------------| 2x
- -------------------------5-5---------5-5----------|
- -6-6---------6-6-------------6-6---------6-6------|
- -----7-7---------7-7-------------7-7---------7-7--|
- ---------8-8---------8-8--------------------------|
- --------------------------------------------------|
- --------------------------------------------------|

- -------------------------------------------------|
- -5-5---------5-5---------6-6---------6-6---------|
- -----5-5---------5-5---------7-7---------7-7-----|
- ---------5-5---------5-5---------7-7---------7-7-|
- -------------------------------------------------|
- -------------------------------------------------|

----------------------------------------------------------------------------

[Riff 16] - [03:28] - [03:45] - 2x

[Riff 17] - [03:28] - [03:45]---------------------------------------| 2x
- ---------------------------------8-8-------------8-8--------------|
- -10-10-----------10-10---------------10-10-----------10-10--------|
- -------10-10-7-7-------10-10-7-7-----------10-10-----------10-10--|
- ------------------------------------------------------------------|
- ------------------------------------------------------------------|
- ------------------------------------------------------------------|

- -----------------------------------------------------------------|
- -8-8-----------8-8-----------10-10-------------10-10-------------|
- -----9-9-----------9-9-------------10-10-------------10-10-------|
- ---------10-10---------10-10-------------10-10-------------10-10-|
- -----------------------------------------------------------------|
- -----------------------------------------------------------------|

[Riff 18] - [03:28] - [03:45]-----------------| 2x
- --------------------------------------------|
- --------------------------------------------|
- --------------------------------------------|
- -8-7-5-5- play two bars each behind riff 17-|
- -8-5-3-5------------------------------------|
- -8-----5------------------------------------|

----------------------------------------------------------------------------

[Riff 19, Guitar 1 & 2] - [03:45] - [03:54]
- -------------|
- -------------|
- -------------|
- -0~----------|
- -0~----------|
- -0~----------|
-
- -------------|
- -6-6---------|
- -----7-7-----|
- ---------7-7-| repeat until end.
- -------------|
- -------------|
PM ...........


----------------------------------------------------------------------------

----------------------------------------------------------------------------

---------------------- [03. Ocean Of Apathy] - [03:57] ---------------------

----------------------------------------------------------------------------

----------------------------------------------------------------------------


[Riff 1] - [00:00] - [00:33]----------------------------------| 5x
- ------------------------------------------------------------|
- ---------------------11-10------------------------11-10-----|
- --------------9-10-7-------10--------------9-10-7-------10--|
- -------8-10-7-----------------------8-10-7------------------|
- -8-8-8------------------------8-8-8-------------------------|
- ------------------------------------------------------------|
PM .....                        .....

- ------------------------------10-9----------------------------|
- ---------------------11-10---------11-10----------------------|
- --------------9-10-7-------10------------10----9-10-----------|
- -------8-10-7-------------------------------12------12--------|
- -8-8-8-------------------------------------------------8-10-7-|
- --------------------------------------------------------------|
PM .....

[Riff 2] - [00:00] - [00:06]
- ------------------------------------|
- ------------------------------------|
- ------------------------------------|
- -7~------7~------8~------5-5-5-12\--|
- -5~------5~------8~------5-5-5-12\--|
- -----------------8~------5-5-5-12\--|

[Riff 3] - [00:06] - [00:20]------------------------| 2x
- --------------------------------------------------|
- --------------------------------------------------|
- --------------------------------------------------|
- -5-5-5-5-5-3-5-5-5-5-5-3-5-5-5-5-5-1-1-1-1-3-3-3--|
- --------------------------------------------------|
- --------------------------------------------------|
PM ...............................................

- -------------------------------------------------|
- -------------------------------------------------|
- -------------------------------------------------|
- -5-5-5-5-5-3-5-5-5-5-5-3-5-5-5-5-5-1-1-1-1-1-1-1-|
- -------------------------------------------------|
- -------------------------------------------------|
PM ...............................................

[Riff 4] - [00:20] - [00:33]------------------------| 2x
- --------------------------------------------------|
- --------------------------------------------------|
- -7-7-7-7-7-5-7-7-7-7-7-5-7-7-7-7-7-3-3-3-3-5-5-5--|
- -5-5-5-5-5-3-5-5-5-5-5-3-5-5-5-5-5-1-1-1-1-3-3-3--|
- --------------------------------------------------|
- --------------------------------------------------|

- -------------------------------------------------|
- -------------------------------------------------|
- -7-7-7-7-7-5-7-7-7-7-7-5-7-7-7-7-7-3-3-3-3-3-3-3-|
- -5-5-5-5-5-3-5-5-5-5-5-3-5-5-5-5-5-1-1-1-1-1-1-1-|
- -------------------------------------------------|
- -------------------------------------------------|

----------------------------------------------------------------------------

[Riff 5, Guitar 1 & 2] - [00:33] - [00:36]
- ----------------------------------|
- ----------------------------------|
- ----------------------------------|
- -0--------------------------------|
- -0--------------------------------|
- -0-000000000000000000000000000000-|
PM   ..............................
-
- ----------------------------------|
- ----------------------------------|
- ----------------------------------|
- ----------------------------------|
- -----------------5555555555555555-|
- ----------------------------------|
PM                 ................

----------------------------------------------------------------------------

[Riff 6] - [00:36] - [00:46]
- -----------------------------------------------------------------------|
- -----------------------------------------------------------------------|
- -----------------------------------------------------------------------|
- -0----------------7/11\8------------7/11\8-----------------------------|
- -0----------------7/11\8------------7/11\8------------8-11-8-0-11-0-11-|
- -0-00000077887700-7/11\8-0077887700-7/11\8-0077887700-8-11-8-0-11-0-11-|
PM   ..............        ..........        ..........................

- --------------------------------------------------------------------|
- --------------------------------------------------------------------|
- --------------------------------------------------------------------|
- -0----------------7/11\8------------7/11\8--------------------------|
- -0----------------7/11\8------------7/11\8------------5-0-1-0-4-0-4-|
- -0-00000077887700-7/11\8-0077887700-7/11\8-0077887700-5-0-1-0-4-0-4-|
PM   ..............        ..........        ........................

[Riff 7] - [00:46] - [00:57]-----------------------------------------------| 2x
- -------------------------------------------------------------------------|
- -------------------------------------------------------------------------|
- -------------------------------------------------------------------------|
- -0--------7/11\8------------7/11\8------------7/11\8---------------------|
- -0--------7/11\8------------7/11\8------------7/11\8----6-5-0-4-0-3-2-0--|
- -0-000000-7/11\8-0000000000-7/11\8-0000000000-7/11\8-00-6-5-0-4-0-3-2-0--|
PM   ......        ..........        ..........        ..................

----------------------------------------------------------------------------

[Riff 8] - [00:57] - [00:59]
- -------------------------|
- -8h7---------------------|
- -----8h7-----------------|
- ---------8h7-----8---4---|
- -------------8h7-8---4---|
- -----------------8---4---|
-
- -------------------------|
- -------------------------|
- -------------------------|
- -----------------8---4---|
- -----------------8---4---|
- -----------------8---4---|

----------------------------------------------------------------------------

[Riff 9] - [00:59] - [01:25]
- ------------------------------8h7----------------------------------|
- ----------------------------------8h7------------------------------|
- --------------------------------------8h7--------------------------|
- -----------------[7~]---------------------8h7-----------------[7~]-|
- -0-00-00-4h7p4p0------0-00-00-----------------0-00-00-4h7p4p0------|
- -0-00-00--------------0-00-00-----------------0-00-00--------------|
PM .......              .......                 .......

- ------------------|---------|-----------|
- -----------(1st)--|--(2nd)--|--(3rd)----| (<- Diffferent Ends To Riff)
- ------------------|---------|-----------|
- ---------8/11-8\7-|-3\1-1/4-|-----------|
- -0-00-00-8/11-8\7-|-3\1-1/4-|-8-11-8-7--|
- -0-00-00-8/11-8\7-|-3\1-1/4-|-8-11-8-7--|
PM .......                      ........

----------------------------------------------------------------------------

[Riff 10, Guitar 1 & 2] - [01:25] - [01:29]
- ---------------------------------|
- ---------------------------------|
- ---------------------------------|
- -------------3---2---------------|
- -1-----------------------0-------|
- ---------------------------------|
PM .......................
AT ...............................
-
- ---------------------------------|
- ---------------------------------|
- ---------------------------------|
- -------------7---5---------------|
- -5-----------------------4-------|
- ---------------------------------|
PM .......................
AP...............................

----------------------------------------------------------------------------

[Riff 11, Guitar 1 & 2] - [01:29] - [01:41] - 3--|5x
- -----------------------------------------------|
- -----------------------------------------------|
- -----------------------------------------------|
- ----------------------------5-7-5--------------|
- -5--------------------------------7------------|
- -------------7---8-----------------------------|
AP ..................................
-
- ------------------------------------|
- ------------------------------------|
- ---------7-6-7----------------------|
- ---7-8-7-------7---0h7h8------------|
- -5---------------8-------10-7-8-0-0-|
- --------------------------------0-0-|
PM                                ...

----------------------------------------------------------------------------

[Riff 12, Guitar 1 & 2] - [01:41] - [01:44]
- -----------------------------------------------------15---|
- -----------------------------------10-11-13-11-15-11------|
- ------------6-----6-7-9-10-9-10-12------------------------|
- --------7-8---7-8-----------------------------------------|
- -7-8-10---------------------------------------------------|
- ----------------------------------------------------------|
PM ..........   ...
-
- ----------------------------------------------------------|
- ----------------------------------------------------------|
- ----------------------------------------------------------|
- -5------------7------------8----------------5-------------|
- -5------------7------------8----------------3-------------|
- -5------------7------------8------------------------------|

----------------------------------------------------------------------------

[Riff 13] - [01:44] - [02:06]
- ----------15-------15-------15-------|
- -------13----13-------13-------13----|
- -12h14----------14-------14-------14-|
- -------------------------------------|
- -------------------------------------|
- -------------------------------------|

- -------------------12----15p12-------|
- -15p13----15p13-------13-------13----|
- -------12-------12----------------12-|
- -------------------------------------|
- -------------------------------------|
- -------------------------------------|

- -------------------------------------|
- -------------------------------12h15-|
- -12-------12----------------12-------|
- ----15p14----15p14-------14----------|
- -------------------12h15-------------|
- -------------------------------------|

- -15----------------12----------------|
- ----15p12-------13----13p12----------|
- ----------12h14-------------12-------|
- -------------------------------14/17-|
- -------------------------------------|
- -------------------------------------|

- -15----------------------10h20p15----|
- ----18p17-------------17----------17-|
- ----------17-------17----------------|
- -------------17h19-------------------|
- -------------------------------------|
- -------------------------------------|

- -15----------------------10h22p15----|
- ----18p17-------------17----------17-|
- ----------17-------17----------------|
- -------------17h19-------------------|
- -------------------------------------|
- -------------------------------------|

- ----------15-------17-------19-------|
- -17h18p17----18p17----18p17----18p17-|
- -------------------------------------|
- -------------------------------------|
- -------------------------------------|
- -------------------------------------|

- -19-------20----/20-20-22-22-24-24\--|
- ----18p17----18----------------------|
- -------------------------------------|
- -------------------------------------|
- -------------------------------------|
- -------------------------------------|

- ----------15-------15-------15-------|
- -------13----13-------13-------13----|
- -12h14----------14-------14-------14-|
- -------------------------------------|
- -------------------------------------|
- -------------------------------------|

- -------------------12----15p12-------|
- -15p13----15p13-------13-------13----|
- -------12-------12----------------12-|
- -------------------------------------|
- -------------------------------------|
- -------------------------------------|

- -------------------------------------|
- -------------------------------12h15-|
- -12-------12----------------12-------|
- ----15p14----15p14-------14----------|
- -------------------12h15-------------|
- -------------------------------------|

- -15----------------12----------------|
- ----15p12-------13----13p12----------|
- ----------12h14-------------12-------|
- -------------------------------14/17-|
- -------------------------------------|
- -------------------------------------|

[Riff 14, Guitar 1 & 2] - [02:06] - [02:10]
- -15p13p12----------------------------|
- ----------13-------------------------|
- ---------------12-12/14---14---------|
- -------------------------------------|
- -------------------------------------|
- -------------------------------------|
-
- -------------------------------------|
- -17p15p13----------------------------|
- ----------14-------------------------|
- ---------------14-14/15---15---------|
- -------------------------------------|
- -------------------------------------|


- -15p12-------------------------------|
- -------13p12---13-13/15---15---------|
- -------------------------------------|
- -------------------------------------|
- -------------------------------------|
- -------------------------------------|
-
- -------------------------------------|
- -17p13-------------------------------|
- -------14p12---14-14/16---16---------|
- -------------------------------------|
- -------------------------------------|
- -------------------------------------|

[Riff 15] - [02:10] - [02:14]
- -------------------------------------|
- -------------------------------------|
- ----------------13-------13-13-14-16-|
- -15-14-14-14-15----14-15-------------|
- -------------------------------------|
- -------------------------------------|
PM ..............    .....

- -------------------12-13-15-16-------|
- ----------12-13-15-------------------|
- -13-14-16----------------------------|
- -------------------------------------|
- -------------------------------------|
- -------------------------------------|

[Riff 16] - [01:44] - [02:14]
- -----------------------------------------------------|
- -6--5-----------------------6--5---------------------|
- -7--5-----------------------7--5---------------------|
- -7--5--10--9--7--9--10--10--7--5--10--9--7--9-----2--|
- -5--3--7---5--3--5--7---7---5--3--7---5--3--5--2--2--|
- -0-----7---5--3--5--7---7---0-----7---5--3--5--2--2--|
PM                                               .

Strum Behind Solo. Each Chord = 1 Full Bar.

----------------------------------------------------------------------------

[Riff 17, Guitar 1 & 2] - [02:14] - [02:22]
- -----0-0-----0---0-------------------0-0-----0---0---------------|
- -----0-0-----0---5-------------------0-0-----0---5---------------|
- -7-7-7-7---7-7\--3---------------7-7-7-7---7-7\--3---------------|
- -9-9-9-9---9-9\--5---------------9-9-9-9---9-9\--5---------------|
- -----------------------------------------------------------------|
- ----------------(Strum Until Solo After Played)------------------|
-
- ---------------------3-------------------------------------------|
- -------------------------5-------4---------------5---------------|
- -----------------------------3-----------------------------------|
- -----------------------------------------------------------------|
- -----------------------------------------------------------------|
- -----------------------------------------------------------------|

Strummed Chords:

- -0-0-|
- -0-5-|
- -7-3-|
- -9-5-|
- -----|
- -----|

[Riff 18] - [02:30] - [02:37]
- ------------------------------------------------------------------------|
- ------12--------------------------------------------12------------------|
- -11br--------------9b---------9-9h10p9---------11br---------------------|
- ---------9-12-9-12---------------------12p9h12---------9-12-9-12-11-----|
- ------------------------------------------------------------------------|
- ------------------------------------------------------------------------|

----------------------------------------------------------------------------

[Riff 19] - [02:37] - [02:38]
- -------------------|
- ----------15-14----|
- ----11-15-------15-|
- -11----------------|
- -------------------|
- -------------------|

----------------------------------------------------------------------------

[Riff 20] - [02:38] - [02:49] ----------| 3x
- -------14-15h19p15-19p15--------------|
- ----15-------------------19-15h19p15--|
- -16-----------------------------------|
- --------------------------------------|
- --------------------------------------|
- --------------------------------------|

- -------------------------------------|
- -19p15----------------------------15-|
- -------18-16h19p16-19p15-14----14----|
- ----------------------------16-------|
- -------------------------------------|
- -------------------------------------|

[Riff 21] - [02:49] - [02:53]
- -------------------------------------|
- -15-14-12-11-------------------------|
- -------------12-11----12-------------|
- -------------------14----12-11-14----|
- ----------------------------------13-|
- -------------------------------------|

- -------------------------------------|
- -------------------------------------|
- -------------------------------------|
- -12-11-9-8---------------------------|
- -----------10-7-9-7-5----------------|
- ----------------------8~-------------|

[Riff 22] - [02:38] - [02:53]
- ----------------------------|
- ----------------------------|
- -11--7--11--7--11--7--6--6--|
- -9---5--9---5--9---5--4--4--|
- -9---5--9---5--9---5--4--4--|
- -9---5--9---5--9---5--4--4--|

Strum Behind Solo. Each Chord = 1 Full Bar.

----------------------------------------------------------------------------

[Riff 23] - [02:53] - [03:21]-------------------------------------| 4x
- ----------------------------------------------------------------|
- ----------------------------------------------------------------|
- -----------------------12-11--------------------------12-11-----|
- ---------------11-12-9-------12---------------11-12-9-------12--|
- -------10-12-9------------------------10-12-9-------------------|
- -9-9-9--------------------------9-9-9---------------------------|
PM .....                          .....

- -----------------------------------------------------------------|
- --------------------------------12-11----------------------------|
- -----------------------12-11----------12-11----------------------|
- ---------------11-12-9-------12-------------12-9-11-12-9---------|
- -------10-12-9-------------------------------------------10-12-9-|
- -9-9-9-----------------------------------------------------------|
PM .....

[Riff 24] - [03:07] - [03:21]-----------------------| 2x
- --------------------------------------------------|
- --------------------------------------------------|
- --------------------------------------------------|
- -9-9-9-9-9-7-9-9-9-9-9-7-9-9-9-9-9-5-5-5-5-7-7-7--|
- -9-9-9-9-9-7-9-9-9-9-9-7-9-9-9-9-9-5-5-5-5-7-7-7--|
- -9-9-9-9-9-7-9-9-9-9-9-7-9-9-9-9-9-5-5-5-5-7-7-7--|

- -------------------------------------------------|
- -------------------------------------------------|
- -------------------------------------------------|
- -9-9-9-9-9-7-9-9-9-9-9-7-9-9-9-9-9-5-5-5-5-5-5-5-|
- -9-9-9-9-9-7-9-9-9-9-9-7-9-9-9-9-9-5-5-5-5-5-5-5-|
- -9-9-9-9-9-7-9-9-9-9-9-7-9-9-9-9-9-5-5-5-5-5-5-5-|

----------------------------------------------------------------------------

[Riff 20] - [03:21] - [03:31] - 3x

[Riff 25] - [03:31] - [03:35]
- -------------14----------------17p14-|
- -15-------------15-15----------------|
- ----16-14-16----------16-14-16-------|
- -------------------------------------|
- -------------------------------------|
- -------------------------------------|

- -15p14----------14h17p14-------------|
- -------15----15----------15----15p14-|
- ----------14----------------14-------|
- -------------------------------------|
- -------------------------------------|
- -------------------------------------|

[Riff 26] - [03:35] - [03:42------------| 2x
- -------------14----------------14-----|
- -15-------------15-15-------------15--|
- ----16-14-16----------16-14-16--------|
- --------------------------------------|
- --------------------------------------|
- --------------------------------------|

- -------------14----------------17-14-|
- -15-------------15-15----------------|
- ----16-14-16----------16-14-16-------|
- -------------------------------------|
- -------------------------------------|
- -------------------------------------|

[Riff 27] - [03:42] - [03:57]-----------------| 3x
- -------------14----------------17-14-|------|
- -15-------------15-15----------------|-15~--|
- ----16-14-16----------16-14-16-------|------| End
- -------------------------------------|------|
- -------------------------------------|------|
- -------------------------------------|------|
-
- -------------------------------14----|-----|
- -------------15-------------------15-|-----|
- -14-------------14-14----------------|-14~-| End
- ----16-14-16----------16-14-16-------|-----|
- -------------------------------------|-----|
- -------------------------------------|-----|

[Riff 28] - [03:21] - [03:57]
- ----------------------------------------------------|
- ----------------------------------------------------|
- ----------------------------------------------------|
- -11--9-11--9-11--9--9--7--11--9-11--9-11--9--9--0~--|
- -9---5-9---5-9---5--5--9--9---5-9---5-9---5--5--0~--|
- -9---5-9---5-9---5--5--0--9---5-9---5-9---5--5--0~--|

Strum Behind Solo. Each Chord = 1 Full Bar.


----------------------------------------------------------------------------

----------------------------------------------------------------------------

----------------------- [04. White Washed] - [03:46] -----------------------

----------------------------------------------------------------------------

----------------------------------------------------------------------------


[Riff 1] - [00:00] - [00:56] - 2-|8x
- -13----13----13----------------|
- ----------17----17-15----------|
- ----14----------------14-------|
- -------------------------------|
- -------------------------------|
- -------------------------------|

----------------------------------------------------------------------------

[Riff 2] - [00:15] - [00:24]
- -----------------------------------|
- -----------------------------------|
- -----------------------------------|
- -0~----------------------------12\-|
- -0~----------------------------12\-|
- -0~----------------------------12\-|

----------------------------------------------------------------------------

[Riff 3] - [00:24] - [00:56]------------------------------------------------| 4x
- --------------------------------------------------------------------------|
- --------------------------------------------------------------------------|
- --------------------------------------------------------------------------|
- --------------------------------------------------------------------------|
- -0--0--0-000--0000--0--0-000--0--0--0--0-000--0000--0--0-1h4p1p0---[5b]---|
- -0--0--0-000--0000--0--0-000--0--0--0--0-000--0000--0--0---------0--------|
PM .......................................................         .

----------------------------------------------------------------------------

[Riff 4] - [00:40] - [00:56]---------| 2x
- -----------------------------------|
- -----------------------------------|
- -14------9-----7------3-----2------|
- -x-------x-----x------x-----x------|
- -12(28x)-7(4x)-5(12x)-1(8x)-0(8x)--|
- -----------------------------------|

----------------------------------------------------------------------------

[Riff 5] - [00:56] - [01:00]
- ---------------------------------|
- ---------------------------------|
- ---------------------------------|
- -0~----------------------///-----|
- -0~----------------------///-----|
- -0~----------------------///-----|

----------------------------------------------------------------------------

[Riff 6] - [01:00] - [01:19]
- ---------------------------------------------------9h12p9-----------------|
- -----------------------------------------------10---------10--------------|
- --------------------------14--------9h10p9-12----------------9------------|
- -------7---8---7/12--15--------15------------------------------11-7/11-14-|
- --------------------------------------------------------------------------|
- -0-0-0---0---0-----0----0----0----0-----------0--0------------------------|
PM .....   .   .     .    .    .    .           .  .

- --------------------------------------------------------------------------|
- ------------------------------------------------10------------------------|
- --------------------------14--------9h10p9-12--------10-----9-------------|
- -------7---8---7/12--15--------15-------------------------------11--------|
- ---------------------------------------------------------------------12---|
- -0-0-0---0---0-----0----0----0----0-----------0----0----0-0---0----0----0-|
PM .....   .   .     .    .    .    .           .    .    ...   .    .    .

- ---------------------------------------------------9h12p9-----------------|
- -----------------------------------------------10---------10--------------|
- --------------------------14--------9h10p9-12----------------9------------|
- -------7---8---7/12--15--------15------------------------------11-7/11-14-|
- --------------------------------------------------------------------------|
- -0-0-0---0---0-----0----0----0----0-----------0--0------------------------|
PM .....   .   .     .    .    .    .           .  .

- ------------------------------------------------------------------------|
- ------------------------------------------------10----------------------|
- --------------------------14--------9h10p9-12--------10-----------------|
- -------7---8---7/12--15--------15---------------------------8---7---3---|
- ------------------------------------------------------------8---7---3---|
- -0-0-0---0---0-----0----0----0----0-----------0----0----0-0-8---7---3---|
PM .....   .   .     .    .    .    .           .    .    ...

----------------------------------------------------------------------------

[Riff 7] - [01:19] - [01:31]------------------| 4x
- --------------------------------------------|
- --------------------------------------------|
- --------------------------------------------|
- -7---5h7---0---7---5h7---7h10---8---7---5h--|
- --------------------------------------------|
- ---0-----0---0---0-----0------0---0---0-----|
PM   .     .   .   .     .      .   .   .

from that last 5 hammer on to the beginning of the riff, the first 7.
thats where it repeats.

----------------------------------------------------------------------------

[Riff 8] - [01:31] - [01:39]---------------------------------| 2x
- -----------------------------------------------------------|
- -----------------------------------------------------------|
- -----------------------------------------------------------|
- -----------------------------------------------------------|
- -0-------00000---0-0-0-0-0---0-------00000---0-0-0-0-0000--|
- -0-------00000---0-0-0-0-0---0-------00000---0-0-0-0-0000--|
PM ........................................................

----------------------------------------------------------------------------

[Riff 9a] - [01:39] - [01:46]--------------------------------| 2x
- -----------------------------------------------------------|
- -----------------------------------------------------------|
- -----------------------------------------------------------|
- -----------------------------------------------------------|
- -5b------00000---0-0-0-0-0---5b------00000---0-0-0-0-0000--|
- ---------00000---0-0-0-0-0-----------00000---0-0-0-0-0000--|
PM ........................................................

[Riff 9b] - [01:42] - [01:46]
- ----------------------------------------------------------|
- ----------------------------------------------------------|
- ----------------------------------------------------------|
- ----------------------------------------------------------|
- -8b------00000---0-0-0-0-0---8b------00000---0-0-0-0-0000-|
- ---------00000---0-0-0-0-0-----------00000---0-0-0-0-0000-|
PM ........................................................

----------------------------------------------------------------------------

[Riff 10] - [01:46] - [01:51]
- ---------------------------------------------------------|
- ---------------------------------------------------------|
- ---------------------------------------------------------|
- -7\----3-----3-----5-----7-----------------///-----------|
- -5\----1-----3-----5-----7---7-7-7-7-7-7-7-///-----------|
- -------------3-----5-----7---7-7-7-7-7-7-7-///-----------|
PM                             .............

----------------------------------------------------------------------------

[Riff 11a] - [01:51] - [02:09]
- ---------------------------------------------------------------------|
- ---------------------------------------------------------------------|
- -7h10p7--------------------------------------------------------------|
- --------10---10---8-----10---8---7\--3-3---3---3---5-----7---8---7---|
- ---------------------------------------------------------------------|
- -----------0----0---8-8----8---8---------3---3---3---5-5---5---5---5-|
PM           .    .   ...    .   .         .   .   .   ...   .   .   .

- --------------------------------------------------------------------------|
- --------------------------------------------------------------------------|
- -7h10p7------------------------------10-10---12---10---12-12--14--12------|
- --------10---10---8-----10---8---7h8--------------------------------------|
- --------------------------------------------------------------------------|
- -----------0----0---8-8----8---7-----------8----8--8-8------10--10--10-10-|
PM           .    .   ...    .   .           .    .  . .      ..  ..  .....

- ---------------------------------------------------------------------|
- ---------------------------------------------------------------------|
- -7h10p7--------------------------------------------------------------|
- --------10---10---8-----10---8---7\--3-3---3---3---5-----7---8---7---|
- ---------------------------------------------------------------------|
- -----------0----0---8-8----8---8---------3---3---3---5-5---5---5---5-|
PM           .    .   ...    .   .         .   .   .   ...   .   .   .

- ------------------------------------------------------------------------|
- ------------------------------------------------------------------------|
- -7h10p7------------------------------10-10---12---10---9-9---10---9-----|
- --------10---10---8-----10---8---7h8------------------------------------|
- ------------------------------------------------------------------------|
- -----------0----0---8-8----8---7-----------8----8--8-8-----7----7---7-7-|
PM           .    .   ...    .   .           .    .  . .     .    .   ...

[Riff 11b] - [01:51] - [02:09]
- ---------------------------------------------------------------------|
- ---------------------------------------------------------------------|
- -7h10p7--------------------------------------------------------------|
- --------10---10---8-----10---8---7\--3-3---3---3---5-----7---8---7---|
- ---------------------------------------------------------------------|
- -----------0----0---8-8----8---8---------3---3---3---5-5---5---5---5-|
PM           .    .   ...    .   .         .   .   .   ...   .   .   .

- -----------------------------------------------------------------------|
- -----------------------------------------------------------------------|
- -7h10p7-------------------------------------9--------------------------|
- --------10---10---8-----10---8---7h8-12-12-----12---14-14--15--14------|
- -----------------------------------------------------------------------|
- -----------0----0---8-8----8---7----------8---8--8-8-----10--10--10-10-|
PM           .    .   ...    .   .          .   .  . .     ..  ..  .....

- ---------------------------------------------------------------------|
- ---------------------------------------------------------------------|
- -7h10p7--------------------------------------------------------------|
- --------10---10---8-----10---8---7\--3-3---3---3---5-----7---8---7---|
- ---------------------------------------------------------------------|
- -----------0----0---8-8----8---8---------3---3---3---5-5---5---5---5-|
PM           .    .   ...    .   .         .   .   .   ...   .   .   .

- -----------------------------------------------------------------------|
- -----------------------------------------------------------------------|
- -7h10p7-------------------------------------9--------------------------|
- --------10---10---8-----10---8---7h8-12-12-----12---11-11--12--11------|
- -----------------------------------------------------------------------|
- -----------0----0---8-8----8---7----------8---8--8-8-----10--10--10-10-|
PM           .    .   ...    .   .          .   .  . .     ..  ..  .....

----------------------------------------------------------------------------

[Riff 7] - [02:09] - [02:21] - 4x

----------------------------------------------------------------------------

[Riff 12, Guitar 1 & 2] - [02:21] - [02:30]
- -----------------------------------------------------------------|
- -----------------------------------------------------------------|
- -----------------------------------------------------------------|
- -----------------------------------------------------------------|
- -5---------------1-------0-----------------------3-------1-------|
- ---------------------------------0-------------------------------|
AP .........................................................
-
- -----------------------------------------------------------------|
- -------------------------------------------------5---6---8-------|
- -------------------------------------------------------------7---|
- -------------7---8-7-5---7-5-----------------7-------------------|
- -0---5---8-------------------8---0---5---8-----------------------|
- -----------------------------------------------------------------|
AP .............................................................


- -----------------------------------------------------------------|
- -----------------------------------------------------------------|
- -----------------------------------------------------------------|
- -----------------------------------------------------------------|
- -----------------3-------1---------------------------------------|
- -0-------------------------------3---------------5---------------|
AP .................................................
-
- -----------------------------------------------------------------|
- -----------------------------------------------------------------|
- -----------------------------------------------------------------|
- -------------7---8-7-5---7-5-----------------5-------7---5---8---|
- -0---5---8-------------------8---5---8---7-------8---------------|
- -----------------------------------------------------------------|
AP .............................................................

----------------------------------------------------------------------------

[Riff 13] - [02:30] - [02:48]---------------------------------------| 2x
- ------------------------------------------------------------------|
- -------------------------------------------------5---6---8--------|
- -------------------------------------------------------------7----|
- -------------7---8-7-5---7-5-----------------7--------------------|
- -0---5---8-------------------8---0---5---8------------------------|
- ------------------------------------------------------------------|
AP .............................................................

- -----------------------------------------------------------------|
- -----------------------------------------------------------------|
- -----------------------------------------------------------------|
- -------------7---8-7-5---7-5-----------------5-------7---5---8---|
- -0---5---8-------------------8---5---8---7-------8---------------|
- -----------------------------------------------------------------|
AP .............................................................

[Riff 14] - [02:30] - [02:40]
- ---------------------------------------------------------------|
- ---------------------------------------------------------------|
- ---------------------------------------------------------------|
- ---------------------------------------------------------------|
- -0-0-0-------0-0-8-8-8---7-7-7---0-0-0-----0---101010108---8-8-|
- -0-0-0-------0-0-8-8-8---7-7-7---0-0-0-----0---101010108---8-8-|
PM .............................................................

- ---------------------------------------------------------------|
- ---------------------------------------------------------------|
- ---------------------------------------------------------------|
- ---------------------------------------------------------------|
- -0-0-0-------0-0-8-8-8---7-7-7---3-3-3-----3---5-5-555-5-5-555-|
- -0-0-0-------0-0-8-8-8---7-7-7---3-3-3-----3---5-5-555-5-5-555-|
PM .............................................................

[Riff 15] - [02:40] - [02:48]
- -----------------------------------------------------------------|
- -----------------------------------------------------------------|
- -----------------------------------------------------------------|
- -----------------------------------------------------------------|
- -0000---------0008888----7777----0000--------0000101010108-8-8-8-|
- -0000---------0008888----7777----0000--------0000101010108-8-8-8-|
PM ...............................................................

- -----------------------------------------------------------------|
- -----------------------------------------------------------------|
- -----------------------------------------------------------------|
- -----------------------------------------------------------------|
- -0000---------0008888----7777----3333--------3-3-5-5-5-5-5-5-5-5-|
- -0000---------0008888----7777----3333--------3-3-5-5-5-5-5-5-5-5-|
PM ...............................................................

----------------------------------------------------------------------------

[Riff 2] - [02:48] - [03:02]

[Riff 16] - [02:53] - [03:02]
- -13h17p13----13----------13----13----13-----------|
- ----------17----17-15-------15----17----17--15----|
- ----------------------14-----------------------14-|
- --------------------------------------------------|
- --------------------------------------------------|
- --------------------------------------------------|

- -13----13----13----------13----13----13-----------|
- ----15----17----17-15-------------17----17-15-----|
- ----------------------14----14----------------14--|
- --------------------------------------------------|
- --------------------------------------------------|
- --------------------------------------------------|

----------------------------------------------------------------------------

[Riff 3] - [03:02] - [03:19] - 2x

[Riff 17] - [03:19] - [03:27]
- ----------------------------------------------------------------------|
- ----------------------------------------------------------------------|
- ----------------------------------------------------------------------|
- ----------------------------------------------------------------------|
- -0--0--0-000--0000--0--0-000--0--0--0--0-000--0000--0--0-1h4p1p0------|
- -0--0--0-000--0000--0--0-000--0--0--0--0-000--0000--0--0---------0-3b-|
PM .......................................................         .

[Riff 18] - [03:19] - [03:27]
- -13h17p13----13h17p13----13----------13----13----13----13----13----------|
- ----------17----------17----17-15-------------17----------17----17-15----|
- ----------------------------------14----14----------12----------------14-|
- -------------------------------------------------------------------------|
- -------------------------------------------------------------------------|
- -------------------------------------------------------------------------|

- -13----13----13----13----13----------13----13----13----13----13----------|
- ----------17----------17----17-15-------------17----------17----17-15----|
- ----14----------14----------------14----14----------14----------------14-|
- -------------------------------------------------------------------------|
- -------------------------------------------------------------------------|
- -------------------------------------------------------------------------|

[Riff 19] - [03:27] - [03:35]----| 8x
- -13----13----13----------------|
- ----------17----17-15----------|
- ----14----------------14-------|
- -------------------------------|
- -------------------------------|
- -------------------------------|

[Riff 20] - [03:27] - [03:35]
- -------------------------------------------------------------------------|
- -------------------------------------------------------------------------|
- -------------------------------------------------------------------------|
- -------------------------------------------------------------------12\---|
- -0--0--0-000--0000--0--0-000--0--0--0--0-000--0000--0--0-1h4p1p0---12\---|
- -0--0--0-000--0000--0--0-000--0--0--0--0-000--0000--0--0---------0-12\---|
PM .......................................................         .

----------------------------------------------------------------------------

[Riff 19] - [03:35] - [03:46] - 12x

[Riff 21] - [03:35] - [03:46]
- ---------|
- ---------|
- ---------|
- -0~------|
- -0~------|
- -0~------|


----------------------------------------------------------------------------

----------------------------------------------------------------------------

--------------------- [04. Mariana's Trench] - [04:18] ---------------------

----------------------------------------------------------------------------

----------------------------------------------------------------------------


[Riff 1a] - [00:00] - [00:51]----------------------------------------------|  6x
- -------5---------5---------5---------5---------0---------0---------0-----|
- ---6-----6---6-----6---6-----6---6-----6---6-----6---6-----6---6-----6---|
- -----7---------7---------7---------7---------7---------7---------7-------|
- -8---------8---------8---------8---------0---------0---------0-----------|
- -------------------------------------------------------------------------|
- -------------------------------------------------------------------------|

- -------8p5-|
- ---5h6-----|
- -----------|
- -0---------|
- -----------|
- -----------|

[Riff 1b] - [00:00] - [00:51]----------------------------------------------|  6x
- -----------------------------------0---------0---------0---------0-------|
- -----------------------------------6---------6---------6---------6-------|
- -----7---------7---------7---------7---------7---------7---------7-------|
- -8---------8---------8---------8---------0---------0---------0-----------|
- -------------------------------------------------------------------------|
- -------------------------------------------------------------------------|

- -----------|
- -----------| !! :O that mysterious riff! is it actually there?!
- -----------| veryyyy sceptical about this. i hear it.. but it could
- -0---------| just be riff 1 playing with my ears... anyways. others hav
- -----------| meantioned it. some deny it. here it is regardless aha
- -----------|

[Riff 2] - [00:17] - [00:42]----------| 3x
- ------------------------------------|
- ------------------------------------|
- ---------10(20x)-/14(20x)-12(20x)---|
- -12(20x)----------------------------|
- ------------------------------------|
- ------------------------------------|
- ------------------------------------|

[Riff 3, Guitar 1 & 2] - [00:42] - [00:51]
- ----------------------------------|
- ----------------------------------|
- ---------10(20x)-/14(20x)-12(20x)-|
- -12(20x)--------------------------|
- ----------------------------------|
- ----------------------------------|
- ----------------------------------|
-
- ----------------------------------|
- --------------------------13(20x)-|
- ---------10(20x)-/14(20x)---------|
- -12(20x)--------------------------|
- ----------------------------------|
- ----------------------------------|
- ----------------------------------|

----------------------------------------------------------------------------

[Riff 4] - [00:51] - [01:08]-----------------------------------------------| 2x
- -------5---------5---------5---------5---------0---------0---------0-----|
- ---6-----6---6-----6---6-----6---6-----6---6-----6---6-----6---6-----6---|
- -----7---------7---------7---------7---------7---------7---------7-------|
- -8---------8---------8---------8---------0---------0---------0-----------|
- -------------------------------------------------------------------------|
- -------------------------------------------------------------------------|
PM .   .     .   .     .   .     .   .     .   .     .   .     .   .

- -------8p5-|
- ---5h6-----|
- -----------|
- -0---------|
- -----------|
- -----------|
PM .

[Riff 5] - [00:51] - [01:08]
- ------------------------------------------------------------------|
- ------------------------------------------------------------------|
- ------------------------------------------------------------------|
- ------------------------------------------------------------------|
- -888---------8888888-------------887755--000-------000-------0000-|
- -888---------8888888-------------------77000-------000-------0000-|
PM ................................................................

- ------------------------------------------------------------------|
- ------------------------------------------------------------------|
- -------------------------------10---------------------------------|
- -------------7-3-----------5/8------------------------------------|
- -000-----3-5-----888-------------888-888---------887755--000------|
- -000-------------888-------------888-888---------------77000------|
PM ...             ...             ...........................

- -------------------------------|
- -------------------------------|
- -------------------------------|
- ---------------------------7-3-|
- -000-------0000000-----3-5-----|
- -000-------0000000-------------|
PM .................

----------------------------------------------------------------------------

[Riff 6, Guitar 1 & 2] - [01:08] - [01:25]---------------------------------| 2x
- -------5---------5---------5---------5---------0---------0---------0-----|
- ---6-----6---6-----6---6-----6---6-----6---6-----6---6-----6---6-----6---|
- -----7---------7---------7---------7---------7---------7---------7-------|
- -8---------8---------8---------8---------0---------0---------0-----------|
- -------------------------------------------------------------------------|
- -------------------------------------------------------------------------|
PM .   .     .   .     .   .     .   .     .   .     .   .     .   .
-
- ---6--/8-----6--/8-----6--/8-----6--/8---------------------------------|
- -----7--10-----7--10-----7--10-----7--10--10---8h10-10--8h10--10--8h10-|
- -5---------5---------5---------5------------10--------10--------10-----|
- -----------------------------------------7---------7---------7---------|
- -----------------------------------------------------------------------|
- -----------------------------------------------------------------------|
PM .   .     .   .     .   .     .   .        ..        ..        ..


- -------8p5-|
- ---5h6-----|
- -----------|
- -0---------|
- -----------|
- -----------|
PM .
-
- -------5---|
- ---------6-|
- ---5h7-----|
- -7---------|
- -----------|
- -----------|

[Riff 2] - [01:08] - [01:17] - 3x
[Riff 3, Guitar 1 & 2] - [01:17] - [01:27]

[Riff 7] - [01:25] - [01:27]
- -----------------|
- -5h6-----6p5-----|
- -----5h7-----7---|
- ---------------7-|
- -----------------|
- -----------------|
-
- -----------------|
- -----------------|
- -5h7-----7p5-----|
- -----7h8-----7p0-|
- -----------------|
- -----------------|

----------------------------------------------------------------------------

[Riff 8] - [[01:27] - [01:54]---------------------------| 4x
- ------------------------------------------------------|
- ------------------------------------------------------|
- ---------------------------------------------7p6------|
- ---------------------------8p7h8p0---5h7p5p0----7p0---|
- -5h8p5p0-------5p4h5p0--------------------------------|
- ---------0-000---------000---------0------------------|
PM         .....         ...         .

- ---------------------------------------------------|
- ---------------------------------------------------|
- -------------------------------------7p6-----------|
- ---------------------------8p7h8p0------7----------|
- -5h8p5p0-------5p4h5p0-------------------0h7p0h4p0-|
- ---------0-000---------000---------0---------------|
PM         .....         ...         .

[Riff 9] - [01:41] - [01:54]-------------------------------------| 2x
- ---------------------------------------------------------------|
- ---------------------------------------------------------------|
- ---------------------------------------------------------------|
- ---------------------------------------------------------------|
- -5h8p5p0-0-000-----000-----0--0--000000000-000-----000-----0---|
- ---------0-000-----000-----0--0--000000000-000-----000-----0---|
PM         ...................................................

- ---------------|--------------------------------|
- ---------------|--------------------------------|
- -7p6-----------|--------------------------------| End with this riff
- ----7----------|-5h7p5p0-8p7h8p0-10p8p7p0-------| second time.
- -----0h7p0h4p0-|--------------------------8p7p0-|
- ---------------|--------------------------------|

----------------------------------------------------------------------------

[Riff 10] - [01:54] - [02:11]
- ------------------------------------------------------------------|
- ------------------------------------------------------------------|
- -------------------------------7----------------------------------|
- -0-------------------0-----------8----7---7---0-------------------|
- -0-00000000000-8p7p0-0-0000000-----10---8---7-0-00000000000-8p7p0-|
- -0-00000000000-------0-0000000----------------0-00000000000-------|
PM   ...........         .......                  ...........

- ---------------------------------------------------------------|
- ---------------------------------------------------------------|
- ------------------------------------------------7--------------|
- -0---------33-4-1-0-------------------0-----------8----7---7---|
- -0-0000000-11-4-1-0-00000000000-8p7p0-0-0000000-----10---8---7-|
- -0-0000000----4-1-0-00000000000-------0-0000000----------------|
PM   .......          ...........         .......

- -------------------------------------|
- -------------------------------------|
- -------------------------------------|
- -0------------------0---------88-4-6-|
- -0-0000000000-8p7p0-0-0000000-88-4-6-|
- -0-0000000000-------0-0000000-88-4-6-|
PM   ..........         .......

----------------------------------------------------------------------------

[Riff 11] - [02:11] - [02:19]-----------------------------------------------| 2x
- --------------------------------------------------------------------------|
- --------------------------------------------------------------------------|
- ------------------------------------------------------10------------------|
- -8--------10------8--------10h11p8-8--------10---11--------11---10--------|
- -8---11--------11-8---11-----------8---11--------------------------11p8---|
- -8-8----8----8----8-8----8---------8-8----8----8----8----8----8-----------|
PM   .    .    .      .    .           .    .    .    .    .    .

[Riff 12, Guitar 1 & 2] - [02:19] - [02:23]
- -----------------------------------------------------------------|
- -------------------6-------------------------------6-------------|
- -----------5---6-------6---5---------------5---6-------6---5-----|
- -4-----6-----4---4---4---4---6p4-4-----6-----4---4---4---4---6p4-|
- -4-------------------------------4-------------------------------|
- -4---4---4-----------------------4---4---4-----------------------|
PM     .   .   .   .   .   .           .   .   .   .   .   .
-
- -----------------------------------------------------------------|
- -----------------------------------------------------------------|
- -------------------6-------------------------------6-------------|
- -4---------6---8-------8---6-----4---------6---8-------8---6-----|
- -4-----8---------------------8p4-4-----8---------------------8p4-|
- -4---4---4---4---4---4---4-------4---4---4---4---4---4---4-------|
PM     .   .   .   .   .   .           .   .   .   .   .   .

[Riff 11] - [02:23] - [02:29] - 2x
[Riff 12, Guitar 2] - [02:29] - [02:35]

[Riff 13] - [02:35] - [02:40]
- -----------------------------------------------------------------|
- -----------------------------------------------------------------|
- ---------------------------------------------------3---3---6\----|
- -1-----3---3---1-----------------1-----3---4---1-----------------|
- -1-----------------4---4---4p1---1-------------------------------|
- -1---1---1---1---1---1---1-------1---1---1---1---1---1---1-------|
PM     .   .   .   .   .   .           .   .   .   .   .   .

----------------------------------------------------------------------------

[Riff 14] - [02:40] - [02:56]
- -----------------------------16-----------------------------------------|
- ------------------------------------------------------------------------|
- -10/13-13--13-13-13-13-13-13----13-13-12\-3---3---3-3-3-5---5---5-5-5---|
- -x--x--x---x--x--x--x--x--x-----x--x--x---x---x---x-x-x-x---x---x-x-x---|
- -8/-11-11--11-11-11-11-11-11----11-11-8\--1---1---1-1-1-3---3---3-3-3---|
- ------------------------------------------------------------------------|

- ------------------13--16------16----------13-------13-------------------|
- ------------14h16---------14--------13h14----13h14----13h14-------------|
- -15------15-------------------------------------------------15/---13----|
- ------------------------------------------------------------------------|
- ------------------------------------------------------------------------|
- ------------------------------------------------------------------------|

- --------------------------------16-14-13-----16-14-13-14-13----------|
- ------------------9/14-13-14-16----------14-----------------14-13----|
- ------------10-11-------------------------------------------------15-|
- ------10-11----------------------------------------------------------|
- -8-11----------------------------------------------------------------|
- ---------------------------------------------------------------------|
PM ................

- -------13---------16p14p13----------16p14p13----------|
- -14------------------------16p14p13----------16p14p13-|
- ----15----13~-----------------------------------------|
- ------------------------------------------------------|
- ------------------------------------------------------|
- ------------------------------------------------------|

- -16p14p13-16p14p13----------13h14h16/18--18--13h14p13------------------|
- -------------------13h14h16---------------------------14--13h14p13-----|
- -------------------------------------------------------------------15~-|
- -----------------------------------------------------------------------|
- -----------------------------------------------------------------------|
- -----------------------------------------------------------------------|

[Riff 15] - [02:40] - [02:56]
- -----------------------------------|-----------------------------------|
- --(Strum For 1 Bar Each)-----------|------(Play for last 2 bars)-------|
- -----------------------------------|-----------------------------------|
- -11-11-8-8-11-11-8-8-11-11-8-8-8-8-|-11--11--11-11-11-10--11-11-11-11\-|
- -8--8--4-4-8--8--4-4-8--8--4-4-9-9-|-8---8---8--8--8--8---8--8--8--8\--|
- -8--8--4-4-8--8--4-4-8--8--4-4-8-8-|-8---8---8--8--8--8---8--8--8--8\--|

----------------------------------------------------------------------------

[Riff 16] - [02:56] - [03:05]
- ----------------------------------------------------------------------|
- ----------------------------------4-------------------6---6---7p6p4---|
- ------------------------------5h6-------------5---6-------------------|
- -8----------10------3-----6---------4-----6---------------------------|
- -8-----11--------11-3---------------4---------------------------------|
- -8---8----8----8----3---3---3-------4---4---4---4---4---4---4---------|
PM     .    .    .        .   .           .   .   .   .   .   .
-
- ----------------------------------------------------------------------|
- ----------------------------------------------------------------------|
- ----------------------------------------------------------------------|
- -8------------------3---------------4~--------------------------------|
- -8------------------3---------------4~--------------------------------|
- -8------------------3---------------4~--------------------------------|


- ----------------------------------------------------------------------|
- ----------------------------------4-------------------6---6---7p6p4---|
- ------------------------------5h6-------------5---6-------------------|
- -8----------10------3-----6---------4-----6---------------------------|
- -8-----11--------11-3---------------4---------------------------------|
- -8---8----8----8----3---3---3-------4---4---4---4---4---4---4---------|
PM     .    .    .        .   .           .   .   .   .   .   .
-
- ----------------------------------------------------------------------|
- ----------------------------------------------------------------------|
- ----------------------------------------------------------------------|
- -8~-----------------3~---------------4~-------------///---------------|
- -8~-----------------3~---------------4~-------------///---------------|
- -8~-----------------3~---------------4~-------------///---------------|

----------------------------------------------------------------------------

[Riff 17a] - [03:05] - [03:21]-------------------------------------------| 4x
- -----------------------------------------------------------------------|
- ----------------------------------4-------------------6---6---7p6p4----|
- ------------------------------5h6-------------5---6--------------------|
- -8----------10------3-----6---------4-----6----------------------------|
- -8-----11--------11-3---------------4----------------------------------|
- -8---8----8----8----3---3---3-------4---4---4---4---4---4---4----------|
PM     .    .    .        .   .           .   .   .   .   .   .

- -------|
- -6h7h9-| end with this instead of 7p6p4
- -------|
- -------|
- -------|
- -------|

[Riff 17b] - [03:05] - [03:21]------------------| 4x
- ----------                        ------------|
- ----------                        ------------|
- ---------- strum for 1 bar each.  -10-5-6-6---| then this on top of it
- -11-6-8-8-                        -x--x-x-x---| 3rd and 4th time thru.
- -8--3-4-4-                        -8--3-4-4---|
- -8--3-4-4-                        ------------|

[Riff 18, Guitar 1 & 2] - [03:21] - [03:23]
- -----|
- -----|
- -----|
- -11~-
- -8~--
- -8~--
-
- -----|
- -----|
- -11~-
- -x---
- -8~--
- -----

----------------------------------------------------------------------------

[Riff 19] - [03:23] - [03:30]
- -------------------------------------------------------------------|
- -------------------------------------------------------------------|
- -----------------------------------------------------------6h8p6---|
- -------------------------------------------------------6h8---------|
- ---------------------------------------------------6h8-------------|
- -6h8-8-8-8-8-6h8-8-8-8-8-8-----------6h8-8-8-8-8-------------------|
PM     .......     .........               .......

- -------------------------------------------------|
- -------------------------------------------------|
- -------------------------------------------------|
- -------------------------------------------------|
- -------------------------------------4-4---4-4---|
- -6h8-8-8-8-8-6h8-8-8-8-8-8-----------4-4---4-4---|
PM     .......     .............................

[Riff 20] - [03:30] - [03:37]
- -------------------------------------------------------------------|
- -------------------------------------------------------------------|
- -----------------------------------------------------------6h8p6---|
- -------------------------------------------------------6h8---------|
- ---------------------------------------------------6h8-------------|
- -6h8-8-8-8-8-6h8-8-8-8-8-8-----------6h8-8-8-8-8-------------------|
PM     .......     .........               .......

- ---------------------------------------------------------|
- ---------------------------------------------------------|
- ---------------------------------------------------------|
- -------------------------------------------------6~------|
- -------------------------------------4-4---4-4---4~------|
- -6h8-8-8-8-8-6h8-8-8-8-8-8-----------4-4---4-4-----------|
PM     .......     .............................

----------------------------------------------------------------------------

[Riff 20] - [03:37] - [04:18]------------------------------------------| 6x
- ---------------------------------------------------------------------|
- ---------------------------------------------------------------------|
- -----------------------------------------------------------6h8p6-----|
- -------------------------------------------------------6h8-----------|
- ---------------------------------------------------6h8---------------|
- -6h8-8-8-8-8-6h8-8-8-8-8-8-----------6h8-8-8-8-8---------------------|
PM     .......     .........               .......

- -----------------------------------------------------------------|
- -----------------------------------------------------------------|
- -----------------------------------------------------------------|
- -------------------------------------------------6-------6-------|
- -------------------------------------4-4---4-4---4-------6-------|
- -6h8-8-8-8-8-6h8-8-8-8-8-8-----------4-4---4-4-----------6-------|
PM     .......     .............................

[Riff 21] - [03:37] - [03:51]-----------------------| 2x
- --------------------------------------------------|
- --------------------------------------------------|
- -----1010----1010--------------1010--1010--1010---|
- -6688----6688----8---------6688----66----88-------|
- --------------------------------------------------|
- --------------------------------------------------|
PM ..............................................

- ------------------------------------------------|
- ------------------------------------------------|
- -----1010----1010--------------101088101088-----|
- -6688----6688----8---------6688------------1010-|
- ------------------------------------------------|
- ------------------------------------------------|
PM ..............................................

[Riff 22] - [03:51] - [04:18]-------------------| 2x
- ----------------------------------------------|
- ----------------------------------------------|
- -----1010----1010--------1010----1010--1010---|
- -6688----6688----66886688----8866----88-------|
- ----------------------------------------------|
- ----------------------------------------------|
PM ..........................................

- -------------------------------9988-----|
- -----------------------------------99---|
- -----1010----1010--------1010--------88-|
- -6688----6688----66886688----88---------|
- ----------------------------------------|
- ----------------------------------------|
PM ......................................

- --------------------------------------------|
- --------------------------------------------|
- -----1010----1010--------1010----1010--1010-|
- -6688----6688----66886688----8866----88-----|
- --------------------------------------------|
- --------------------------------------------|
PM ..........................................

- --------------------------------------------|
- --------------------------------------------|
- -----1010----1010--------1010--88101088-----|
- -6688----6688----66886688----88--------1010-|
- --------------------------------------------|
- --------------------------------------------|
PM ..........................................


----------------------------------------------------------------------------

----------------------------------------------------------------------------

-------------------- [06. The Escape Artist] - [03:58] ---------------------

----------------------------------------------------------------------------

----------------------------------------------------------------------------

[00:00] - [00:05]

[Riff 1] - [00:05] - [00:14]
- -----------------------------------------------------------------|
- -----------------------------------------------------------------|
- -----------------------------------------------------------------|
- -----------------------------------------------------8---7-------|
- -5-----5---4---5-----8---7---8-------5h8---7---8-------------8---|
- ---0-0---0---0---0-0---0---0---0-0h7-----0---0---0-0---0---0---0-|
PM   ...   .   .   ...   .   .   .         .   .   ...   .   .   .

- -----------------------------------------------------------------|
- -----------------------------------------------------------------|
- -------------------------6---------------------------------------|
- ---------------------7-------7---8-8---5---------------------7---|
- -----5h7---5---7---------------------------6---5---0h1h4p1-------|
- -0h7-----0---0---0-0---0---0---0-----0---0---0---0---------0---0-|
PM         .   .   ...   .   .   .     .   .   .   .         .   .

[Riff 2, Guitar 1 & 2] - [00:14] - [00:24]
- -----------------------------------------------------------------|
- -----------------------------------------------------------------|
- -----------------------------------------------------------------|
- -----------------------------------------------------8---7-------|
- -5-----5---4---5-----8---7---8-------5h8---7---8-------------8---|
- ---0-0---0---0---0-0---0---0---0-0h7-----0---0---0-0---0---0---0-|
PM   ...   .   .   ...   .   .   .         .   .   ...   .   .   .
-
- -----------------------------------------------------------------|
- -----------------------------------------------------------------|
- -----------------------------------------------------------------|
- -----------------------------------------------------8---7-------|
- -5-----5---4---5-----8---7---8-------5h8---7---8-------------8---|
- ---0-0---0---0---0-0---0---0---0-0h7-----0---0---0-0---0---0---0-|
PM   ...   .   .   ...   .   .   .         .   .   ...   .   .   .


- -----------------------------------------------------------------|
- -----------------------------------------------------------------|
- -------------------------6---------------------------------------|
- ---------------------7-------7---8-8---5---------------------7---|
- -----5h7---5---7---------------------------6---5---0h1h4p1-------|
- -0h7-----0---0---0-0---0---0---0-----0---0---0---0---------0---0-|
PM         .   .   ...   .   .   .     .   .   .   .         .   .
-
- -----------------------------------------------------------------|
- -----------------------------------------------------------------|
- -------------------------6---------------------------------------|
- ---------------------7-------7---8-8---5---------------------7---|
- -----5h7---5---7---------------------------6---5---0h1h4p1-------|
- -0h7-----0---0---0-0---0---0---0-----0---0---0---0---------0---0-|
PM         .   .   ...   .   .   .     .   .   .   .         .   .


- -----------------|
- -----------------|
- -7---------------|
- -----------------|
- -------000-------|
- -------000-------|
PM       ...
-
- -----------------|
- -----------------|
- -7---------------|
- -----------------|
- ---000-----------|
- ---000-----------|
PM   ...

----------------------------------------------------------------------------

[Riff 3] - [00:24] - [00:33]----------------------------------------------| 2x
- ------------------------------------------------------------------------|
- ------------------------------------------------------------------------|
- -7----------------------------------7-----------------------------------|
- -----------0h7h8p7--7h8p7p0-5h7p5p0-----------0h7h8p7--7h8p7p0-5h7p5p0--|
- ------------------------------------------------------------------------|
- ---000-000--------0-------------------0-00000--------0------------------|
PM   .......        .                   .......        .

- ---------|
- ---------|
- -------6-|
- -----7---|
- -7-8-----|
- ---------|

----------------------------------------------------------------------------

[Riff 4, Guitar 1 & 2] - [00:33] - [00:47]
- ------------------------------------------------------------------------|
- ------------------------------------------------------------------------|
- -7-------------------------------------7------------------------------6-|
- ---------------------------0h7h8p7p0h7------------------------------7---|
- ---000-000---00-00-----000---------------0000000---000-000---00-7-8-----|
- ---000-000---00-00-----000---------------0000000---000-000---00---------|
PM   .......................               ......................
-
- ------------------------------------------------------------------------|
- ----------------------------------------------------------------------5-|
- -7-------------------------------------7----------------------------6---|
- ---------------------------0h7h8p7p0h7----------------------------------|
- ---000-000---00-00-----000---------------0000000---000-000---00-0-5-----|
- ---000-000---00-00-----000---------------0000000---000-000---00---------|


- ------------------------------------------------------------------------|
- ------------------------------------------------------------------------|
- -7-------------------------------------7------------------------------6-|
- ---------------------------0h7h8p7p0h7------------------------------7---|
- ---000-000---00-00-----000---------------0000000---000-000---0--7-8-----|
- ---000-000---00-00-----000---------------0000000---000-000---0----------|
PM   .......................               .....................
-
- ------------------------------------------------------------------------|
- -6----------------------------------------------------------------------|
- --------------------------------------10--------------------------------|
- ---------------------------0h7h8p7p0h7----------------------------------|
- ---000-000---00-00-----000---------------0000000---000-000---0-0000---0-|
- ---000-000---00-00-----000---------------0000000---000-000---0-0000---0-|
PM   .......................               ..............................


- -------------6-5-----------|
- -----------6-----6-8-5-----|
- -/10p0-5-7-----------------|
- ---------------------------|
- ---------------------------|
- ---------------------------|
-
- ---------------------------|
- ---------------------------|
- ---------------------------|
- ---------------------------|
- -----0000000---0---000-----|
- -----0000000---0---000-----|
PM     .................

----------------------------------------------------------------------------

[Riff 5] - [00:47] - [00:58]--------------------------------| 2x
- ----------------------------------------------------------|
- ----------------------------------------------------------|
- -----------------(Let Notes Ring)-------------------------|
- ----------------------------------------------------------|
- -0000--0---0000000---0---000---0---000000---00-00-000000--|
- -0000--0---0000000---0---000---0---000000---00-00-000000--|
PM .......................................................

[Riff 6] - [00:58] - [01:01]
- ---------------------------------|
- ---------------------------------|
- ---------------------------------|
- ---------------------------------|
- -0000--0---0000000---0---0000----|
- -0000--0---0000000---0---0000----|
PM ............................

----------------------------------------------------------------------------

[Riff 7, Guitar 1 & 2] - [01:01] - [01:06
- ---------------------------------------------------------|
- -6---6---5-----6---6---5-----6---6---5-----6---6---5-----|
- ---7---6---6-----7---6---6-----7---6---6-----7---6---6---|
- -------------7-------------7-------------7-------------7-|
- ---------------------------------------------------------|
- ---------------------------------------------------------|
-
- ---------------------------------------------------------|
- ---------------------------------------------------------|
- ---------------------------------------------------------|
- ---------------------------------------------------------|
- -0000--0---0000000---0---000---0---000000---00-00-000000-|
- -0000--0---0000000---0---000---0---000000---00-00-000000-|
PM .......................................................


- ---------------------------------------------------------9-|
- -10--10--9-----10--10--9-----10--10--9-----10-8-10--10-8---|
- ---10--9---9-7---10--9---9-7---10--9---9-7--------10-------|
- -----------------------------------------------------------|
- -----------------------------------------------------------|
- -----------------------------------------------------------|
-
- -----------------------------------------------------------|
- -----------------------------------------------------------|
- -----------------------------------------------------------|
- -----------------------------------------------------------|
- -0000--0---0000000---0---000---0---000000---00-00-000000---|
- -0000--0---0000000---0---000---0---000000---00-00-000000---|
PM .......................................................

----------------------------------------------------------------------------

[Riff 8, Guitar 1 & 2] - [01:11] - [01:16]
- ------------------------------------------------------------------------|
- ------------------------------------------------------------------------|
- ------------------------------------------------------------------------|
- ------------------------------------------------------------------------|
- -000---------------0-00000--------------------000---------------0-0-000-|
- -000---------------0-00000--------------------000---------------0-0-000-|
PM ......................................................................
-
- -10h13p10-----------------------------------9-10h13p10------------------|
- ----------11---------------11-10----10---10------------11---------------|
- -------------10------------------12----9------------------10------------|
- ----------------12-------------------------------------------12---------|
- -------------------0-00000--------------------------------------0-0-000-|
- -------------------0-00000--------------------------------------0-0-000-|
PM                   .......                                      .......


- ------------------9-|
- -11-10----10---10---|
- -------12----9------|
- --------------------|
- --------------------|
- --------------------|
-
- ------------------9-|
- -11-10----10---10---|
- -------12----9------|
- --------------------|
- --------------------|
- --------------------|

[Riff 9] - [01:16] - [01:26]-----------------------------------------------| 4x
- -10h13p10-----------------------------------9-10h13p10-------------------|
- ----------11---------------11-10----10---10------------11----------------|
- -------------10------------------12----9------------------10-------------|
- ----------------12-------------------------------------------12----------|
- -------------------0-00000--------------------------------------0-0-000--|
- -------------------0-00000--------------------------------------0-0-000--|
PM                   .......                                      .......

- ------------------9-|---------------------|
- -11-10----10---10---|-11-10----10---------|
- -------12----9------|-------12----9-10----| (End With This On Last Time)
- --------------------|------------------11-|
- --------------------|---------------------|
- --------------------|---------------------|

----------------------------------------------------------------------------

[Riff 10] - [01:26] - [01:37]------------------------------------| 2x
- ---------------------------------------------------------------|
- ---------------------------------------------------------------|
- ---------------------------------------------------------------|
- -7b----7b--------7b----------------8-7b----7b---------7---4----|
- --------------------------10-10-10--------------------------9--|
- -----00----0-0-00--0-00-0--------------00-------0-0-00--0------|
PM     ..    ......  ......              ..       ......  .

[Riff 11, Guitar 1 & 2] - [01:37] - [01:50]
- -------------------------------------------------------------|
- -------------------------------------------------------------|
- -------------------------------------------------------------|
- -7b----7b--------7b---------------8-7b----7b---------7-----8-|
- -------------------------10-10-10------------------------9---|
- -----00----0-0-00--0-00-0-------------00-------0-0-00--0-----|
PM     ..    ......  ......             ..       ......  .
-
- -------------------------------------------------------------|
- -------------------------------------------------------------|
- -7b----7b--------7b---------------8-7b----7b---------7-----8-|
- -------------------------10-10-10------------------------9---|
- -------------------------------------------------------------|
- -----00----0-0-00--0-00-0-------------00-------0-0-00--0-----|
PM     ..    ......  ......             ..       ......  .


- -------------------------------------------------------------------|
- -------------------------------------------------------------------|
- -------------------------------------------------------------------|
- -7b----7b--------7b---------------8-7b----7b---------7-------------|
- -------------------------10-10-10-----------------------8---666555-|
- -----00----0-0-00--0-00-0-------------00-------0-0-00-00-00--------|
PM     ..    ......  ......             ..       ...... .. ..
-
- -------------------------------------------------------------------|
- -------------------------------------------------------------------|
- -------------------------------------------------------------------|
- -7b----7b--------7b---------------8-7b----7b-----------------------|
- -------------------------10-10-10--------------------7-------------|
- --------------------------------------------------------8---666555-|
- -----00----0-0-00--0-00-0-------------00-------0-0-00-00-00--------|
PM     ..    ......  ......             ..       ...... .. ..

----------------------------------------------------------------------------

[Riff 12] - [01:50] - [01:56]-----------------------| 2x
- --------------------------------------------------|
- --------------------------------------------------|
- --------------------------------------------------|
- --------------------------------------------------|
- -------5---5-------5---5-------8---8-------6---6--|
- -5-5-5---5---5-5-5---5---5-5-5---5---5-5-5---5----|
PM .....   .   .....   .   .....   .   .....   .

[Riff 13] - [01:56] - [02:17]-----------------------| 4x
- --------------------------------------------------|
- --------------------------------------------------|
- --------------------------------------------------|
- -----------8-----------8-----------8-----------8--|
- -------5-----------5-----------8-----------6------|
- -5-5-5---5---5-5-5---5---5-5-5---5---5-5-5---5----|
PM .....   .   .....   .   .....   .   .....   .

[Riff 14, Guitar 1 & 2] - [02:03] - [02:17]
- -------------------------------------------------|
- -------------------------------------------------|
- -------------------------------------------------|
- -------------------------------------------------|
- -5-5-5-5-5-5-5-5-5-5-5-5-8-8-8-8-8-8-6-6-6-6-6-6-|
- -------------------------------------------------|
-
- -------------------------------------------------|
- -------------------------------------------------|
- ---------------------------7-7-7-7-7-7-5-5-5-5-5-|
- -7/8-8-8-8-8-8-8-8-8-8-8-8-----------------------|
- -------------------------------------------------|
- -------------------------------------------------|


- --------------------------------------------------|
- --------------------------------------------------|
- --------------------------------------------------|
- -------------------------------------5-5-5-7-7-7--|
- -5-5-5-5-5-5-5-5-5-5-5-5-8-8-8-8-8-8--------------|
- --------------------------------------------------|
-
- --------------------------------------------------|
- --------------------------------------------------|
- ---------------------------7-7-7-7-7-8-8-8-101010-|
- -7/8-8-8-8-8-8-8-8-8-8-8-8------------------------|
- --------------------------------------------------|
- --------------------------------------------------|


- -------------------------------------------------|
- -------------------------------------------------|
- -------------------------------------------------|
- -----------8-----------8-----------8-----------8-|
- -5-5-5-5-5---5-5-5-5-5---8-8-8-8-8---6-6-6-6-6---|
- -------------------------------------------------|
-
- -------------------------------------------------|
- -------------------------------------------------|
- ---------------------------7-7-7-7-7-7-5-5-5-5-5-|
- -7/8-8-8-8-8-8-8-8-8-8-8-8-----------------------|
- -------------------------------------------------|
- -------------------------------------------------|


- --------------------------------------------------|
- --------------------------------------------------|
- --------------------------------------------------|
- -----------8-----------8-----------8-------8------|
- -5-5-5-5-5---5-5-5-5-5---8-8-8-8-8---6-6-6-6------|
- -------------------------------------------6------|
-
- -----------------------------------------------------|
- -----------------------------------------------------|
- ---------------------------7-7-7-7-7-8-8-8-101010-7~-|
- -7/8-8-8-8-8-8-8-8-8-8-8-8---------------------------|
- -----------------------------------------------------|
- -----------------------------------------------------|

----------------------------------------------------------------------------

[Riff 15] - [02:17] - [02:45]-----------------------| 2x
- --------------------------------------------------|
- --------------------------------------------------|
- --------------------------------------------------|
- -8-----------------------5-5-5-5-5-5-5-8-8-8-8-5--|
- -6-----5-5-5-5-5-5-5-5-5-6-6-6-6-6-6-6-101010106--|
- -5-----5-5-5-5-5-5-5-5-5-5-5-5-5-5-5-5-8-8-8-8-5--|
PM       .................

- -------------------------------------------------|
- -------------------------------------------------|
- -------------------------------------------------|
- -8-----------------------5-5-5-5-5-5-5-8-8-8-8-5-|
- -6-----5-5-5-5-5-5-5-5-5-6-6-6-6-6-6-6-101010106-|
- -5-----5-5-5-5-5-5-5-5-5-5-5-5-5-5-5-5-8-8-8-8-5-|
PM       .................

- -------------------------------------------------|
- -------------------------------------------------|
- -------------------------------------------------|
- -8-----------------------5-5-5-5-5-5-8-8-8-5-5-5-|
- -6-5-5-5-5-5-5-555-5-5-5-6-6-6-6-6-6-1010106-6-6-|
- -5-5-5-5-5-5-5-555-5-5-5-5-5-5-5-5-5-8-8-8-5-5-5-|
PM   .....................

- --------------------------------------------------|
- --------------------------------------------------|
- --------------------------------------------------|
- -8-----------------------5-5-5-5-5-5-8-8-8-8-8-8--|
- -6-5-5-5-5-5-5-555-5-5-5-6-6-6-6-6-6-101010101010-|
- -5-5-5-5-5-5-5-555-5-5-5-5-5-5-5-5-5-8-8-8-8-8-8--|
PM   .....................

----------------------------------------------------------------------------

[Riff 17] - [02:31] - [02:45]-----------------------| 4x
- -5-----5-----5-----5-----8-----8-----6-----6------|
- ---6-----6-----6-----6-----6-----6-----6-----6----|
- -----7-----7-----7-----7-----7-----7-----7-----7--|
- --------------------------------------------------|
- --------------------------------------------------|
- --------------------------------------------------|

----------------------------------------------------------------------------

[Riff 19] - [02:45] - [02:59]------------------------| 2x
- ---------------------------------------------------|
- ---------------------------------------------------|
- ---------------------------------------------------|
- ------------------------------------------0-----0--|
- -1-1-1-1---1---1-1-1-1---1----1-1-1-1---1-----1----|
- -1-1-1-1---1---1-1-1-1---1----1-1-1-1-3-----3------|
PM ........................................   ...

- --------------------------------------------------|------------|
- --------------------------------------------------|-(end with)-|
- --------------------------------------5-5-5-7-7-7-|------------| play on
- --------------------------------------3-3-3-3-3-3-|-10---7-----| 2nd time
- -1-1-1-1---1---1-1-1-1---1----1-1-1-1-------------|-8----5-----|
- -1-1-1-1---1---1-1-1-1---1----1-1-1-1-------------|-8----5-----|
PM ....................................

----------------------------------------------------------------------------

[Riff 20] - [02:59] - [03:58] - 1-------------------|2x
- --------------------------------------------------|
- --------------------------------------------------|
- --------------------------------------------------|
- -8-----------------------5-5-5-5-5-5-5-8-8-8-8-5--|
- -6-----5-5-5-5-5-5-5-5-5-6-6-6-6-6-6-6-101010106--|
- -5-----5-5-5-5-5-5-5-5-5-5-5-5-5-5-5-5-8-8-8-8-5--|
PM       .................

[Riff 17] - [02:59] - [03:58] - 12x


----------------------------------------------------------------------------

----------------------------------------------------------------------------

------------------------ [07. Indonesia] - [03:34] -------------------------

----------------------------------------------------------------------------

----------------------------------------------------------------------------


[Riff 1] - [00:00] - [00:29]
- -------------------------------------------------------------------------|
- ---------------------------------------------------------------11p10-----|
- -----------------------------------------------------7h8p7----------10\--|
- ---------------------------5h7p5-8-------13--12------------8-7-----------|
- ---5-----5h6p5---8---5---------------------------10----------------------|
- -5---5-5-------5---5---5-5-----------1010--10--10--10--------------------|
PM .   ...       .   .   ...           ....  ..  ..  ..

- ---------------------------------------------------------------------|
- ---------------------------------------------------------------------|
- ---------------------------------------------------------------------|
- -----------------------------------------------------3-----------7---|
- ---1-----1h3p1---5-----1---1h3p1---5-----3---3h5p3---------3h5p3-----|
- -1---1-1-------1---1-1---1-------1---3-3---3-------3---3-3-----------|
PM .   ...       .   ...   .       .   ...   .       .   ...

[Riff 2] - [00:00] - [00:09]
- -----------------------|
- -----------------------|
- -----------------------|
- -5----5----1----3--///-|
- -5----3----1----3--///-|
- -5---------1----3--///-|

----------------------------------------------------------------------------

[Riff 3] - [00:18] - [00:29]
- ---------------------------6h8p8-10-------------------------------------|
- -----------------3------------------------------------------------------|
- ---3-----3h5p3-------3-----------------------------------------12p10----|
- -5---5-5-------5---5---5-5-----------------------10--8h10p8---------10\-|
- -----------------------------------------10--13------------10p8---------|
- -------------------------------------1010--10--10--10-------------------|
PM .   ...       .   .   ...           ....  ..  ..  ..

- -------------------------------------------------------------------------|
- ---------------------------------------------------------------------6---|
- ---0-----0h2p0---3-----0---0h2p0-5-3-----2---2h3p2---5-----2---2h3p2-----|
- -1---1-1-------1---1-1---1-----------3-3---3-------3---3-3---3-----------|
- -------------------------------------------------------------------------|
- -------------------------------------------------------------------------|
PM .   ...       .   ...   .           ...   .           ...   .

----------------------------------------------------------------------------

[Riff 4] - [00:29] - [00:32]
- -------------------------------------|
- -------------------------------------|
- -------------------------2---[2~]----|
- -----------------1---4---------------|
- ---------0---3-----------------------|
- -0---4-------------------------------|
PM .........................
AP .........................
----------------------------------------------------------------------------

[Riff 5] - [00:32] - [00:54]-----------------------------------------| 2x
- -------------------------------------------------------------------|
- -------------------------------------------------------------------|
- -------------------------------------------------------------------|
- -------------------------------------------------------------------|
- -555-555-888-555---11-11-444-000-555-555-888-555-1-0-4-0-70504000--|
- -555-555-888-555---11-11-444-000-555-555-888-555-1-0-4-0-70504000--|
PM ................................................................

- ---------------------------------------------------------------------|
- ---------------------------------------------------------------------|
- -------------------------------------------------2h3p2---------------|
- -------------------------------------------------------5p4-1-0-------|
- -555-555-888-555---11-11-444-000-00000-0-4-0-1-0---------------3-1-0-|
- -555-555-888-555---11-11-444-000-00000-0-4-0-1-0---------------------|
PM ...............................................

----------------------------------------------------------------------------

[Riff 6, Guitar 1 & 2] - [00:54] - [01:03]
- -----------------------------------------------------------------|
- -------------------------------------------------3---------------|
- ---------------------------------------------------2h3-----------|
- -5-------------------------------1---------------------5-1h5-0h4-|
- -5-------------------------------1-------------------------------|
- -5-------------------------------1-------------------------------|
-
- -----------------------------------------------------------------|
- -------------------------------------------------3---------------|
- ---------------------------------------------------2h3-----------|
- -5-------------------------------1---------------------5-1h5-0h4-|
- -5---555-555-555-555-555-555-555-1---111-111-111-----------------|
- -5---555-555-555-555-555-555-555-1---111-111-111-----------------|
PM     ...........................     ...........


- -----------------------------------------------------------------|
- -----------------------------------------------------------------|
- -----------------------------------------------------------------|
- -5-------------8-4---------------1~--------------0~--------------|
- -5-------------8-4---------------1~--------------0~----------0---|
- -5-------------8-4---------------1~--------------0~----------0---|
PM                                                             .
-
- -----------------------------------------------------------------|
- -----------------------------------------------------------------|
- -----------------------------------------------------------------|
- -5-------------8-4---------------1~--------------0~--------------|
- -5---555-555-5-8-4---444-444-444-1~--------------0~----------0---|
- -5---555-555-5-8-4---444-444-444-1~--------------0~----------0---|
PM     .........       ...........                             .

----------------------------------------------------------------------------

[Riff 7] - [01:03] - [01:22]
- -----------------------------------------------------------------|
- -------------------------------------------------3---------------|
- ---------------------------------------------------2h3-----------|
- -5-------------------------------1---------------------5-1h5-0h4-|
- -5---555-555-555-555-555-555-555-1---111-111-111-----------------|
- -5---555-555-555-555-555-555-555-1---111-111-111-----------------|
PM     ...........................     ...........

- -----------------------------------------------------------------|
- -----------------------------------------------------------------|
- -----------------------------------------------------------------|
- -5-------------8-4---------------1-----------------------1-------|
- -5---555-555-5-8-4---444-444-444-1---111-111-111-0-0-0-0-1-0-0-0-|
- -5---555-555-5-8-4---444-444-444-1---111-111-111-0-0-0-0-1-0-0-0-|
PM     .........       ...........     ...................   .....

- -----------------------------------------------------------------|
- -------------------------------------------------3---------------|
- ---------------------------------------------------2h3-----------|
- -5-------------------------------1---------------------5-1h5-0h4-|
- -5---555-555-555-555-555-555-555-1---111-111-111-----------------|
- -5---555-555-555-555-555-555-555-1---111-111-111-----------------|
PM     ...........................     ...........

- -----------------------------------------------------------------|
- -----------------------------------------------------------------|
- -----------------------------------------------------------------|
- -5-------------8-4---------------1~--------------0~--------------|
- -5---555-555-5-8-4---444-444-444-1~--------------0~------0-------|
- -5---555-555-5-8-4---444-444-444-1~--------------0~------0-------|
PM     .........       ...........                         .

----------------------------------------------------------------------------

[Riff 8, Guitar 1 & 2] - [01:22] - [01:29]
- -----------------------------------------------------------------|
- -----------------------------------------------------------------|
- -------------------------------------------------5---------------|
- -5-------8---5-------------------5-------8---5-----8-7-8-7-5-7-4-|
- -----------------6-------9---5-----------------------------------|
- -----------------------------------------------------------------|
AP ...............................................................
-
- -----------------------------------------------------------------|
- -----------------------------------------------------------------|
- -3-------7---3-----------7---5---3-------7---3---8-7-5-7-5---5---|
- -----------------7-----------------------------------------8---7-|
- -----------------------------------------------------------------|
- -----------------------------------------------------------------|
AP ...............................................................


- ---------------------------------|
- ---------------------------------|
- ---------------------------------|
- -5-------8---5-------------------|
- -----------------6-------9---5---|
- ---------------------------------|
AP .............................
-
- ---------------------------------|
- ---------------------------------|
- -3-------7---3-----------7---5---|
- -----------------7---------------|
- ---------------------------------|
- ---------------------------------|
AP .............................

----------------------------------------------------------------------------

[Riff 9, Guitar 1 & 2] - [01:29] - [01:32]
- -----------------------------5p2----|-5----|
- ------------------------------------|--7---|
- -------------------------222----5p2-|---5--|
- -----------------111-444------------|----7-|
- ---------000-333--------------------|------|
- -000-444----------------------------|------|
PM ...........................
-
- -----------------------------8p5----|-8------|
- ------------------------------------|--10----|
- -------------------------555----8p5-|----8---|
- -----------------444-777------------|-----10-|
- ---------333-666--------------------|--------|
- -444-777----------------------------|--------|
PM ...........................

----------------------------------------------------------------------------

[Riff 10] - [01:32] - [01:55]---------------------------------------| 2x
- ------------------------------------------------------------------|
- ------------------------------------------------------------------|
- ------------------------------------------------------------------|
- -55-55-----55555-55555-----55-55-55-55-----55555-55555-----55-55--|
- -55-55-----55555-55555-----55-55-55-55-----55555-55555-----55-55--|
PM ...............................................................

- -----------------------------------------------------------------|
- -----------------------------------------------------------------|
- -----------------------------------------------------------------|
- -----------------------------------------------------------------|
- -55-55-----55555-55555-----55-55-00-00-000000000-----------------|
- -55-55-----55555-55555-----55-55-00-00-000000000-----------------|
PM ...............................................

[Riff 11, Guitar 1 & 2] - [01:32] - [01:55]-------------------------| 2x
- ------------------------------------------------------------------|
- ------------------------------------------------------------------|
- -------------------------------------------------5----------------|
- -5-------8---5-------------------5-------8---5-----8-7-8-7-5-7-4--|
- -----------------6-------9---5------------------------------------|
- ------------------------------------------------------------------|
AP ...............................................................
-
- -----------------------------------------------------------------|
- -----------------------------------------------------------------|
- -3-------7---3-----------7---5---3-------7---3---8-7-5-7-5---5---|
- -----------------7-----------------------------------------8---7-|
- -----------------------------------------------------------------|
- -----------------------------------------------------------------|
AP ...............................................................


- -----------------------------------------------------------------|
- -----------------------------------------------------------------|
- -----------------------------------------------------------------|
- -5-------8---5-------------------4h5p4p0-7h8p7p0-5h7p5p0-4h5p4p0-|
- -----------------6-------9---5-----------------------------------|
- -----------------------------------------------------------------|
AP .............................
-
- -----------------------------------------------------------------|
- -----------------------------------------------------------------|
- -3-------7---3-----------7---5-----------------------------------|
- -----------------7---------------4h5p4p0-7h8p7p0-5h7p5p0-4h5p4p0-|
- -----------------------------------------------------------------|
- -----------------------------------------------------------------|
AP .............................


- ---------------------|-----------------|
- -2h3p2---------------|-----------------|
- -------3p2-1-0-------|-----------------|
- ---------------3-1-0-|-----------------|
- ---------------------|---------000-333-|
- ---------------------|-000-444---------|
PM                       ...............
-
- ---------------------|-----------------|
- -2h3p2---------------|-----------------|
- -------3p2-1-0-------|-----------------|
- ---------------3-1-0-|-----------------|
- ---------------------|---------000-333-|
- ---------------------|-000-444---------|
PM                       ...............

----------------------------------------------------------------------------

[Riff 12] - [01:54] - [02:10]
- --------------------------------------------------------------|
- --------------------------------------------------------------|
- --------------------------------------------------------------|
- -8-8-8-8-8-8-8-8-8-8-8-8-13-13-13-13-13-13-13-13-13-13-13\----|
- -5-5-5-5-5-5-5-5-5-5-5-5-10-10-10-10-10-10-10-10-10-10-10\----|
- -5-5-5-5-5-5-5-5-5-5-5-5-10-10-10-10-10-10-10-10-10-10-10\----|

- -------------------------------------------------|
- -------------------------------------------------|
- -------------------------------------------------|
- -5-5-5-5-5-5-5-5-5-5-5-5-5-5-5-5-5-5-5-3-3-3-3-3-|
- -1-1-1-1-1-1-1-1-1-1-1-1-3-3-3-3-3-3-3-3-3-3-3-3-|
- -1-1-1-1-1-1-1-1-1-1-1-1-3-3-3-3-3-3-3-3-3-3-3-3-|

- --------------------------------------------------------------|
- --------------------------------------------------------------|
- --------------------------------------------------------------|
- -8-8-8-8-8-8-8-8-8-8-8-8-13-13-13-13-13-13-13-13-13-13-13\----|
- -5-5-5-5-5-5-5-5-5-5-5-5-10-10-10-10-10-10-10-10-10-10-10\----|
- -5-5-5-5-5-5-5-5-5-5-5-5-10-10-10-10-10-10-10-10-10-10-10\----|

- -------------------------------------------------|
- -------------------------------------------------|
- -------------------------------------------------|
- -5-5-5-5-5-5-5-5-5-5-5-5-------------------------|
- -1-1-1-1-1-1-1-1-1-1-1-1-3-3-3-3-3-3-3-3-3-3-3-3-|
- -1-1-1-1-1-1-1-1-1-1-1-1-3-3-3-3-3-3-3-3-3-3-3-3-|
PM                         .......................

[Riff 13] - [02:02] - [02:10]
- -------------------------------------------------------------------------|
- -------------------15-13-15-16-15-13-------------------------------15-15-|
- -------------------------------------------------------14-12-14-15-------|
- ----12-14-15-14-12----------------------10-12-13-12-10-------------------|
- -12----------------------------------10----------------------------------|
- -------------------------------------------------------------------------|

- -18-17-15-18-17-15----------15-17-18----15-17-18-17-15----17-18-20-18-17-|
- -------------------15-16-18----------16----------------18----------------|
- -------------------------------------------------------------------------|
- -------------------------------------------------------------------------|
- -------------------------------------------------------------------------|
- -------------------------------------------------------------------------|

----------------------------------------------------------------------------

Note: <3

[Riff 14a] - [02:10] - [02:38]----------------------------------------------| 2x
- ----------------10h15p10----------------------------10-18-10--------------|
- -------------11----------11----------------------11----------11-----------|
- ----------12----------------12----------------12----------------12--------|
- -------12----------------------12----------12----------------------12-----|
- -10h13----------------------------13-10h13----------------------------13--|
- --------------------------------------------------------------------------|
                                                         T

- ----------------15h20p15----------------------------15-22-15-------------|
- -------------16----------16----------------------16----------16----------|
- ----------17----------------17----------------17----------------17-------|
- -------17----------------------17----------17----------------------17----|
- -15h18----------------------------18-15h18----------------------------18-|
- -------------------------------------------------------------------------|
                                                         T

- ----------------10h15p10----------------------------10-18-10-------------|
- -------------11----------11----------------------11----------11----------|
- ----------12----------------12----------------12----------------12-------|
- -------12----------------------12----------12----------------------12----|
- -10h13----------------------------13-10h13----------------------------13-|
- -------------------------------------------------------------------------|
                                                         T

- ----------------15h20p15----------------------------15h17p15-------------|
- -------------16----------16----------------------16----------16----------|
- ----------17----------------17----------------17----------------17-------|
- -------17----------------------17----------17----------------------17----|
- -15h18----------------------------18-15h18----------------------------18-|
- -------------------------------------------------------------------------|

[Riff 14b] - [02:10] - 02:38]
- -------------------------------------------------|
- -------------------------------------------------|
- -------------------------------------------------|
- -------------------------------------------------|
- -5-5-5-5-5-5-5-555-5-5-5-5-5-5-5-5-5-5-555-5-5-5-|
- -5-5-5-5-5-5-5-555-5-5-5-5-5-5-5-5-5-5-555-5-5-5-|
PM ...............................................

- -------------------------------------------------|
- -------------------------------------------------|
- -------------------------------------------------|
- -5-5-5-5-5-5-5-555-5-5-5-5-5-5-5-5-5-5-555-5-5-5-|
- -3-3-3-3-3-3-3-333-3-3-3-3-3-3-3-3-3-3-333-3-3-3-|
- -------------------------------------------------|
PM ...............................................

- -------------------------------------------------|
- -------------------------------------------------|
- -------------------------------------------------|
- -------------------------------------------------|
- -1-1-1-1-1-1-1-111-1-1-1-1-1-1-1-1-1-1-111-1-1-1-|
- -1-1-1-1-1-1-1-111-1-1-1-1-1-1-1-1-1-1-111-1-1-1-|
PM ...............................................

- -------------------------------------------------|
- -------------------------------------------------|
- -------------------------------------------------|
- -------------------------------------------------|
- -3-3-3-3-3-3-3-333-3-3-3-3-3-3-3-3-3-3-333-3-3-3-|
- -3-3-3-3-3-3-3-333-3-3-3-3-3-3-3-3-3-3-333-3-3-3-|
PM ...............................................

- -------------------------------------------------|
- -------------------------------------------------|
- -------------------------------------------------|
- -------------------------------------------------|
- -5-5-5-5-5-5-5-555-5-5-5-555-5-5-5-5-5-555-5-5-5-|
- -5-5-5-5-5-5-5-555-5-5-5-555-5-5-5-5-5-555-5-5-5-|
PM ...............................................

- -------------------------------------------------|
- -------------------------------------------------|
- -------------------------------------------------|
- -555-5-5-5-5-5-555-5-5-5-555-5-5-5-5-5-555-5-5-5-|
- -333-3-3-3-3-3-333-3-3-3-333-3-3-3-3-3-333-3-3-3-|
- -------------------------------------------------|
PM ...............................................

- -------------------------------------------------|
- -------------------------------------------------|
- -------------------------------------------------|
- -------------------------------------------------|
- -111-1-1-1-1-1-111-1-1-1-111-1-1-1-1-1-111-1-1-1-|
- -111-1-1-1-1-1-111-1-1-1-111-1-1-1-1-1-111-1-1-1-|
PM ...............................................

- -------------------------------------------------|
- -------------------------------------------------|
- -------------------------------------------------|
- -------------------------------------------------|
- -333-3-3-3-3-3-333-3-3-3-333-3-3-3-3-3-333-3-3-3-|
- -333-3-3-3-3-3-333-3-3-3-333-3-3-3-3-3-333-3-3-3-|
PM ...............................................

----------------------------------------------------------------------------

[Riff 15a] - [02:38] - [02:42]
- -------------------------------------------------------------------------|
- ----------------------------------------------------------------16p15----|
- -------14h15p14----------14h15p14----------14h15p14----15p14----------17-|
- ----16----------16----16----------16----16----------16-------16----------|
- -17----------------17----------------17----------------------------------|
- -------------------------------------------------------------------------|

[Riff 15b] - [02:38] - [02:42]
- -------------------------------------------------|
- -------------------------------------------------|
- -------------------------------------------------|
- -------------------------------------------12\---|
- -0-000-0-0-0-0-000-0-0-0-0-0-0-0-0-0-0-0-0-12\---|
- -0-000-0-0-0-0-000-0-0-0-0-0-0-0-0-0-0-0-0-12\---|
PM .........................................

----------------------------------------------------------------------------

[Riff 1] - [02:42] - [03:02] - 2x
[Riff 3] - [02:52] - [03:02]

----------------------------------------------------------------------------

[Riff 16] - [03:02] - [03:07]
- -------------------------------------------------------------------------|
- -------------------------------------------------------------------------|
- --------------------------------------------------------------------8~---|
- -----------------7-----7---7---8-------7---7h8p7---10-----10---10--------|
- -----5---5h6p5-----------------------------------------------------------|
- -000---0-------0---0-0---0---0---0-000---0-------0----0-0----0----0------|
PM ...   .       .   ...   .   .   .....   .       .    ...    .    .

----------------------------------------------------------------------------

[Riff 17, Guitar 1 & 2] - [03:07] - [03:31]--------------------------| 2x
- -------------------------------------------------------------------|
- -------------------------------------------------------------------|
- -------------------------------------------------------------------|
- -------------------------------------------------(Hit each twice)--|
- -555-555-888-555---11-11-333-333-555-555-888-555-10-8-7-8-7-5-7-4--|
- -555-555-888-555---11-11-333-333-555-555-888-555-10-8-7-8-7-5-7-4--|
PM ................................................................
-
- ------------------------------------------------------------------|
- ------------------------------------------------------------------|
- ------------------------------------------------------------------|
- -------------------------------------------------(Hit each twice)-|
- -555-555-888-555---11-11-333-333-555-555-888-555-10-8-7-8-7-5-7-4-|
- -555-555-888-555---11-11-333-333-555-555-888-555-10-8-7-8-7-5-7-4-|
PM ................................................................


- -----------------------------------------------------------------|------|
- ---------------------------------------------8-------8-------10--|-8~---|
- -------------------------------------------7-----8-------8-------|------|
- -------------------------------------5h7h8-----------------------|(end)-|
- -555-555-888-555---11-11-333-333-555-----------------------------|------|
- -555-555-888-555---11-11-333-333-555-----------------------------|------|
PM ...................................
AP                                                 ..............
-
- -----------------------------------------------------6-------8---|-10~--|
- -------------------------------------------------8-------8-------|------|
- ------------------------------------------7h10p8-----------------|------|
- -------------------------------------8h10------------------------|------|
- -555-555-888-555---11-11-333-333-555-----------------------------|(end)-|
- -555-555-888-555---11-11-333-333-555-----------------------------|------|
PM ...................................
AP                                                 ..............

----------------------------------------------------------------------------

[Riff 18] - [03:31] - [03:34]
- ---------|
- ---------|
- ---------|
- -8~------|
- -5~------|
- -5~------|

----------------------------------------------------------------------------

----------------------------------------------------------------------------

------------------------- [08. Paradox] - [03:19] --------------------------

----------------------------------------------------------------------------

----------------------------------------------------------------------------


[Riff 1] - [00:00] - [00:15]----------------------------------------| 2x
- ------------------------------------------------------------------|
- ------------------------------------------------------------------|
- ------------------------------------------------------------------|
- ---------------------------------8p0-5h8p0-5h8p0-8p5p0h5h8p0-5p0--|
- -8p0-5h8p0-5h8p0-8p5p0h5h8p0-5p0----------------------------------|
- ------------------------------------------------------------------|

- -----------------------------------------------------------------|
- -----------------------------------------------------------------|
- -----------------------------------------------------------------|
- -----------------------------------------------------------------|
- -8p0-5h8p0-5h8p0-8p5p0h5h8p0-5p0-7p0-4h7p0-4h7p0-7p4p0h4h5p0-1p0-|
- -----------------------------------------------------------------|

[Riff 2a] - [00:00] - [00:07]
- -------------|
- -------------|
- -------------|
- -7~-5~-7~-7~-|
- -5~-5~-5~-7~-|
- -0~-5~-0~-7~-|

[Riff 2b] - [00:07] - [00:15]
- ---------------------------------------------------------------------|
- ---------------------------------------------------------------------|
- ---------------------------------------------------------------------|
- -7----------------8----------------7----------------7----------------|
- -5-55555555555555-8-88888888888888-5-55555555555555-7-77777777777777-|
- -0-00000000000000-8-88888888888888-0-00000000000000-7-77777777777777-|
PM   ..............   ..............   ..............   ..............

----------------------------------------------------------------------------

[Riff 3, Guitar 1 & 2] - [00:15] - [00:30]
- -------------------------------------------------------------------| 1
- -------------------------------------------------------------------|
- -------------------------------------------------------------------|
- -7---3h7---3h7----7p3p0h3h7---3--12--8h12--8h12---12p8p0h8h12--8---|
- -------------------------------------------------------------------|
- ---0-----0-----0-------------0--0---0-----0-----0-------------0--0-|
PM   .     .     .             .  .   .     .     .             .  .
-
- -------------------------------------------------------------------|
- -------------------------------------------------------------------|
- -------------------------------------------------------------------|
- ----------------------------------8---5h8---5h8----8p5p0h5h8---5---|
- -8---5h8---5h8----8p5p0h5h8---5------------------------------------|
- ---0-----0-----0-------------0--0---0-----0-----0-------------0--0-|
PM   .     .     .             .  .   .     .     .             .  .


- -------------------------------------------------------------------| 2
- -------------------------------------------------------------------|
- -------------------------------------------------------------------|
- -7---3h7---3h7----7p3p0h3h7---3------------------------------------|
- ----------------------------------7---4h7---4h7----7p4p0h4h5---1---|
- ---0-----0-----0-------------0--0---0-----0-----0-------------0--0-|
PM   .     .     .             .  .   .     .     .             .  .
-
- -------------------------------------------------------------------|
- -------------------------------------------------------------------|
- -------------------------------------------------------------------|
- -------------------------------------------------------------------|
- -8---5h8---5h8----8p5p0h5h8---5--12--7h12--7h12---12p7p0h7h8---5---|
- ---0-----0-----0-------------0--0---0-----0-----0-------------0--0-|
PM   .     .     .             .  .   .     .     .             .  .


- -------------------------------------------------------------------| 3
- -------------------------------------------------------------------|
- -------------------------------------------------------------------|
- -7---3h7---3h7----7p3p0h3h7---3--12--8h12--8h12---12p8p0h8h12--8---|
- -------------------------------------------------------------------|
- ---0-----0-----0-------------0--0---0-----0-----0-------------0--0-|
PM   .     .     .             .  .   .     .     .             .  .
-
- -------------------------------------------------------------------|
- -------------------------------------------------------------------|
- -------------------------------------------------------------------|
- -12-7h12--7h12---12p7p0h7h12--7--15--12h15-12h5--15p12p0h12h15-12--|
- -------------------------------------------------------------------|
- ---0-----0-----0-------------0--0---0-----0-----0-------------0--0-|
PM   .     .     .             .  .   .     .     .             .  .


- -------------------------------------------------------------------| 4
- -------------------------------------------------------------------|
- -------------------------------------------------------------------|
- -7---3h7---3h7----7p3p0h3h7---3------------------------------------|
- ----------------------------------7---4h7---4h7----7p4p0h4h5---1---|
- ---0-----0-----0-------------0--0---0-----0-----0-------------0--0-|
PM   .     .     .             .  .   .     .     .             .  .
-
- -------------------------------------------------------------------|
- -------------------------------------------------------------------|
- -------------------------------------------------------------------|
- -12-12h15-12h15-15p12p0h12h15-12-----------------------------------|
- ---------------------------------12--7h12--7h12---12p7p0h7h8---5---|
- ---0-----0-----0-------------0--0---0-----0-----0-------------0--0-|
PM   .     .     .             .  .   .     .     .             .  .

----------------------------------------------------------------------------

[Riff 4] - [00:30] - [00:35]
- --------------------|
- --------------------|
- --------------------|
- -0~-----///---------|
- -0~-----///-15\-0---|
- -0~-----///-----0---|
PM                .

----------------------------------------------------------------------------

[Riff 5] - [00:35] - [00:41]
- ----------------------------------------------------------------------|
- ---------------------------------------10-----------------------------|
- -----7---9h10---7-----7---9h10---7----------10---9---7---7---9h10---7-|
- ----------------------------------------------------------------------|
- ----------------------------------------------------------------------|
- -0-0---0------0---0-0---0------0---0-0----0----0---0---0---0------0---|
PM ...   .      .   ...   .      .   ...    .    .   .   .   .      .

- -----------------------------------------------------|
- ----------------------10-----------------------------|
- -----7---9h10---7----------10---9---7---7---9h10---7-|
- -----------------------------------------------------|
- -----------------------------------------------------|
- -0-0---0------0---0-0----0----0---0---0---0------0---|
PM ...   .      .   ...    .    .   .   .   .      .

[Riff 6, Guitar 1 & 2] - [00:41] - [00:55]-------------------------------| 2x
- -----------------------------------------------------------------------|
- ---------------------------------------10------------------------------|
- ----7---9h10---7-----7---9h10---7-----------10--9---7---7---9h10---7---|
- -----------------------------------------------------------------------|
- -----------------------------------------------------------------------|
- -0-0---0------0---0-0---0------0---0-0----0----0---0---0---0------0----|
PM ...   .      .   ...   .      .   ...    .    .   .   .   .      .
-
- ----------------------------------------------------------------------|
- ---------------------------------------13-----------------------------|
- ----10--12h14--10----10--12h14--10----------14--12--10--10--12h14--10-|
- ----------------------------------------------------------------------|
- ----------------------------------------------------------------------|
- -0-0---0------0---0-0---0------0---0-0----0----0---0---0---0------0---|
PM ...   .      .   ...   .      .   ...    .    .   .   .   .      .


- ------------------------------------------------------|
- ----------------------10------------------------------|
- ----7---9h10---7-----------10--9---7---7---9h10---7---|
- ------------------------------------------------------|
- ------------------------------------------------------|
- -0-0---0------0---0-0----0----0---0---0---0------0----|
PM ...   .      .   ...    .    .   .   .   .      .
-
- -----------------------------------------------------|
- ----------------------13-----------------------------|
- ----10--12h14--10----------14--12--10--10--12h14--10-|
- -----------------------------------------------------|
- -----------------------------------------------------|
- -0-0---0------0---0-0----0----0---0---0---0------0---|
PM ...   .      .   ...    .    .   .   .   .      .

----------------------------------------------------------------------------

[Riff 7] - [00:55] - [01:18]---------| 3x
- -----------------------------------|
- -----------------------------------|
- -----------------------------------|
- -----------------------------------|
- -0000--0--0--00-0----00000000-000--|
- -0000--0--0--00-0----00000000-000--|
PM ................................

- ----------------------------------|
- ----------------------------------|
- ----------------------------------|
- ----------------------------------|
- -0000--0--0--00-0----00000000--0--|
- -0000--0--0--00-0----00000000--0--|
PM ................................


[Riff 8] - [01:03] - [01:18]-----------------------------------| 4x
- -------------------------------------------------------------|
- --------------------------------------------------------14---|
- -7--7--9--7--10--10--9--12--10--10--12--10--14--14--12-------|
- --0--0--0--0---0---0--0---0---0---0---0---0---0---0---0---0--|
- -------------------------------------------------------------|
- -------------------------------------------------------------|
PM  .  .  .  .   .   .  .   .   .   .   .   .   .   .   .   .

----------------------------------------------------------------------------

[Riff 9, Guitar 1 & 2] - [01:18] - [01:35]---------------------------| 2x
- -------------------------------------------------------------------|
- -------------------------------------------------------------------|
- -------------------------------------------------------------------|
- ---------------7p0-------------7----------------7---5--------------|
- -8---0---0h7h8-------0---0h7h8-------0----0h7h8-------8-7-8-7-5----|
- ---0---0-----------0---0---------0-0---0----------0-------------0--|
PM   .   .           .   .         ...   .          ...........   .
-
- ------------------------------------------------------------------|
- ------------------------------------------------------------------|
- ------------------------------------------------------------------|
- ---------------7p0-------------7----------------7---5-------------|
- -8---0---0h7h8-------0---0h7h8-------0----0h7h8-------8-7-8-7-5---|
- ---0---0-----------0---0---------0-0---0----------0-------------0-|
PM   .   .           .   .         ...   .          ...........   .


- -------------------------------------------------------------------------|
- -------------------------------------------------------------------------|
- -------------------------------------------------------------------------|
- ---------------7p0---------------7------------------7----5---------------|
- -8---0---0h7h8-------0---0h7h8----------0---0h7h8----------8-7--8--7-5---|
- ---0---0-----------0---0------------0-0---0------------0---------------0-|
PM   .   .           .   .            ...   .            .............   .
-
- -------------------------------------------------------------------------|
- -------------------------------------------------------------------------|
- -------------------------------------------------------------------------|
- ---------------3p0---------------10-----------------10---8-7----8--------|
- -5---0---0h3h5-------8---8h10h12--------8---8h10h12----------10---10-8---|
- ---0---0-----------0---0------------0-0---0------------0---------------0-|
PM   .   .           .   .            ...   .            .............   .

[Riff 10] - [01:27] - [01:34]
- -----------------------------------------------------------------|
- -----------------------------------------------------------------|
- -----------------------------------------------------------------|
- -----------------------------------------------------------------|
- -00000---00000---00000---0------0-0000---00000---00000---0-------|
- -00000---00000---00000---0------0-0000---00000---00000---0-------|
PM .........................................................

----------------------------------------------------------------------------

[Riff 11] - [01:35] - [01:51]
- -----------------------------------------------------------------|
- -----------------------------------------------------------------|
- -----------------------------------------------------------------|
- -8p0-5h8p0-5h8p0-8p5p0h5h8p0-5p0---------------------------------|
- ---------------------------------8p0-5h8p0-5h8p0-8p5p0h5h8p0-5p0-|
- -----------------------------------------------------------------|

- -----------------------------------------------------------------|
- -----------------------------------------------------------------|
- -----------------------------------------------------------------|
- -----------------------------------------------------------------|
- -7p0-4h7p0-4h7p0-7p4p0h4h7p0-4p0-8p0-5h8p0-5h8p0-8p5p0h5h8p0-5p0-|
- -----------------------------------------------------------------|

- --------------------------------------|
- --------------------------------------|
- --------------------------------------|
- -12p0-8h12p0-8h12p0-12p8p0h8h12p0-8p0-|
- --------------------------------------|
- --------------------------------------|

- -------------------------------------------|
- -------------------------------------------|
- -------------------------------------------|
- -15p0-12h15p0-12h15p0-15p12p0h12h15p0-12p0-|
- -------------------------------------------|
- -------------------------------------------|

- -------------------------------------------|
- -------------------------------------------|
- -------------------------------------------|
- -14p0-11h14p0-11h14p0-14p11p0h11h14p0-11p0-|
- -------------------------------------------|
- -------------------------------------------|

- -------------------------------------------|
- -------------------------------------------|
- --------------------------------------19\--|
- -19-0-15h19p0-15h19p0-19p15p0h15h19p0------|
- -------------------------------------------|
- -------------------------------------------|

[Riff 12a] - [01:35] - [01:43]
- --------------|
- --------------|
- -----7-----7--|
- -12--7--7--7--|
- -8---5--7--5--|
- -8---0--7--0--|

[Riff 12b] - [01:43] - [01:51]
- ---------------------------------------------------------------------|
- ---------------------------------------------------------------------|
- ---------------------------------------------------------------------|
- -8----------------7----------------7----------------7----------------|
- -8-88888888888888-5-55555555555555-7-77777777777777-5-55555555555555-|
- -8-88888888888888-0-00000000000000-7-77777777777777-0-00000000000000-|
PM   ..............   ..............   ..............   ..............

----------------------------------------------------------------------------

[Riff 13] - [01:51] - [01:58]
- ----------------------------------------------------------------------|
- ---------------------------------------------------10-----------------|
- -----7---9h10---7-----7---9h10---7----------------------10---9h10---7-|
- ----------------------------------------------------------------------|
- ----------------------------------------------------------------------|
- -0-0---0------0---0-0---0------0---0-0-0-0-0-0-0-0----0----0------0---|
PM ...   .      .   ...   .      .   ...............    .    .      .

- -----------------------------------------------------|
- ----------------------------------10-----------------|
- -----7---9h10---7----------------------10---9h10---7-|
- -----------------------------------------------------|
- -----------------------------------------------------|
- -0-0---0------0---0-0-0-0-0-0-0-0----0----0------0---|
PM ...   .      .   ...............    .    .      .

[Riff 14, Guitar 1 & 2] - [0158] - [02:06]
- ----------------------------------------------------------------------|
- ---------------------------------------------------10-----------------|
- -----7---9h10---7-----7---9h10---7----------------------10---9h10---7-|
- ----------------------------------------------------------------------|
- ----------------------------------------------------------------------|
- -0-0---0------0---0-0---0------0---0-0-0-0-0-0-0-0----0----0------0---|
PM ...   .      .   ...   .      .   ...............    .    .      .
-
- ----------------------------------------------------------------------|
- ---------------------------------------------------13-----------------|
- ----10--12h14--10----10--12h14--10----------------------14--12h14--10-|
- ----------------------------------------------------------------------|
- ----------------------------------------------------------------------|
- -0-0---0------0---0-0---0------0---0-0-0-0-0-0-0-0----0----0------0---|
PM ...   .      .   ...   .      .   ...............    .    .      .


- -----------------------------------------------------|
- ----------------------------------10-----------------|
- -----7---9h10---7----------------------10---9h10---7-|
- -----------------------------------------------------|
- -----------------------------------------------------|
- -0-0---0------0---0-0-0-0-0-0-0-0----0----0------0---|
PM ...   .      .   ...............    .    .      .
-
- -----------------------------------------------------|
- ----------------------------------13-----------------|
- ----10--12h14--10----------------------14--12h14--10-|
- -----------------------------------------------------|
- -----------------------------------------------------|
- -0-0---0------0---0-0-0-0-0-0-0-0----0----0------0---|
PM ...   .      .   ...............    .    .      .

[Riff 15] - [01:58] - [02:05]
- ----------------------------------------------------------|
- ----------------------------------------------------------|
- ----------------------------------------------------------|
- ----------------------------------------------------------|
- -0-----0---------00000000-------00-0-----000000000--------|
- -0-----0---------00000000-------00-0-----000000000--------|
PM .................................................

[Riff 6, Guitar 1 & 2] - [02:06] - [02:13]

----------------------------------------------------------------------------

[Riff 16] - [02:13] - [02:28] -| 4x
- -----------------------------|
- -----------------------------|
- -----------------------------|
- -----------------------------|
- -000--0-0000-0-000--0-0000-0-|
- -000--0-0000-0-000--0-0000-0-|
PM ...........................

[Riff 17] - [02:13] - [02:28]---------------------------------------| 4x
- ------------------------------------------------------------------|
- ---------10h11-------------------------------------10h11----------|
- ------10-------12p9h10----------------10h12p0------------12p9h10--|
- -12p0------------------12p10h12---------------0h12----------------|
- --------------------------------13p12-----------------------------|
- ------------------------------------------------------------------|

- ----------------|-----|
- ----------------|-----|
- ----------------|-10~-|   End on 10
- -12p10h12-------|-----|
- ----------13p12-|-----|
- ----------------|-----|

----------------------------------------------------------------------------

[Riff 16] - [02:28] - [02:35] - 2x

----------------------------------------------------------------------------

[Riff 17] - [02:35] - [03:19]-------------------------------| 6x
- ----------------------------------------------------------|
- ----------------------------------------------------------|
- ----------------------------------------------------------|
- ----------------------------------------------------------|
- -333--3-3333-3-333--3-3333-3-333--0-0000-0-000--0-0000-0--|
- -333--3-3333-3-333--3-3333-3-333--0-0000-0-000--0-0000-0--|
PM .......................................................

[Riff 18, Guitar 1] - [02:35] - [03:19]--------------------------------| 6x
- ---------------------------------------------------------------------|
- ---------------------------------------9-----------------------------|
- -----7---9h10---7-----7---9h10---7---------10---9---7---7-9h10---7---|
- -8-8---8------8---8-8---8------8---8-8---8----8---8---8--------8-----|
- ---------------------------------------------------------------------|
- ---------------------------------------------------------------------|
PM ...   .      .   ...   .      .   ...   .    .   .   .        .

- --------------------------------------------------|
- ----------------------9---------------------------|
- -----7---9h10---7---------10---9---7---7-9h10---7-|
- -8-8---8------8---8-8---8----8---8---8--------8---|
- --------------------------------------------------|
- --------------------------------------------------|
PM ...   .      .   ...   .    .   .   .        .

[Riff 18, Guitar 2] - [02:50] - [03:19]--------------------------------------| 4x
- ---------------------------------------------------------------------------|
- -------------------------------------------------------12------------------|
- -------10----12h14----10-------10----12h14----10-------------14----10------|
- -12-12----12-------12----12-12----12-------12----12-12----12----12----12---|
- ---------------------------------------------------------------------------|
- ---------------------------------------------------------------------------|
PM .....    ..       ..    .....    ..       ..    .....    ..    ..    ..

- -------------------------------------------------------------------------|
- -------------------------------------------------12----------------------|
- -10----12h14----10-------10----12h14----10-------------14----12----10----|
- ----12-------12----12-12----12-------12----12-12----12----12----12----12-|
- -------------------------------------------------------------------------|
- -------------------------------------------------------------------------|
PM    ..       ..    .....    ..       ..    .....    ..    ..    ..    ..

- -------------------|
- -------------------|
- -10----12h14----10-|
- ----12-------12----|
- -------------------|
- -------------------|
PM    ..       ..

----------------------------------------------------------------------------

Playing Riff 17:

the simple trick to playin the last breakdown is this. the actual riff
that is repeated is this over and over again:

- ---------------|
- ---------------|
- ---------------|
- ---------------|
- -xxx--x-xxxx-x-|
- -xxx--x-xxxx-x-|

and just change notes according to the lead riff. because the lead riff
is in 2/4 time and 14 beats long and the breakdown is in 7/8 time which is
a tricky 3.5 bets long it gets kinda hard. my gp will help show it better
if it gets accepted.

basically, notice the riff. and notice where the notes change:

[Riff 15] - [02:35] - [03:19]-------------------------------| 6x
- ----------------------------------------------------------|
- ------1-------------2-------------3-------------4---------|
-   ___________   ___________   ___________   ___________--
- -/           \ /           \ /           \ /           \-
- -333--3-3333-3-333--3-3333-3-333--0-0000-0-000--0-0000-0-|
- -333--3-3333-3-333--3-3333-3-333--0-0000-0-000--0-0000-0-|
PM .......................................................

and repeat! its not that hard trust me, try the end breakdown
for meddler.. thats some tricky shit :P

----------------------------------------------------------------------------

----------------------------------------------------------------------------

------------------------- [09. Meridian] - [06:00] -------------------------

----------------------------------------------------------------------------

----------------------------------------------------------------------------


[Riff 1] - [00:00] - [01:00]----| 8x
- ------------------------------|
- -3~----------3~---------------|
- -2~----7~----2~---------------|
- -3~----8~----3~---------------|
- -0~----5~----0~---------------|
- -0~----5~----0~---------------|

----------------------------------------------------------------------------

[Riff 2] - [00:19] - [00:46]
- -----------------------------------------------------------------|
- -----------------------------------------------------------------|
- -----------------------------------------------------------------|
- -----------------------------------------------------------------|
- -1-1-1-1-1-1-1-1/5-5-5-5-5-5-5-5\0-0-0-0-0-0-0-0-0-0-0-0-0-0-0-0-|
- -----------------------------------------------------------------|
PM ...............................................................

- -----------------------------------------------------------------|
- -----------------------------------------------------------------|
- -----------------------------------------------------------------|
- -----------------------------------------------------------------|
- -1-1-1-1-1-1-1-1/5-5-5-5-5-5-5-5---------------------------------|
- ---------------------------------0-0-0-0-0-0-0-0-0-0-0-0-0-0-0-0-|
PM ...............................................................

- -----------------------------------------------------------------|
- -----------------------------------------------------------------|
- -----------------------------------------------------------------|
- -----------------------------------------------------------------|
- -----------------------------------------------------------------|
- -0-0-0-0-0-0-0-0-5-5-5-5-5-5-5-5-0-0-0-0-0-0-0-0-0-0-0-0-0-0-0-0-|
PM ...............................................................

- -----------------------------------------------------------------|
- -----------------------------------------------------------------|
- -----------------------------------------------------------------|
- -----------------------------------------------------------------|
- -----------------------------------------------------------------|
- -0-0-0-0-0-0-0-0-5-5-5-5-5-5-8-8-7-7-7-7-7-7-7-7-7-7-7-7-7-7-7-7-|
PM ...............................................................

----------------------------------------------------------------------------

[Riff 3] - [00:46] - [01:00]
- ----------------------------------|
- ----------------------------------|
- ----------------------------------|
- ------------------------8-7-------|
- -1--/5--\0-------1--/5------------|
- ----------------------------------|
AP ..........................

----------------------------------------------------------------------------

[Riff 4] - [01:00] - [01:21]-----------------------------------------| 3x
- -------------------------------------------------------------------|
- -------------------------------------------------------------------|
- -------------------------------------------------------------------|
- -------------------------------------------------------------------|
- -000-0-----00000-0---0-----0000000---0-----00-00-0---0-----000000--|
- -000-0-----00000-0---0-----0000000---0-----00-00-0---0-----000000--|
PM ................................................................

----------------------------------------------------------------------------

[Riff 5] - [01:00] - [01:30]
- ---------------------------------|
- -----------------8-8-8-8-8-8-8-8-|
- -7-7-7-7-7-7-7-7-----------------|
- ---------------------------------|
- ---------------------------------|
- ---------------------------------|

- -----------------10-10-10-10-10-10-10-10-|
- -----------------------------------------|
- -7-7-7-7-7-7-7-7-------------------------|
- -----------------------------------------|
- -----------------------------------------|
- -----------------------------------------|

- -----------------------------------|
- -----------------8-8-8-8-8-8/11-11-|
- -7-7-7-7-7-7-7-7-------------------|
- -----------------------------------|
- -----------------------------------|
- -----------------------------------|

- -------------------------------------------------|
- -10-10-10-10-10-10-10-10/15----15----15----15----|
- -------------------------------------------------|
- ----------------------------12----12----12----12-|
- -------------------------------------------------|
- -------------------------------------------------|

- -------------------------15-15-15-15-15-15-15-15-|
- -15-15-15-15-15-15-15-15-------------------------|
- -------------------------------------------------|
- -------------------------------------------------|
- -------------------------------------------------|
- -------------------------------------------------|

- -------------------------18-18-18-18-17-17-17-17-|
- -15-15-15-15-15-15-15-15-------------------------|
- -------------------------------------------------|
- -------------------------------------------------|
- -------------------------------------------------|
- -------------------------------------------------|

- -------------------------------------------------|
- -15-15-15-15-15-15-15\11-11-11-11-11-11-11-11-11-|
- -------------------------------------------------|
- -------------------------------------------------|
- -------------------------------------------------|
- -------------------------------------------------|

- -------------------------------|
- -----------10h11(4x)-11h13(4x)-|
- -12h14(8x)---------------------|
- -------------------------------|
- -------------------------------|
- -------------------------------|

[Riff 6] - [01:21] - [01:35]
- --------------------------------------------------------------------|
- --------------------------------------------------------------------|
- --------------------------------------------------------------------|
- -----------------------------------------------------------------0~-|
- -000-0-----00000-0---0-----0000000---0-----00-00-0---0---000000000~-|
- -000-0-----00000-0---0-----0000000---0-----00-00-0---0---000000000~-|
PM ................................................................

----------------------------------------------------------------------------

[Riff 7, Guitar 1 & 2] - [01:35] - [02:09]----------| 4x
- --------------------------------------------------|
- -10-10-10-10-10-------11-11-11-11-11-10-10--------|
- -------------------11----------------------10-10--|
- ----------------12--------------------------------|
- --------------------------------------------------|
- --------------------------------------------------|
-
- -1~----------------------------------------------|
- -3~----------------------------------------------|
- -2~----------------------------------------------|
- -0~----------------------------------------------|
- -------------------------------------------------|
- -------------------------------------------------|


- -------------------------------------------------|----------------|
- -------------------------------------------------|-(end with on---|
- ----------------------10-10----------------------|--last time)----|
- -12-12-12-12-12-12-12-------12-12-10-10-12-12-12-|----------------|
- -------------------------------------------------|-10-10/12-12-12-|
- -------------------------------------------------|----------------|
-
- -------------------------------------------------|
- -3~----------------------3-----------------------|
- -2~-------------------------3--2-----2-----2-----|
- -3~-------------------------------------------3--|
- -1~----------------------(only on second time)---|
- -------------------------------------------------|

----------------------------------------------------------------------------

[Riff 8, Guitar 1 & 2] - [02:09] - [02:17]
- -------------------------------------------------|
- -------------------------------------------------|
- -------------------------------------------------|
- -0--0--0--0--0--0--0--0--0--0--0--0--0--0--0--0--|
- -1--1--1--1--1--1--1--1--1--1--1--1--1--1--1--1--|
- -------------------------------------------------|
-
- -------------------------------------------------|
- -10-10-10-10-10-10-10-10-10-10-10-10-10-10-10-10-|
- -7--7--7--7--7--7--7--7--7--7--7--7--7--7--7--7--|
- -8--8--8--8--8--8--8--8--8--8--8--8--8--8--8--8--|
- -------------------------------------------------|
- -------------------------------------------------|


- -------------------------------------------------|
- -------------------------------------------------|
- -------------------------------------------------|
- -0--0--0--0--0--0--0--0--0--0--0--0--0--0--0--0--|
- -1--1--1--1--1--1--1--1--1--1--1--1--1--1--1--1--|
- -------------------------------------------------|
-
- -------------------------------------------------|
- -10-10-10-10-10-10-10-11-11-11-11-11-11-11-11-11-|
- -7--7--7--7--7--7--7--7--7--7--7--7--7--7--7--7--|
- -8--8--8--8--8--8--8--8--8--8--8--8--8--8--8--8--|
- -------------------------------------------------|
- -------------------------------------------------|

----------------------------------------------------------------------------

[Riff 9] - [02:17] - [03:22]----------------------------------------| 4x
- ------------------------------------------------------------------|
- ------------------------------------------------------------------|
- -----------------------2-2-2-2-2-----------2-2---------3-3-3-3-3--|
- -3-3-3-3-3-3-3-3-3-3-3-3-3-3-3-3-3-3-3-3-3-3-3-3-3-3-3-3-3-3-3-3--|
- -5-5-5-5-5-5-5-5-5-5-5-5-5-5-5-5-5-5-5-5-5-5-5-5-5-5-5-5-5-5-5-5--|
- ------------------------------------------------------------------|
-
- -----------------------------------------------------------------|
- -----------------------------------------------------------------|
- -----------------------------------------------------------------|
- -----------------------1010101010----------------------8-8-8-8-8-|
- -8-8-8-8-8-8-8-8-8-8-8-8-8-8-8-8-8-8-8-8-8-8-8-8-8-8-8-8-8-8-8-8-|
- -0-0-0-0-0-0-0-0-0-0-0-0-0-0-0-0-0-0-0-0-0-0-0-0-0-0-0-0-0-0-0-0-|


- -----------------------------------------------------------------|
- -----------------------------------------------------------------|
- -----------------------2-2-2-2-2---------------------------------|
- -3-3-3-3-3-3-3-3-3-3-3-3-3-3-3-3-1-1-1-1-1-1-1-1-1-1-1-1-1-1-1-1-|
- -5-5-5-5-5-5-5-5-5-5-5-5-5-5-5-5-0-0-0-0-0-0-0-0-0-0-0-0-0-0-0-0-|
- -----------------------------------------------------------------|
-
- ------------------------------------------------------------------|
- ---------------------------------10101010101010101010101010101010-|
- ---------------------------------7-7-7-7-7-7-7-7-7-7-7-7-7-7-7-7--|
- -----------------------10101010108-8-8-8-8-8-8-8-8-8-8-8-8-8-8-8--|
- -8-8-8-8-8-8-8-8-8-8-8-8-8-8-8-8----------------------------------|
- -0-0-0-0-0-0-0-0-0-0-0-0-0-0-0-0----------------------------------|

----------------------------------------------------------------------------

[Riff 10] - [02:49] - [03:02]
- -----------------------------------------------------8-------8-------8---|
- -----6-------------3-------3---------10----------------------------------|
- ---7-----------------5-------5-----10--------------10------10------10----|
- -7---------------7-------7-----------------------------------------------|
- ---------------------------------8---------------8-------8-------8-------|
- -------------------------------------------------------------------------|

- ------------8-------8-|
- ----------------------|
- ----------10------10--|
- ----------------------|
- --------8-------8-----|
- ----------------------|

----------------------------------------------------------------------------

[Riff 11] - [03:02] - [03:22]
- -------------------------------------------------|
- -11-11-11-11-11-11-11-11-11-11-11-11-11-11-11-11-|
- -------------------------------------------------|
- -------------------------------------------------|
- -------------------------------------------------|
- -------------------------------------------------|

- -------------------------------------------------|
- -------------------------------------------------|
- -------------------------------------------------|
- -------------------------------------------------|
- -12-12-12-12-12-12-12-12-12-12-12-10-10-10-10-10-|
- -------------------------------------------------|

- -------------------------------------------------|
- -------------------------------------------------|
- -------------------------------------------------|
- -------------------------------------------------|
- -12-12-12-12-12-12-12-12-12-12-12-10-10-10-10-10-|
- -------------------------------------------------|

- -------------------------------------------------|
- -------------------------------------------------|
- -------------------------------------------------|
- -------------------------------------------------|
- -12-12-12-12-12-12-12-12-12-12-12-10-10-10-10-10-|
- -------------------------------------------------|

- -------------------------------------------------|
- -11-11-11-11-11-11-11-11-11-11-11-11-11-11-11-11-|
- -------------------------------------------------|
- -------------------------------------------------|
- -------------------------------------------------|
- -------------------------------------------------|

----------------------------------------------------------------------------

[Riff 12] - [03:20] - [03:22]
- ---------------|
- ---------------|
- ---------------|
- -8-8-8-8\5-5-5-|
- -8-8-8-8\5-5-5-|
- -8-8-8-8\5-5-5-|

----------------------------------------------------------------------------

[Riff 13] - [03:22] - [04:30]
- ------------------------------------------------------------------|
- ------------------------------------------------------------------|
- ------------------------------------------------------------------|
- -0---0---0---0---0---0---0---0---0---0---0---0---0-7-7-7-7-8-8-8--|
- -0---0---0---0---0---0---0---0---0---0---0---0---0-8-8-8-8-101010-|
- -0---0---0---0---0---0---0---0---0---0---0---0---0-7-7-7-7-8-8-8--|

- ------------------------------------------------------------------|
- ------------------------------------------------------------------|
- ------------------------------------------------------------------|
- -0---0---0---0---0---0---0---0---0---0---0---0---0-7-7-7-7-8-8-8--|
- -0---0---0---0---0---0---0---0---0---0---0---0---0-8-8-8-8-101010-|
- -0---0---0---0---0---0---0---0---0---0---0---0---0-7-7-7-7-8-8-8--|

- ------------------------------------------------------------------|
- ------------------------------------------------------------------|
- ------------------------------------------------------------------|
- -0---0---0---0---0---0---0---0---0---0---0---0---0-7-7-7-7-8-8-8--|
- -0---0---0---0---0---0---0---0---0---0---0---0---0-8-8-8-8-101010-|
- -0---0---0---0---0---0---0---0---0---0---0---0---0-7-7-7-7-8-8-8--|

- -----------------------------------------------------------------|
- -----------------------------------------------------------------|
- -----------------------------------------------------------------|
- -0---0---0---0---0---0---0---0---8---8---8---8---8-8-8-8-8\5-5-5-|
- -0---0---0---0---0---0---0---0---8---8---8---8---8-8-8-8-8\5-5-5-|
- -0---0---0---0---0---0---0---0---8---8---8---8---8-8-8-8-8\5-5-5-|

- ------------------------------------------------------------------|
- ------------------------------------------------------------------|
- ------------------------------------------------------------------|
- -0---0---0---0---0---0---0---0---0---0---0---0---0-7-7-7-7-8-8-8--|
- -0---0---0---0---0---0---0---0---0---0---0---0---0-8-8-8-8-101010-|
- -0---0---0---0---0---0---0---0---0---0---0---0---0-7-7-7-7-8-8-8--|

- ------------------------------------------------------------------|
- ------------------------------------------------------------------|
- ------------------------------------------------------------------|
- -0---0---0---0---0---0---0---0---0---0---0---0---0-7-7-7-7-8-8-8--|
- -0---0---0---0---0---0---0---0---0---0---0---0---0-8-8-8-8-101010-|
- -0---0---0---0---0---0---0---0---0---0---0---0---0-7-7-7-7-8-8-8--|

- ------------------------------------------------------------------|
- ------------------------------------------------------------------|
- ------------------------------------------------------------------|
- -0---0---0---0---0---0---0---0---0---0---0---0---0-7-7-7-7-8-8-8--|
- -0---0---0---0---0---0---0---0---0---0---0---0---0-8-8-8-8-101010-|
- -0---0---0---0---0---0---0---0---0---0---0---0---0-7-7-7-7-8-8-8--|

- -----------------------------------------------------------------|
- -----------------------------------------------------------------|
- -----------------------------------------------------------------|
- -0---0---0---0---0---0---0---0---8-8-8-8-8-8-8-8-8-8-8-8-8-8-8-8-|
- -0---0---0---0---0---0---0---0---8-8-8-8-8-8-8-8-8-8-8-8-8-8-8-8-|
- -0---0---0---0---0---0---0---0---8-8-8-8-8-8-8-8-8-8-8-8-8-8-8-8-|

- -----------------|
- -----------------|
- -----------------|
- -5-5-5-5-5-5-5-5-|
- -5-5-5-5-5-5-5-5-|
- -5-5-5-5-5-5-5-5-|


[Riff 14] - [03:22] - [03:54]
- -----------------------------------------|
- -----------------------------------------|
- -10-10-10-10-10-10-10-5-5-5-10-5-5-5-5-5-|
- -x--x--x--x--x--x--x--x-x-x-x--x-x-x-x-x-|
- -8--8--8--8--8--8--8--3-3-3-8--3-3-3-3-3-|
- -----------------------------------------|

- -----------------------------------------------|
- -----------------------------------------------|
- -10-10-10-10-10-10-10-10-10-10-10-10-3-3-3-3-3-|
- -x--x--x--x--x--x--x--x--x--x--x--x--x-x-x-x-x-|
- -8--8--8--8--8--8--8--8--8--8--8--8--1-1-1-1-1-|
- -----------------------------------------------|

- -------------------------------------------------|
- -------------------------------------------------|
- -10-10-10-10-10-10-10-10-10-10-10-10-10-10-10-10-|
- -x--x--x--x--x--x--x--x--x--x--x--x--x--x--x--x--|
- -8--8--8--8--8--8--8--8--8--8--8--8--8--8--8--8--|
- -------------------------------------------------|

- ---------------------------------------------|
- ---------------------------------13-13-13-13-|
- -9-9-9-9-10-10-10-10-12-12-12-12-------------|
- ---------------------------------------------|
- ---------------------------------------------|
- ---------------------------------------------|


[Riff 15] - [03:54] - [04:10]-----------------------| 2x
- -17-------17-17-------17-17-------17-17\12-12\10--|
- ----15-15-------15-15-------15-15-----------------|
- --------------------------------------------------|
- --------------------------------------------------|
- --------------------------------------------------|
- --------------------------------------------------|

- -10----------10----------10\6-6\3-3/5-3/--|
- ----10-10-10----10-10-10------------------|
- ------------------------------------------|
- ------------------------------------------|
- ------------------------------------------|
- ------------------------------------------|


[Riff 16] - [04:10] - [04:30]
- -17-------17-17-------17-17-------17-17\12-12\10-|
- ----15-15-------15-15-------15-15----------------|
- -------------------------------------------------|
- -------------------------------------------------|
- -------------------------------------------------|
- -------------------------------------------------|

- -10----------10---------------------------------|
- ----10-10-10----10-10-10----13-13\11-11\10-10\8-|
- -------------------------12---------------------|
- ------------------------------------------------|
- ------------------------------------------------|
- ------------------------------------------------|

- -------------------------------------|
- -6~--------------10---10---10---10---|
- --------------------9----9----9----9-|
- -------------------------------------|
- -------------------------------------|
- -------------------------------------|

- ---------------------------------|
- -6-6-6-6-6-6-6-6-6-6-6-6-6-6-6-6-|
- -7-7-7-7-7-7-7-7-7-7-7-7-7-7-7-7-|
- ---------------------------------|
- ---------------------------------|
- ---------------------------------|

- --------------------------------------|
- -10---10---10---10/11-8---8---8---8---|
- ----7----7----7---------7---7---7---7-|
- --------------------------------------|
- --------------------------------------|
- --------------------------------------|

----------------------------------------------------------------------------

[Riff 17] - [04:30] - [05:42]---------------------------------------| 9x
- ------------------------------------------------------------------|
- ------------------------------------------------------------------|
- ------------------------------------------------------------------|
- -7-7-7-7-7-7-7-8-8-8-8-8-8-8-8-8-7--------------------------------|
- -8-8-8-8-8-8-8-1010101010101010108-0-0-0-000-000---0-0-0-000-000--|
- -7-7-7-7-7-7-7-8-8-8-8-8-8-8-8-8-7-0-0-0-000-000---0-0-0-000-000--|
PM                                   .............................

[Riff 18] - [04:30] - [05:42] - 4-------------------|5x
- --------------------------------------------------|
- -10-10-10-10-10-------11-11-11-11-11-10-10--------|
- -------------------10----------------------10-10--|
- ----------------12--------------------------------|
- --------------------------------------------------|
- --------------------------------------------------|

- -------------------------------------------------|
- -------------------------------------------------|
- -------------------------------------------------|
- -12-12-12-12-12-12-12-12-12-12-12-12-12-12-12-12-|
- -------------------------------------------------|
- -------------------------------------------------|

- -------------------------------------------------|
- -10-10-10-10-10-------11-11-11-11-11-10-10-------|
- -------------------10----------------------10-10-|
- ----------------12-------------------------------|
- -------------------------------------------------|
- -------------------------------------------------|

- -------------------------------------------------|
- -------------------------------------------------|
- ----------------------10-10----------------------|
- -12-12-12-12-12-12-12-------12-12-10-10-12-12-12-|
- -------------------------------------------------|
- -------------------------------------------------|

[Riff 19] - [05:02] - [05:42]
- -------------------------------------------------|
- -------------------------------------------------|
- -10-10-10-10-10-------12-12-12-12-12-10-10-------|
- -------------------12----------------------12-12-|
- ----------------13-------------------------------|
- -------------------------------------------------|

- -------------------------------------------------|
- -------------------------------------------------|
- -------------------------------------------------|
- -------------------------------------------------|
- -12-12-12-12-12-12-12-12-12-12-12-12-12-12-12-12-|
- -------------------------------------------------|

- -------------------------------------------------|
- -------------------------------------------------|
- -10-10-10-10-10-------12-12-12-12-12-10-10-------|
- -------------------12----------------------12-12-|
- ----------------13-------------------------------|
- -------------------------------------------------|

- -------------------------------------------------|
- -------------------------------------------------|
- -------------------------------------------------|
- -------------------------------------------------|
- -12-12-12-12-12-12-12-12-12-8--8--7--7--8--8--8--|
- -------------------------------------------------|

[Riff 20] - [05:18] - [05:42] - 1-------------------|5x
- --------------------------------------------------|
- --------------------------------------------------|
- -10-10-10-10-10-------12-12-12-12-12-10-10--------|
- -------------------12----------------------12-12--|
- ----------------13--------------------------------|
- --------------------------------------------------|

- -------------------------------------------------|
- -------------------------------------------------|
- -10-10-10-10-10-10-10-10-10-10-10-10-10-10-10-10-|
- -------------------------------------------------|
- -------------------------------------------------|
- -------------------------------------------------|

- -------------------------------------------------|
- -------------------------------------------------|
- -10-10-10-10-10-------12-12-12-12-12-10-10-------|
- -------------------12----------------------12-12-|
- ----------------13-------------------------------|
- -------------------------------------------------|

- -------------------------------------------------|
- ----------------------10-10----------------------|
- -10-10-10-10-10-10-10-------10-10-9--9--10-10-10-|
- -------------------------------------------------|
- -------------------------------------------------|
- -------------------------------------------------|

----------------------------------------------------------------------------

[Riff 21a] - [05:42] - [06:00]
- -----------------------------------------------------------------|
- -----------------------------------------------------------------|
- -----------------------------------------------------------------|
- -7-7-7-7-7-7-7-8-8-8-8-8-8-8-8-8-7~------------------------------|
- -8-8-8-8-8-8-8-1010101010101010108~------------------------------|
- -7-7-7-7-7-7-7-8-8-8-8-8-8-8-8-8-7~------------------------------|

[Riff 21b] - [05:42] - [06:00]
- -----------------------------------------------------------------|
- -10-10-10-10-10-------11-11-11-11-11-10-10-------10~-------------|
- -------------------10----------------------10-10-----------------|
- ----------------12-----------------------------------------------|
- -----------------------------------------------------------------|
- -----------------------------------------------------------------|

[Riff 21c] - [05:42] - [06:00]
- -----------------------------------------------------------------|
- -----------------------------------------------------------------|
- -10-10-10-10-10-------12-12-12-12-12-10-10-------10~-------------|
- -------------------12----------------------12-12-----------------|
- ----------------13-----------------------------------------------|
- -----------------------------------------------------------------|


----------------------------------------------------------------------------

----------------------------------------------------------------------------

----------------------- [10. Rationalist] - [02:38] ------------------------

----------------------------------------------------------------------------

----------------------------------------------------------------------------


[Riff 1] - [00:00] - [00:00] - [00:02-|
- ------------------------------------|
- ------------------------------------|
- ------------------------------------|
- -0~---------------------------------|
- -0~---------------------------------|
- -0~---------------------------------|

[Riff 2] - [00:02] - [00:14]-------------------------------------| 4x
- ---------------------------------------------------------------|
- ---------------------------------------------------------------|
- ---------------------------------------------------------------|
- -5h8p5p0-4h7p4p0---7h10p7p0---5h8p5p0-4h7p4p0-1h4p1p0-5h8p5p0--|
- ---------------------------------------------------------------|
- -----------------0----------0----------------------------------|
PM                 .          .

[Riff 3a] - [00:02] - [00:14]
- --------------------------------------------------------------------|
- --------------------------------------------------------------------|
- --------------------------------------------------------------------|
- ---------------------------------------------------------------[7~]-|
- -00-00------0---0-00000---00000---00-00-----0---0-000-0---000-------|
- -00-00------0---0-00000---00000---00-00-----0---0-000-0---000-------|
PM ............................................................

- ---------------------------------------------------------------|
- ---------------------------------------------------------------|
- ---------------------------------------------------------------|
- ----------------------------------5h8p5p0-4h7p4p0---7h10p7p0---|
- -00-00------0---0-00000---00000--------------------------------|
- -00-00------0---0-00000---00000-------------------0----------0-|
PM ..............................                   .          .

- ------------------------------|
- ------------------------------|
- ------------------------------|
- -5h8p5p0-4h7p4p0-1h4p1p0h1----|
- ---------------------------0--|
- ---------------------------0--|
PM                           .

[Riff 3b] - [00:14] - [00:25]
- --------------------------------------------------------------------|
- --------------------------------------------------------------------|
- --------------------------------------------------------------------|
- ---------------------------------------------------------------[7~]-|
- -00-00------0---0000-00---00000---00-00-----0---0000--0---000-------|
- -00-00------0---0000-00---00000---00-00-----0---0000--0---000-------|
PM ............................................................

- ---------------------------------------------------------------|
- ---------------------------------------------------------------|
- ---------------------------------------------------------------|
- ----------------------------------5h8p5p0-4h7p4p0---7h10p7p0---|
- -00-00------0---0000-00---00000--------------------------------|
- -00-00------0---0000-00---00000-------------------0----------0-|
PM ..............................                   .          .

- -----------------------------------|
- -----------------------------------|
- -----------------------------------|
- -5h8p5p0-4h7p4p0-1h4p1p0h1-4h7p4p0-|
- -----------------------------------|
- -----------------------------------|

----------------------------------------------------------------------------

[Riff 4, Guitar 1 & 2] - [00:25] - [00:43]
- ------------------------------------------------------------------|
- ---8-----------------8-------------8-----------8p7----------------|
- -------7-------7---------7-------------7-----------8p7------------|
- -----------8-----------------8-------------8-----------8h10-7h8---|
- ----------------------------------------------------------------9-|
- -5---5---5---5---5-5---5---5---5-5---5---5---5--------------------|
PM .   .   .   .   ...   .   .   ...   .   .   .
-
- -----------------------------------------------6p5----------------|
- ---8-----------------8-------------8---------------8p7------------|
- -------7-------7---------7-------------7---------------7h8--5h7---|
- -----------8-----------------8-------------8--------------------7-|
- ------------------------------------------------------------------|
- -5---5---5---5---5-5---5---5---5-5---5---5---5--------------------|
PM .   .   .   .   ...   .   .   ...   .   .   .


- ---------------------------------------------------------------------|
- --------------------------------------------------8p7----------------|
- ------------------------------------------------------8p7------------|
- ------------------8---7----4h5----4---5---4---------------8h10-7h8---|
- ---10---9---5------------------6--------------5--------------------9-|
- -0----0---0---0-0---0----0----------0---0---0---0--------------------|
PM .    .   .   ...   .    .          .   .   .   .
-
- --------------------------------------------------6p5----------------|
- ------------------------------------------------------8p7------------|
- ------------------7-------------------8---7---------------7h8--5h7---|
- ---8----7-------------10---7h8----9-----------7--------------------7-|
- ------------9------------------10------------------------------------|
- -0----0---0---0-0---0----0----------0---0---0---0--------------------|
PM .    .   .   ...   .    .          .   .   .   .


- ------------------------------------------------------------------|
- ---8-----------------8-------------8-----------8p7----------------|
- -------7-------7---------7-------------7-----------8p7------------|
- -----------8-----------------8-------------8-----------8h10-7h8---|
- ----------------------------------------------------------------9-|
- -5---5---5---5---5-5---5---5---5-5---5---5---5--------------------|
PM .   .   .   .   ...   .   .   ...   .   .   .
-
- -----------------------------------------------6p5----------------|
- ---8-----------------8-------------8---------------8p7------------|
- -------7-------7---------7-------------7---------------7h8--5h7---|
- -----------8-----------------8-------------8--------------------7-|
- ------------------------------------------------------------------|
- -5---5---5---5---5-5---5---5---5-5---5---5---5--------------------|
PM .   .   .   .   ...   .   .   ...   .   .   .


- ----------------------------------------------------------------------|
- ----------------------------------------------------------------------|
- ----------------------------------------------------------------------|
- ------------------8---7----4h5----4---5---4---------8---7-------------|
- ---10---9---5------------------6--------------5--------------9--------|
- -0----0---0---0-0---0----0----------0---0---0---0-0---0----0----------|
PM .    .   .   ...   .    .          .   .   .   ...   .    .
-
- ----------------------------------------------------------------------|
- ----------------------------------------------------------------------|
- ------------------7-------------------8---7---------7-----------------|
- ---8----7-------------10---7h8----9-----------7---------10---7--------|
- ------------9------------------10-------------------------------------|
- -0----0---0---0-0---0----0----------0---0---0---0-0---0----0----------|
PM .    .   .   ...   .    .          .   .   .   ...   .    .

----------------------------------------------------------------------------

[Riff 5] - [00:43] - [00:52]-------------------------------------------| 2x
- ---------------------------------------------------------------------|
- -----------8------------------8/11----------------13-----------------|
- -------7-----7---7--------7-----------------12-------12----12--------|
- ---8-----------8------8---------------13----------------13-------13--|
- ---------------------------------------------------------------------|
- -5---5---5----------5---5---5------10----10----10-------------10-----|
PM .   .   .     .    .   .   .      ..    ..    ..       ..      ..

- ----------------|
- ----------13\---|
- ----12----------|
- ----------------|
- ----------------|
- -10----10-------|
PM ..    ..

[Riff 6, Guitar 1 & 2] - [00:52] - [01:01]----------------------------| 2x
- --------------------------------------------------------------------|
- -----------8-----------------8/11----------------13-----------------|
- -------7-----7---7-------7-----------------12-------12----12--------|
- ---8-----------8-----8---------------13----------------13-------13--|
- --------------------------------------------------------------------|
- -5---5---5---------5---5---5------10----10----10-------------10-----|
PM .   .   .     .   .   .   .      ..    ..    ..       ..    ..
-
- -----------6-----------------6/10----------------11----------------|
- -------6-----6---6-------6-----------------11-------11----11-------|
- ---7-----------------7---------------12----------------12-------12-|
- -5---5---5-----5---5---5---5------10----10----10-------------10----|
- -------------------------------------------------------------------|
- -------------------------------------------------------------------|
PM .   .   .     .   .   .   .      ..    ..    ..       ..    ..


- ----------------|
- ----------13\---|
- ----12----------|
- ----------------|
- ----------------|
- -10----10-------|
PM ..    ..
-
- ----------11\---|
- ----11----------|
- ----------------|
- -10----10-------|
- ----------------|
- ----------------|
PM ..    ..

----------------------------------------------------------------------------

[Riff 7, Guitar 1 & 2] - [01:01] - [01:07]
- -----------------------------------------------------------------------|
- ---------------------------------------------------------10------------|
- ---------------------------------------------------7--------7----------|
- ---7---8---8p7-----7---8---8p7---4-----7---8p7-------7--------7---8~---|
- ---------------9---------------9-4-0-0---------9----------------9-5~---|
- -0---0---0-------0---0---0-------4-0-0---0-------0-----0----------5~---|
PM .   .   .       .   .   .         ...   .       .     .
-
- ---------------------------------------------------------10------------|
- ------------------------------------------------------------10---------|
- ---5---7---7p5-------------------------7---7p5-----7p5--------7--------|
- ---------------7---7---8---8p7---4-------------7----------------7-5~---|
- -------------------------------9-4-0-0----------------------------5~---|
- -0---0---0-------0---0---0-------4-0-0---0-------0-----0----------5~---|
PM .   .   .       .   .   .         ...   .       .     .

----------------------------------------------------------------------------

[Riff 8, Guitar 1] - [01:07] - [01:30]---------------------| 4x
- ---------------------------------------------------------|
- ---------------------------------------------8-10-11/16--|
- -----------8-8-7-7----------10-8-----------7-------------|
- -8-------8---------8-8----8------8-------8---------------|
- ---10-10---------------10----------10-10-----------------|
- ---------------------------------------------------------|

- ----------------------|
- ----------------------|
- -14----14-15-14-------|
- ----16----------16-13-|
- ----------------------|
- ----------------------|

[Riff 8, Guitar 2] - [01:07] - [01:30]--------------------------| 4x
- --------------------------------------------------------------|
- --------------------------------------------------------------|
- --------------------------------------------------------------|
- -5-5-5-5-5-5-5-5-----------1-1---1-1-1-1-1-1-0-0-0-0-0-0-0-0--|
- -5-5-5-5-5-5-5-5-10101010101-1---1-1-1-1-1-1-0-0-0-0-0-0-0-0--|
- -5-5-5-5-5-5-5-5-8-8-8-8-8-1-1---1-1-1-1-1-1-0-0-0-0-0-0-0-0--|

----------------------------------------------------------------------------

[Riff 9] - [01:30] - [01:42]-------------------------------------| 2x
- ---------------------------------------------------------------|
- ---------------------------------------------------------------|
- -7h8p7p0---------------7h8p7p0---8h11p8p0-8h11p8p0-11h14p11p0--|
- ---------------------------------------------------------------|
- ---------------------------------------------------------------|
- ---------0-000-000-000---------0-------------------------------|
PM         .............         .

- ----------------------------------14h15h18p15p14----|
- -------------------------------15----------------15-|
- ---------------14h19p14p0---14----------------------|
- ----------------------------------------------------|
- ----------------------------------------------------|
- -0-000-000-000------------0-------------------------|
PM .............            .

[Riff 10] - [01:42] - [01:53]
- --------------------------------------------------------------|
- --------------------------------------------------------------|
- -7h8p7p0---------------7h8p7p0---8h11p8p0-8h11p8p0-11h14p11p0-|
- --------------------------------------------------------------|
- --------------------------------------------------------------|
- ---------0---000---000---------0------------------------------|
PM         .............         .

- ----------------------------------14h15h18p15p14----|
- -------------------------------15----------------15-|
- ---------------14h19p14p0---14----------------------|
- ----------------------------------------------------|
- ----------------------------------------------------|
- -000-000---0--------------0-------------------------|
PM .............            .


- --------------------------------------------------------------|
- --------------------------------------------------------------|
- -7h8p7p0---------------7h8p7p0---8h11p8p0-8h11p8p0-11h14p11p0-|
- --------------------------------------------------------------|
- --------------------------------------------------------------|
- ---------0---000---000---------0------------------------------|
PM         .............         .

- ----------------------------------------------|
- ----------------------------------------------|
- -------------7hp8p7p0-5h7p5p0-3h5p3p0-2h3p2p0-|
- ----------------------------------------------|
- ----------------------------------------------|
- -000-000---0----------------------------------|
PM ...........

----------------------------------------------------------------------------

[Riff 11, Guitar 1 & 2] - [01:53] - [02:11]
- ------------------------------------------------------------------|
- ---8-----------------8-------------8-----------8p7----------------|
- -------7-------7---------7-------------7-----------8p7------------|
- -----------8-----------------8-------------8-----------8h10-7h8---|
- ----------------------------------------------------------------9-|
- -5---5---5---5---5-5---5---5---5-5---5---5---5--------------------|
PM .   .   .   .   ...   .   .   ...   .   .   .
-
- -----------------------------------------------6p5----------------|
- ---8-----------------8-------------8---------------8p7------------|
- -------7-------7---------7-------------7---------------7h8--5h7---|
- -----------8-----------------8-------------8--------------------7-|
- ------------------------------------------------------------------|
- -5---5---5---5---5-5---5---5---5-5---5---5---5--------------------|
PM .   .   .   .   ...   .   .   ...   .   .   .


- ---------------------------------------------------------------------|
- --------------------------------------------------8p7----------------|
- ------------------------------------------------------8p7------------|
- ------------------8---7----4h5----4---5---4---------------8h10-7h8---|
- ---10---9---5------------------6--------------5--------------------9-|
- -0----0---0---0-0---0----0----------0---0---0---0--------------------|
PM .    .   .   ...   .    .          .   .   .   .
-
- --------------------------------------------------6p5----------------|
- ------------------------------------------------------8p7------------|
- ------------------7-------------------8---7---------------7h8--5h7---|
- ---8----7-------------10---7h8----9-----------7--------------------7-|
- ------------9------------------10------------------------------------|
- -0----0---0---0-0---0----0----------0---0---0---0--------------------|
PM .    .   .   ...   .    .          .   .   .   .


- ------------------------------------------------------------------|
- ---8-----------------8-------------8-----------8p7----------------|
- -------7-------7---------7-------------7-----------8p7------------|
- -----------8-----------------8-------------8-----------8h10-7h8---|
- ----------------------------------------------------------------9-|
- -5---5---5---5---5-5---5---5---5-5---5---5---5--------------------|
PM .   .   .   .   ...   .   .   ...   .   .   .
-
- -----------------------------------------------6p5----------------|
- ---8-----------------8-------------8---------------8p7------------|
- -------7-------7---------7-------------7---------------7h8--5h7---|
- -----------8-----------------8-------------8--------------------7-|
- ------------------------------------------------------------------|
- -5---5---5---5---5-5---5---5---5-5---5---5---5--------------------|
PM .   .   .   .   ...   .   .   ...   .   .   .


- ---------------------------------------------------------------------|
- ---------------------------------------------------------------------|
- ---------------------------------------------------------------------|
- ------------------8---7----4h5----4---5p4---8p5--7p4---5p1p0---------|
- ---10---9---5------------------6----------5--------------------------|
- -0----0---0---0-0---0----0----------0----------------0-------0-------|
PM .    .   .   ...   .    .          .                .       .
-
- ---------------------------------------------------------------------|
- ---------------------------------------------------------------------|
- ------------------7--------------------------------------------------|
- ---8----7-------------10---7h8----9---8p7---12p8-10p7--8p5p0---------|
- ------------9------------------10---------9--------------------------|
- -0----0---0---0-0---0----0----------0----------------0-------0-------|
PM .    .   .   ...   .    .          .                .       .

----------------------------------------------------------------------------

[Riff 12] - [02:11] - [02:20]-----------------------| 3x
- --------------------------------------------------|
- --------------------------------------------------|
- --------------------------------------------------|
- --------------------------------------------------|
- -000-----000---0-----000---0000000---0000--000----|
- -000-----000---0-----000---0000000---0000--000----|
PM .............................................

----------------------------------------------------------------------------

[Riff 1] - [00:00] - [00:00] - [00:02-|
- ------------------------------------|
- ------------------------------------|
- ------------------------------------|
- -0~---------------------------------|
- -0~---------------------------------|
- -0~---------------------------------|

[Riff 2] - [00:02] - [00:14]-------------------------------------| 4x
- ---------------------------------------------------------------|
- ---------------------------------------------------------------|
- ---------------------------------------------------------------|
- -5h8p5p0-4h7p4p0---7h10p7p0---5h8p5p0-4h7p4p0-1h4p1p0-5h8p5p0--|
- ---------------------------------------------------------------|
- -----------------0----------0----------------------------------|
PM                 .          .

[Riff 3a] - [00:02] - [00:14]
- --------------------------------------------------------------------|
- --------------------------------------------------------------------|
- --------------------------------------------------------------------|
- ---------------------------------------------------------------[7~]-|
- -00-00------0---0-00000---00000---00-00-----0---0-000-0---000-------|
- -00-00------0---0-00000---00000---00-00-----0---0-000-0---000-------|
PM ............................................................

- ---------------------------------------------------------------|
- ---------------------------------------------------------------|
- ---------------------------------------------------------------|
- ----------------------------------5h8p5p0-4h7p4p0---7h10p7p0---|
- -00-00------0---0-00000---00000--------------------------------|
- -00-00------0---0-00000---00000-------------------0----------0-|
PM ..............................                   .          .

- ------------------------------|
- ------------------------------|
- ------------------------------|
- -5h8p5p0-4h7p4p0-1h4p1p0h1----|
- ---------------------------0--|
- ---------------------------0--|
PM                           .

[Riff 3b] - [00:14] - [00:25]
- --------------------------------------------------------------------|
- --------------------------------------------------------------------|
- --------------------------------------------------------------------|
- ---------------------------------------------------------------[7~]-|
- -00-00------0---0000-00---00000---00-00-----0---0000--0---000-------|
- -00-00------0---0000-00---00000---00-00-----0---0000--0---000-------|
PM ............................................................

- ---------------------------------------------------------------|
- ---------------------------------------------------------------|
- ---------------------------------------------------------------|
- ----------------------------------5h8p5p0-4h7p4p0---7h10p7p0---|
- -00-00------0---0000-00---00000--------------------------------|
- -00-00------0---0000-00---00000-------------------0----------0-|
PM ..............................                   .          .

- -----------------------------------|
- -----------------------------------|
- -----------------------------------|
- -5h8p5p0-4h7p4p0-1h4p1p0h1-4h7p4p0-|
- -----------------------------------|
- -----------------------------------|

----------------------------------------------------------------------------

[Riff 4, Guitar 1 & 2] - [00:25] - [00:43]
- ------------------------------------------------------------------|
- ---8-----------------8-------------8-----------8p7----------------|
- -------7-------7---------7-------------7-----------8p7------------|
- -----------8-----------------8-------------8-----------8h10-7h8---|
- ----------------------------------------------------------------9-|
- -5---5---5---5---5-5---5---5---5-5---5---5---5--------------------|
PM .   .   .   .   ...   .   .   ...   .   .   .
-
- -----------------------------------------------6p5----------------|
- ---8-----------------8-------------8---------------8p7------------|
- -------7-------7---------7-------------7---------------7h8--5h7---|
- -----------8-----------------8-------------8--------------------7-|
- ------------------------------------------------------------------|
- -5---5---5---5---5-5---5---5---5-5---5---5---5--------------------|
PM .   .   .   .   ...   .   .   ...   .   .   .


- ---------------------------------------------------------------------|
- --------------------------------------------------8p7----------------|
- ------------------------------------------------------8p7------------|
- ------------------8---7----4h5----4---5---4---------------8h10-7h8---|
- ---10---9---5------------------6--------------5--------------------9-|
- -0----0---0---0-0---0----0----------0---0---0---0--------------------|
PM .    .   .   ...   .    .          .   .   .   .
-
- --------------------------------------------------6p5----------------|
- ------------------------------------------------------8p7------------|
- ------------------7-------------------8---7---------------7h8--5h7---|
- ---8----7-------------10---7h8----9-----------7--------------------7-|
- ------------9------------------10------------------------------------|
- -0----0---0---0-0---0----0----------0---0---0---0--------------------|
PM .    .   .   ...   .    .          .   .   .   .


- ------------------------------------------------------------------|
- ---8-----------------8-------------8-----------8p7----------------|
- -------7-------7---------7-------------7-----------8p7------------|
- -----------8-----------------8-------------8-----------8h10-7h8---|
- ----------------------------------------------------------------9-|
- -5---5---5---5---5-5---5---5---5-5---5---5---5--------------------|
PM .   .   .   .   ...   .   .   ...   .   .   .
-
- -----------------------------------------------6p5----------------|
- ---8-----------------8-------------8---------------8p7------------|
- -------7-------7---------7-------------7---------------7h8--5h7---|
- -----------8-----------------8-------------8--------------------7-|
- ------------------------------------------------------------------|
- -5---5---5---5---5-5---5---5---5-5---5---5---5--------------------|
PM .   .   .   .   ...   .   .   ...   .   .   .


- ----------------------------------------------------------------------|
- ----------------------------------------------------------------------|
- ----------------------------------------------------------------------|
- ------------------8---7----4h5----4---5---4---------8---7-------------|
- ---10---9---5------------------6--------------5--------------9--------|
- -0----0---0---0-0---0----0----------0---0---0---0-0---0----0----------|
PM .    .   .   ...   .    .          .   .   .   ...   .    .
-
- ----------------------------------------------------------------------|
- ----------------------------------------------------------------------|
- ------------------7-------------------8---7---------7-----------------|
- ---8----7-------------10---7h8----9-----------7---------10---7--------|
- ------------9------------------10-------------------------------------|
- -0----0---0---0-0---0----0----------0---0---0---0-0---0----0----------|
PM .    .   .   ...   .    .          .   .   .   ...   .    .

----------------------------------------------------------------------------

[Riff 5] - [00:43] - [00:52]-------------------------------------------| 2x
- ---------------------------------------------------------------------|
- -----------8------------------8/11----------------13-----------------|
- -------7-----7---7--------7-----------------12-------12----12--------|
- ---8-----------8------8---------------13----------------13-------13--|
- ---------------------------------------------------------------------|
- -5---5---5----------5---5---5------10----10----10-------------10-----|
PM .   .   .     .    .   .   .      ..    ..    ..       ..      ..

- ----------------|
- ----------13\---|
- ----12----------|
- ----------------|
- ----------------|
- -10----10-------|
PM ..    ..

[Riff 6, Guitar 1 & 2] - [00:52] - [01:01]----------------------------| 2x
- --------------------------------------------------------------------|
- -----------8-----------------8/11----------------13-----------------|
- -------7-----7---7-------7-----------------12-------12----12--------|
- ---8-----------8-----8---------------13----------------13-------13--|
- --------------------------------------------------------------------|
- -5---5---5---------5---5---5------10----10----10-------------10-----|
PM .   .   .     .   .   .   .      ..    ..    ..       ..    ..
-
- -----------6-----------------6/10----------------11----------------|
- -------6-----6---6-------6-----------------11-------11----11-------|
- ---7-----------------7---------------12----------------12-------12-|
- -5---5---5-----5---5---5---5------10----10----10-------------10----|
- -------------------------------------------------------------------|
- -------------------------------------------------------------------|
PM .   .   .     .   .   .   .      ..    ..    ..       ..    ..


- ----------------|
- ----------13\---|
- ----12----------|
- ----------------|
- ----------------|
- -10----10-------|
PM ..    ..
-
- ----------11\---|
- ----11----------|
- ----------------|
- -10----10-------|
- ----------------|
- ----------------|
PM ..    ..

----------------------------------------------------------------------------

[Riff 7, Guitar 1 & 2] - [01:01] - [01:07]
- -----------------------------------------------------------------------|
- ---------------------------------------------------------10------------|
- ---------------------------------------------------7--------7----------|
- ---7---8---8p7-----7---8---8p7---4-----7---8p7-------7--------7---8~---|
- ---------------9---------------9-4-0-0---------9----------------9-5~---|
- -0---0---0-------0---0---0-------4-0-0---0-------0-----0----------5~---|
PM .   .   .       .   .   .         ...   .       .     .
-
- ---------------------------------------------------------10------------|
- ------------------------------------------------------------10---------|
- ---5---7---7p5-------------------------7---7p5-----7p5--------7--------|
- ---------------7---7---8---8p7---4-------------7----------------7-5~---|
- -------------------------------9-4-0-0----------------------------5~---|
- -0---0---0-------0---0---0-------4-0-0---0-------0-----0----------5~---|
PM .   .   .       .   .   .         ...   .       .     .

----------------------------------------------------------------------------

[Riff 8, Guitar 1] - [01:07] - [01:30]---------------------| 4x
- ---------------------------------------------------------|
- ---------------------------------------------8-10-11/16--|
- -----------8-8-7-7----------10-8-----------7-------------|
- -8-------8---------8-8----8------8-------8---------------|
- ---10-10---------------10----------10-10-----------------|
- ---------------------------------------------------------|

- ----------------------|
- ----------------------|
- -14----14-15-14-------|
- ----16----------16-13-|
- ----------------------|
- ----------------------|

[Riff 8, Guitar 2] - [01:07] - [01:30]--------------------------| 4x
- --------------------------------------------------------------|
- --------------------------------------------------------------|
- --------------------------------------------------------------|
- -5-5-5-5-5-5-5-5-----------1-1---1-1-1-1-1-1-0-0-0-0-0-0-0-0--|
- -5-5-5-5-5-5-5-5-10101010101-1---1-1-1-1-1-1-0-0-0-0-0-0-0-0--|
- -5-5-5-5-5-5-5-5-8-8-8-8-8-1-1---1-1-1-1-1-1-0-0-0-0-0-0-0-0--|

----------------------------------------------------------------------------

[Riff 9] - [01:30] - [01:42]-------------------------------------| 2x
- ---------------------------------------------------------------|
- ---------------------------------------------------------------|
- -7h8p7p0---------------7h8p7p0---8h11p8p0-8h11p8p0-11h14p11p0--|
- ---------------------------------------------------------------|
- ---------------------------------------------------------------|
- ---------0-000-000-000---------0-------------------------------|
PM         .............         .

- ----------------------------------14h15h18p15p14----|
- -------------------------------15----------------15-|
- ---------------14h19p14p0---14----------------------|
- ----------------------------------------------------|
- ----------------------------------------------------|
- -0-000-000-000------------0-------------------------|
PM .............            .

[Riff 10] - [01:42] - [01:53]
- --------------------------------------------------------------|
- --------------------------------------------------------------|
- -7h8p7p0---------------7h8p7p0---8h11p8p0-8h11p8p0-11h14p11p0-|
- --------------------------------------------------------------|
- --------------------------------------------------------------|
- ---------0---000---000---------0------------------------------|
PM         .............         .

- ----------------------------------14h15h18p15p14----|
- -------------------------------15----------------15-|
- ---------------14h19p14p0---14----------------------|
- ----------------------------------------------------|
- ----------------------------------------------------|
- -000-000---0--------------0-------------------------|
PM .............            .


- --------------------------------------------------------------|
- --------------------------------------------------------------|
- -7h8p7p0---------------7h8p7p0---8h11p8p0-8h11p8p0-11h14p11p0-|
- --------------------------------------------------------------|
- --------------------------------------------------------------|
- ---------0---000---000---------0------------------------------|
PM         .............         .

- ----------------------------------------------|
- ----------------------------------------------|
- -------------7hp8p7p0-5h7p5p0-3h5p3p0-2h3p2p0-|
- ----------------------------------------------|
- ----------------------------------------------|
- -000-000---0----------------------------------|
PM ...........

----------------------------------------------------------------------------

[Riff 11, Guitar 1 & 2] - [01:53] - [02:11]
- ------------------------------------------------------------------|
- ---8-----------------8-------------8-----------8p7----------------|
- -------7-------7---------7-------------7-----------8p7------------|
- -----------8-----------------8-------------8-----------8h10-7h8---|
- ----------------------------------------------------------------9-|
- -5---5---5---5---5-5---5---5---5-5---5---5---5--------------------|
PM .   .   .   .   ...   .   .   ...   .   .   .
-
- -----------------------------------------------6p5----------------|
- ---8-----------------8-------------8---------------8p7------------|
- -------7-------7---------7-------------7---------------7h8--5h7---|
- -----------8-----------------8-------------8--------------------7-|
- ------------------------------------------------------------------|
- -5---5---5---5---5-5---5---5---5-5---5---5---5--------------------|
PM .   .   .   .   ...   .   .   ...   .   .   .


- ---------------------------------------------------------------------|
- --------------------------------------------------8p7----------------|
- ------------------------------------------------------8p7------------|
- ------------------8---7----4h5----4---5---4---------------8h10-7h8---|
- ---10---9---5------------------6--------------5--------------------9-|
- -0----0---0---0-0---0----0----------0---0---0---0--------------------|
PM .    .   .   ...   .    .          .   .   .   .
-
- --------------------------------------------------6p5----------------|
- ------------------------------------------------------8p7------------|
- ------------------7-------------------8---7---------------7h8--5h7---|
- ---8----7-------------10---7h8----9-----------7--------------------7-|
- ------------9------------------10------------------------------------|
- -0----0---0---0-0---0----0----------0---0---0---0--------------------|
PM .    .   .   ...   .    .          .   .   .   .


- ------------------------------------------------------------------|
- ---8-----------------8-------------8-----------8p7----------------|
- -------7-------7---------7-------------7-----------8p7------------|
- -----------8-----------------8-------------8-----------8h10-7h8---|
- ----------------------------------------------------------------9-|
- -5---5---5---5---5-5---5---5---5-5---5---5---5--------------------|
PM .   .   .   .   ...   .   .   ...   .   .   .
-
- -----------------------------------------------6p5----------------|
- ---8-----------------8-------------8---------------8p7------------|
- -------7-------7---------7-------------7---------------7h8--5h7---|
- -----------8-----------------8-------------8--------------------7-|
- ------------------------------------------------------------------|
- -5---5---5---5---5-5---5---5---5-5---5---5---5--------------------|
PM .   .   .   .   ...   .   .   ...   .   .   .


- ---------------------------------------------------------------------|
- ---------------------------------------------------------------------|
- ---------------------------------------------------------------------|
- ------------------8---7----4h5----4---5p4---8p5--7p4---5p1p0---------|
- ---10---9---5------------------6----------5--------------------------|
- -0----0---0---0-0---0----0----------0----------------0-------0-------|
PM .    .   .   ...   .    .          .                .       .
-
- ---------------------------------------------------------------------|
- ---------------------------------------------------------------------|
- ------------------7--------------------------------------------------|
- ---8----7-------------10---7h8----9---8p7---12p8-10p7--8p5p0---------|
- ------------9------------------10---------9--------------------------|
- -0----0---0---0-0---0----0----------0----------------0-------0-------|
PM .    .   .   ...   .    .          .                .       .

----------------------------------------------------------------------------

[Riff 12] - [02:11] - [02:20]-----------------------| 2x
- --------------------------------------------------|
- --------------------------------------------------|
- --------------------------------------------------|
- --------------------------------------------------|
- -000-----000---0-----000---0000000---0000--000----|
- -000-----000---0-----000---0000000---0000--000----|
PM .............................................

----------------------------------------------------------------------------

Play Riff 3 from [02:20] - [02:45] but do not let notes ring.
then play:

[Riff 13] - [02:45] - [02:38]
- -----------------------------------------------------------------|
- -----------------------------------------------------------------|
- -----------------------------------------------------------------|
- -------------------------------------------------5~--------------|
- -000-----000---0-----000---0000000---0000--000-0-5~--------------|
- -000-----000---0-----000---0000000---0000--000-0-5~--------------|
PM .............................................


----------------------------------------------------------------------------

----------------------------------------------------------------------------

------------------------- [11. Meddler] - [03:54] --------------------------

----------------------------------------------------------------------------

----------------------------------------------------------------------------


[Riff 1] - [00:00] - [00:21]-------------------------------------| 4x
- ---------------------------------------------------------------|
- ---------------------------------------------------------------|
- -----------7-------------------9-------------------12----------|
- -7-00-7-00---00-7-00-7-00-7-00---00-7-00-7-00-7-00----00-7-00--|
- ---------------------------------------------------------------|
- ---------------------------------------------------------------|
PM   ..   ..   ..   ..   ..   ..   ..   ..   ..   ..    ..   ..

- ----------------------------|----------------------------------|
- ----------------------------|----------(End With)--------------|
- ----------------------------|----------------------------------|
- -5h7p5p0-7-00-8-00-8h10p8p0-|-5h7p5p0-5h7p5p0-7h8p7p0-8h10p8p0-|
- ----------------------------|----------------------------------|
- ----------------------------|----------------------------------|
PM           ..   ..

[Riff 2] - [00:00] - [00:21]
- -----------------------------------------------------------------|
- -----------------------------------------------------------------|
- -----------------------------------------------------------------|
- -0---------------3--------------/8---------------5---------------|
- -0---------------3--------------/8---------------5---------------|
- -0---------------3--------------/8---------------5---------------|

- -----------------------------------------------------------------|
- -----------------------------------------------------------------|
- -----------------------------------------------------------------|
- -----------------------------------------------------------------|
- -0-0-0-0-0-0-0-0-3-3-3-3-3-3-3-3-8-8-8-8-8-8-8-8-5-5-5-5-///-----|
- -0-0-0-0-0-0-0-0-3-3-3-3-3-3-3-3-8-8-8-8-8-8-8-8-5-5-5-5-///-----|
PM .......................................................

- -----------------------------------------------------------------|
- -6-6-6-6-6-6-6-6-------------------------------------------------|
- -7-7-7-7-7-7-7-7-------------------------------------------------|
- -7-7-7-7-7-7-7-7-7-7-7-7-7-7-7-7-12121212121212128-8-8-8-8-8-8-8-|
- -5-5-5-5-5-5-5-5-3-3-3-3-3-3-3-3-8-8-8-8-8-8-8-8-5-5-5-5-5-5-5-5-|
- -----------------3-3-3-3-3-3-3-3-8-8-8-8-8-8-8-8-5-5-5-5-5-5-5-5-|

- -----------------------------------------------------------------|
- -6-6-6-6-6-6-6-6-------------------------------------------------|
- -7-7-7-7-7-7-7-7-------------------------------------------------|
- -7-7-7-7-7-7-7-7-7-7-7-7-7-7-7-7-12121212121212128-8-8-8-8-8-8-8-|
- -5-5-5-5-5-5-5-5-3-3-3-3-3-3-3-3-8-8-8-8-8-8-8-8-5-5-5-5-5-5-5-5-|
- -----------------3-3-3-3-3-3-3-3-8-8-8-8-8-8-8-8-5-5-5-5-5-5-5-5-|

----------------------------------------------------------------------------

[Riff 3] - [00:21] - [00:32]-------------------| 2x
- ------------8--------------------12----------|
- ------10-------------------10----------------|
- -9-10----10---10-9-10-9-10----10----10-9-10--|
- ---------------------------------------------|
- ---------------------------------------------|
- ---------------------------------------------|

- ------------8-------------------12-8-----|
- ------10----------------10-------------8-|
- -9-10----10---10-9-10-7----10-9------9---|
- -----------------------------------------|
- -----------------------------------------|
- -----------------------------------------|

[Riff 4] - [00:21] - [00:32]----------------------------------------| 2x
- ------------------------------------------------------------------|
- ------------------------------------------------------------------|
- ------------------------------------------------------------------|
- ------------------------------------------------------------------|
- ------------------------------------------------------------------|
- -0---------------3---------------8---------------5----------------|
PM ...............................................................
AP ...............................................................

----------------------------------------------------------------------------

[Riff 5] - [00:32] - [00:42]
- ------------------------------------------------------------------------|
- ------------------------------------------------------------------------|
- ---------------------------10---9-----------------------------10---[9~]-|
- ---------10-----12--------------------------10-----12-------------------|
- ------------------------------------------------------------------------|
- -000-0-0----0-0----0-0-000----0---0-000-0-0----0-0----0-0-000----0------|
PM .......    ...    .......    .   .........    ...    .......    .

- -------------------------------------------------------------------------|
- -------------------------------------------------------------------------|
- ---------------------------10---9----------------9-------12--------------|
- ---------10-----12-------------------------------------------------------|
- -------------------------------------------------------------------------|
- -888-8-8----8-8----8-8-888----8---8-101010-10-10---10-10----10-10-101010-|
PM .......    ...    .......    .   ..............   .....    ............

- -------------|
- -------10----|
- -12----------|
- -------------|
- -------------|
- ----10----10-|
PM    ..    ..

----------------------------------------------------------------------------

[Riff 6, Guitar 1 & 2] - [00:42] - [00:53]
- -----------------------------------------------------------------------|
- -----------------------------------------------------------------------|
- ---------------------------10---9-----------------------------10---9---|
- ---------10-----12--------------------------10-----12------------------|
- -----------------------------------------------------------------------|
- -000-0-0----0-0----0-0-000----0---0-000-0-0----0-0----0-0-000----0---0-|
PM .......    ...    .......    .   .........    ...    .......    .   .
-
- -----------------------------------------------------------------------|
- ---------------------------10---8-----------------------------10---8---|
- ---------9------10--------------------------9------10------------------|
- -----------------------------------------------------------------------|
- -----------------------------------------------------------------------|
- -000-0-0----0-0----0-0-000----0---0-000-0-0----0-0----0-0-000----0---0-|
PM .......    ...    .......    .   .........    ...    .......    .   .


- --------------------------------------------------------------------|
- --------------------------------------------------------------------|
- ---------------------------10---9-----------------------------------|
- ---------10-----12--------------------------8-8-8-8-8-7-7-7-7-7-7-7-|
- ------------------------------------555-5-5-5-5-5-5-5-5-5-5-5-5-5-5-|
- -888-8-8----8-8----8-8-888----8---8-555-5-5-5-5-5-5-5-5-5-5-5-5-5-5-|
PM .......    ...    .......    .   .........
-
- --------------------------------------------------------------------|
- ---------------------------10---8-----------------------------------|
- ---------9------10--------------------------------------------------|
- --------------------------------------------8-8-8-8-8-7-7-7-7-7-7-7-|
- ------------------------------------555-5-5-5-5-5-5-5-5-5-5-5-5-5-5-|
- -888-8-8----8-8----8-8-888----8---8-555-5-5-5-5-5-5-5-5-5-5-5-5-5-5-|
PM .......    ...    .......    .   .........

----------------------------------------------------------------------------

[Riff 7] - [00:53] - [01:04]
- ---------------------------------------------|
- ---------------------------------------------|
- ---------------------------------------------|
- -----10-10-12-12-----10-10-12-12/15-15-14-14-|
- ---------------------------------------------|
- -000-------------000-------------------------|
PM ...             ...

- ---------------------------------------------|
- ---------------------------------------------|
- ---------------------------------------------|
- -----10-10-12-12-----10-10-12-12/15-15-14-14-|
- ---------------------------------------------|
- -000-------------000-------------------------|
PM ...             ...

- ---------------------------------------------|
- ---------------------------------------------|
- ---------------------------------------------|
- -----10-10-12-12-----10-10-12-12/15-15-14-14-|
- ---------------------------------------------|
- -888-------------888-------------------------|
PM ...             ...

- -----------------------------------------------|
- -----------------------------------13-13-13-13-|
- --------9-9-12-12--------9-9-12-12-------------|
- -----------------------------------------------|
- -----------------------------------------------|
- -101010-----------101010-----------------------|
PM ......           ......

[Riff 8] - [01:04] - [01:14]
- ------------------------------------------|
- ------------------------------------------|
- ------------------------------------------|
- -----10-10-12-12-----10-10-12-12----------|
- ------------------------------------------|
- -000-------------000-------------00000000-|
PM ...             ...             ........

- ------------------------------------------|
- ------------------------------------------|
- ------------------------------------------|
- -----10-10-12-12-----10-10-12-12----------|
- ------------------------------------------|
- -000-------------000-------------00000000-|
PM ...             ...             ........

- ------------------------------------------|
- ------------------------------------------|
- ------------------------------------------|
- -----10-10-12-12-----10-10-12-12----------|
- ------------------------------------------|
- -888-------------888-------------88888888-|
PM ...             ...             ........

- ----------------------------------------------------|
- ----------------------------------------------------|
- --------9-9-12-12--------9-9-12-12------------------|
- ----------------------------------------------------|
- ----------------------------------------------------|
- -101010-----------101010-----------1010101010101010-|
PM ......           ......           ................

[Riff 8] - [00:53] - [01:14]
- --------------------------------------------------|
- -15\13--18--17br-------15\--13\--10\--6\--5--5br--|
- --------------------------------------------------|
- --------------------------------------------------|
- --------------------------------------------------|
- --------------------------------------------------|

- --------------------------17/----20--20br---------|
- -3/--6/-----10/-15----18--------------------------|
- --------------------------------------------------|
- --------------------------------------------------|
- --------------------------------------------------|
- --------------------------------------------------|

----------------------------------------------------------------------------

[Riff 9, Guitar 1 & 2] - [01:14] - [01:21]
- ------------------------------------------------------------------------|
- ------------------------------------------------------------------------|
- ------------------------------------------------------------------------|
- -0~---------------------------------------------------------------------|
- -0~---------------------------------------------------------------------|
- -0~---------------------------------------------------------------------|
-
- ------------------------------------------------------------------------|
- -------------------------------------------------------------------15\--|
- -------------------------------------------------------------12h14------|
- ---------------------------5h7p0-7h8p7p0-10p0-10p0-14p0-14p0------------|
- -5h7p7p0-5h7p0-8p0-8p0-7h8----------------------------------------------|
- ------------------------------------------------------------------------|


- -----------------------------------------------------8-8----------------|
- ---------------------------------------------------------8-8------------|
- -------------------------------------10-10-7-7---------------------9-9--|
- ---------------------------------8-8-----------10-10---------10-10------|
- -0----------------------------------------------------------------------|
- -0----------------------------------------------------------------------|
PM ......................................................................
-
- -----------------------------------------------------12-12-8-8----------|
- -------------------------------------10-10-------------------------8-8--|
- ---------------------------------7-7-------10-10-9-9-----------9-9------|
- ---------------------------5h7p0----------------------------------------|
- -5h7p7p0-5h7p0-8p0-8p0-7h8----------------------------------------------|
- ------------------------------------------------------------------------|
PM                                 .....................................

----------------------------------------------------------------------------

[Riff 10, Guitar 1] - [01:21] - [01:27]
- ------------------------------------------------------------------------|
- -------------------------------------------------------------------15\--|
- -------------------------------------------------------------12h14------|
- ---------------------------5h7p0-7h8p7p0-10p0-10p0-14p0-14p0------------|
- -5h7p7p0-5h7p0-8p0-8p0-7h8----------------------------------------------|
- ------------------------------------------------------------------------|

- -------------------------------------------------1212-88--------|
- ------------------------------------1010--------------------88--|
- ---------------------------------77------1010-99---------99-----|
- ---------------------------5h7p0--------------------------------|
- -5h7p7p0-5h7p0-8p0-8p0-7h8--------------------------------------|
- ----------------------------------------------------------------|
PM                                 .............................

[Riff 10, Guitar 2] - [01:21] - [01:27]
- ------------------------------------------------------------------------|
- ------------------------------------------------------------------------|
- ------------------------------------------------------------------------|
- ----------------------------------------------------------------8h10p12-|
- -00000-----0000000000---00000---8h10p8p0-8/10p0-12p0-12p0-10h12---------|
- -00000-----0000000000---00000-------------------------------------------|
PM ............................

- -----------------88------------|
- --------------------88---------|
- ----1010-77-----------------99-|
- -88---------1010-------1010----|
- -------------------------------|
- -------------------------------|
PM .............................

----------------------------------------------------------------------------

[Riff 11, Guitar 1] - [01:27] - [01:41]------------------------------------| 2x
- -------------------------------------------------------------------------|
- -------------------------------------------------------------------15\---|
- -------------------------------------------------------------12h14-------|
- ---------------------------5h7p0-7h8p7p0-10p0-10p0-14p0-14p0-------------|
- -5h7p7p0-5h7p0-8p0-8p0-7h8-----------------------------------------------|
- -------------------------------------------------------------------------|

- -------------------------------------------------1212-88--------|
- ------------------------------------1010--------------------88--|
- ---------------------------------77------1010-99---------99-----|
- ---------------------------5h7p0--------------------------------|
- -5h7p7p0-5h7p0-8p0-8p0-7h8--------------------------------------|
- ----------------------------------------------------------------|
PM                                 .............................

[Riff 11, Guitar 2] - [01:27] - [01:41]-----------------------------------| 2x
- ----------------------------------------------------------------88------|
- -------------------------------------------------------------------88---|
- ---------------------------------------------------1010-77--------------|
- ------------------------------------------------88---------1010---------|
- -00000-----0000000000---00000---00000-----0-000-------------------------|
- -00000-----0000000000---00000---00000-----0-000-------------------------|
PM .....................................................................

- ---------|
- ---------|
- ------99-|
- -1010----|
- ---------|
- ---------|
PM .......

----------------------------------------------------------------------------

[Riff 12] - [01:41] - [01:42]
- -------------------1212-8-8-----|
- -----1010-----------------------|
- -7-7------1010-9-9----------9---|
- --------------------------------|
- --------------------------------|
- --------------------------------|
PM ..........................

----------------------------------------------------------------------------

[Riff 13] - [01:42] - [01:54]
- ----------------------------------------------------------|
- ----------------------------------------------------------|
- ----------------------------------------------------------|
- ----------------------------------------------------------|
- -0-00-00-00000---0-----000000000-00--00-0000-000---000000-|
- -0-00-00-00000---0-----000000000-00--00-0000-000---000000-|
PM ........................................................

- ----------------------------------------------------------|
- ----------------------------------------------------------|
- ----------------------------------------------------------|
- ----------------------------------------------------------|
- -0-00-00-00000-----0000----00-00-00000-----00000---00-00--|
- -0-00-00-00000-----0000----00-00-00000-----00000---00-00--|
PM .......................................................

Each - is a 16th note. note including first and last.

----------------------------------------------------------------------------

[Riff 13] - [01:54] - [02:05]

[Riff 14, Guitar 1 & 2] - [01:54] - [02:05]---------| 2x
- --------------------------------------------------|
- -------------10----------------------13-----------|
- -------10----------------------10-----------------|
- -10-12----12----12-10-12-10-12----12----12-10-12--|
- --------------------------------------------------|
- --------------------------------------------------|
-
- -------------------------------------------------|
- -------------------------------------10----------|
- -------7-----10----------------7-----------------|
- -7--8-----8-----8--7--8--7--8-----8-----8--7--8--|
- -------------------------------------------------|
- -------------------------------------------------|


- -------------------------------------|
- -------------10----------------------|
- -------10-------------------10-10-9--|
- -10-12----12----12-10-12-8-----------|
- -------------------------------------|
- -------------------------------------|
-
- -------------------------------------|
- -------------------------------------|
- -------7-----10-------------7--7--5--|
- -7--8-----8-----8--7--8--5-----------|
- -------------------------------------|
- -------------------------------------|

[Riff 15, Guitar 1, 2 & 3] - [02:05] - [02:06]
- -----------|
- -----------|
- -----------|
- -----------|
- -0---0---0-|
- -0---0---0-|
PM .........
-
- -----------|
- -10-8------|
- ------9----|
- --------10-|
- -----------|
- -----------|
-
- -----------|
- -6--5------|
- ------5----|
- --------7--|
- -----------|
- -----------|

----------------------------------------------------------------------------

[Riff 16] - [02:06] - [02:29]----------| 4x
- -------------------------------------|
- --------------------------10---------|
- -----7---10-----------7------7-9-----|
- -7-8---8----8-7-8-7-8---8--------10--|
- -------------------------------------|
- -------------------------------------|

- -------------13------------------8-10-8------|
- -------10-------13-11---------10--------10-8-|
- -10-12----10----------11-9-12----------------|
- ---------------------------------------------|
- ---------------------------------------------|
- ---------------------------------------------|

[Riff 17] - [02:06] - [02:29]
- ---------------------------------|
- ---3-6-5-----------3-6-5---3-6-5-|
- ---3-7-5-----------3-7-5---3-7-5-|
- -7-3-7-5---3-7-5-7-3-7-5-7-3-7-5-|
- -3-1-5-3-3-1-5-3-3-1-5-3-3-1-5-3-|
- -3-------3-------3-------3-------|
PM         .......

Play each chord for one bar behind solo. listen for strumming.

----------------------------------------------------------------------------

[Riff 18] - [02:29] - [02:53]
- -5h8p5---------------------------------------8/13-------------------|
- -------6--------------------------------8-10------------10h11p10----|
- ---------5-7/10-10--9h10p9h10p9h10p9h10--------------10----------10-|
- --------------------------------------------------12----------------|
- --------------------------------------------------------------------|
- --------------------------------------------------------------------|

- -------------15--------13-15-17-13-15-17-13-17/22----20\------------|
- -15-13--------------------------------------------------------------|
- --------------------------------------------------------------------|
- --------------------------------------------------------------------|
- --------------------------------------------------------------------|
- --------------------------------------------------------------------|

- -13h15p13-------------------12h13p12-------------------|
- ----------15-------------13----------13----------------|
- -------------14----12-14----------------12-------------|
- ----------------15-------------------------14----------|
- ----------------------------------------------15-10/12-|
- -------------------------------------------------------|

- ----------------------------------------------------------------13p12-|
- ----------------------------------------------------13----13----------|
- ----------------------------------------10/14----14----14----14-------|
- -0-3-5/7-5-7-5-7/10-7-10-10/15-12-15-12-------15----------------------|
- ----------------------------------------------------------------------|
- ----------------------------------------------------------------------|

- ------15p12------------------------------------------------------------|
- ---13-------13---------------------------------------------------------|
- ---------------12----------------------------------12-14----12-14---12-|
- ------------------14----12-14-15-12-14-15-12-14-15-------15-------15---|
- ---------------------15------------------------------------------------|
- -----------------------------------------------------------------------|
AP                        ..............................................

- -------------------13-12------------------------|
- -------13-------13----------13------------------|
- -14-15----14-15----------------12---------------|
- ----------------------------------14------------|
- ------------------------------------15p10-------|
- ------------------------------------------14p10-|
AP .................

[Riff 19] - [02:29] - [02:53]
- ---------------------------------|
- -6---3-5-6---3-5-6---3-5---------|
- -7---3-5-7---3-5-7---3-5---------|
- -7-7-3-5-7-7-3-5-7-7-3-5---------|
- -5-3-1-3-5-3-1-3-5-3-1-3-0-3-8-5-|
- ---3-------3-------3-----0-3-8-5-|
PM                         .......

Play each chord for one bar behind solo. listen for strumming.

----------------------------------------------------------------------------

[Riff 9, Guitar 1 & 2] - [02:53] - [02:59]
[Riff 11, Guitar 1] & [Riff 11, Guitar 2] - [02:59] - [03:13]

----------------------------------------------------------------------------

[Riff 20] - [03:13] - [03:23]----| 4x
- -------------------------------|
- -------------------------------|
- -------------------------------|
- -------------------------------|
- -0000--0--0--00-0--0--0--------|
- -0000--0--0--00-0--0--0--------|

Each - is a 16th note. note including first and last.

----------------------------------------------------------------------------

[Riff 21] - [03:23] - [03:49]-----------------------------| 4x
- --------------------------------------------------------|
- -------------------------------------10-----------------|
- --------------------------------9h10----9-10h12---------|
- -12-00-12-00-10h12p10h12-000-12-----------------0-12\8--|
- --------------------------------------------------------|
- --------------------------------------------------------|
PM    ..    ..             ...

- -----------------------------------------------------|
- -----------------------------------------------------|
- -----------------------------------------------------|
- -12-00-12-00-10h12p10h12-000-7-00-7-00-8-00-8h10p8p0-|
- -----------------------------------------------------|
- -----------------------------------------------------|
PM    ..    ..             ...   ..   ..   ..

[Riff 22] - [03:23] - [03:54]
- ------------------------------------------------------------------|
- ------------------------------------------------------------------|
- ------------------------------------------------------------------|
- ------------------------------------------------------------------|
- -0000--0--0--00-0--0--0--0000--0--8--88-8--8--8--5555--5--5--55-5-|
- -0000--0--0--00-0--0--0--0000--0--8--88-8--8--8--5555--5--5--55-5-|
PM ................................................................

- ------------------------------------------------------------------|
- ------------------------------------------------------------------|
- ------------------------------------------------------------------|
- ------------------------------------------------------------------|
- ---0--0--0000--0--0--00-0--0--0--8888--8--8--88-8--5--5--5555--5--|
- ---0--0--0000--0--0--00-0--0--0--8888--8--8--88-8--5--5--5555--5--|
PM ................................................................

- ------------------------------------------------------------------|
- ------------------------------------------------------------------|
- ------------------------------------------------------------------|
- ------------------------------------------------------------------|
- --0--00-0--0--0--0000--0--0--00-0--8--8--8888--8--5--55-5--5--5---|
- --0--00-0--0--0--0000--0--0--00-0--8--8--8888--8--5--55-5--5--5---|
PM ................................................................

- ------------------------------------------------------------------|
- ------------------------------------------------------------------|
- ------------------------------------------------------------------|
- ------------------------------------------------------------------|
- -0000--0--0--00-0--0--0--0000--0--8--88-8--8--8--5555--5--5--55-5-|
- -0000--0--0--00-0--0--0--0000--0--8--88-8--8--8--5555--5--5--55-5-|
PM ................................................................

- -----------------|
- -----------------|
- -----------------|
- -----------------|
- -0---------------|
- -0---------------|
PM .

each - is a 16th note. not including the first and last.

----------------------------------------------------------------------------

Playing Riff 23:

yesss there is a pattern here ahaha its not all just random. you needa be
a genious to play this tho.. the initial riff without any notes is this:

- -------------------------|
- -------------------------|
- -------------------------|
- -------------------------|
- -xxxx--x--x--xx-x--x--x--|
- -xxxx--x--x--xx-x--x--x--|

which is 1.5 bars long (6 beats). which is tricky because the lead riff
is 4 bars long (16 beats) and 6 beats does not divide evenly into 16 :P

the trick is to play the above riff until the end, but you switch notes
every 4 beats, making it fucking rediculous to play :P

this is what it looks like if its broken up to show the riff.
look at where the riffs start and where the notes change. quite tricky lol

[Riff 23] - [03:23] - [03:54]
- ------------------------------------------------------------------|
- -----------1-----------------------2----------------------3-------|
- --____________________    ____________________    ________________
- -/                    \  /                    \  /
- -0000--0--0--00-0--0--0--0000--0--8--88-8--8--8--5555--5--5--55-5-|
- -0000--0--0--00-0--0--0--0000--0--8--88-8--8--8--5555--5--5--55-5-|
PM ................................................................

- ------------------------------------------------------------------|
- -------------------4------------------------5-------------------6-|
- ______    ____________________    ____________________    ________
-       \  /                    \  /                    \  /
- ---0--0--0000--0--0--00-0--0--0--8888--8--8--88-8--5--5--5555--5--|
- ---0--0--0000--0--0--00-0--0--0--8888--8--8--88-8--5--5--5555--5--|
PM ................................................................

- ------------------------------------------------------------------|
- ---------------------------7------------------------8-------------|
- ______________    ___________________     ____________________
-               \  /                   \   /                    \
- --0--00-0--0--0--0000--0--0--00-0--8--8--8888--8--5--55-5--5--5---|
- --0--00-0--0--0--0000--0--0--00-0--8--8--8888--8--5--55-5--5--5---|
PM ................................................................

- ------------------------------------------------------------------|
- -----------9-----------------------10---------------------11------|
-   ____________________    ____________________    ________________
-  /                    \  /                    \  /
- -0000--0--0--00-0--0--0--0000--0--8--88-8--8--8--5555--5--5--55-5-|
- -0000--0--0--00-0--0--0--0000--0--8--88-8--8--8--5555--5--5--55-5-|
PM ................................................................

my guitar pro will help if its accepted, but its still really hard lol
you basically hav to be in ABR to play it so.. have fun with that :P
not that half of tab readers kno what i just said means, anyway lol


----------------------------------------------------------------------------

----------------------------------------------------------------------------

------------------------- [12. Crusades] - [05:12] -------------------------

----------------------------------------------------------------------------

----------------------------------------------------------------------------


[Riff 1, Guitar 1 & 2] - [00:00] - [00:10]--------------------------| 2x
- ------------------------------------------------------------------|
- -6~------------------------------8~--------------8----------------|
- -7~------------------------------5~--------------------5----------|
- -7~------------------------------5~--------------------------5----|
- ------------------------------------------------------------------|
- ------------------------------------------------------------------|
-
- -----------------------------------------------------------------|
- -----------------------------------------------------------------|
- -2-2-2-2-2-2-2-2-2-2-2-2-2-2-2-2---------------------------------|
- -3-3-3-3-3-3-3-3-3-3-3-3-3-3-3-3-5-5-5-5-5-5-5-5-5-5-5-5-5-5-5-5-|
- -5-5-5-5-5-5-5-5-5-5-5-5-5-5-5-5-3-3-3-3-3-3-3-3-3-3-3-3-3-3-3-3-|
- -----------------------------------------------------------------|
PM ...............................................................

----------------------------------------------------------------------------

[Riff 2, Guitar 1 & 2] - [00:10] - [00:20]--------------------------| 2x
- ------------------------------------------------------------------|
- ------------------------------------------------------------------|
- ------------------------------------------------------------------|
- -7-7-7-7-7-7-7-7-7-7-7-7-7-7-7-7-5-5-5-5-5-5-5-5-5-5-5-5-5-5-5-5--|
- -5-5-5-5-5-5-5-5-5-5-5-5-5-5-5-5-3-3-3-3-3-3-3-3-3-3-3-3-3-3-3-3--|
- ------------------------------------------------------------------|
-
- -----------------------------------------------------------------|
- -----------------6-6---5---6p5-------------------8-8---8-----8---|
- -------------7-7---------------7---------------------5---5-5---5-|
- -----7-7-------------7---7-------5-5---------5-5-----------------|
- -5-5-----5-5-------------------------8-8-7-7---------------------|
- -----------------------------------------------------------------|
PM ...     ...         .   .       ...............     .   ...

----------------------------------------------------------------------------

[Riff 3a] - [00:20] - [00:31]
- -------------------------------------|
- -------------------------------------|
- -------------5---7---/10--------12---|
- -0---3---5-----------------10--------|
- -------------------------------------|
- -------------------------------------|
AP .................................

[Riff 3b] - [00:20] - [00:31]
- -5-----5-----5---8-----8-----8---|
- ---6-----6-----6---6-----6-----6-|
- -----7-----7---------7-----7-----|
- ---------------------------------|
- ---------------------------------|
- ---------------------------------|

- -8------8------8----12------12------12----|
- ---10-----10-----10----10------10------10-|
- ------9------9------------9-------9-------|
- ------------------------------------------|
- ------------------------------------------|
- ------------------------------------------|

- -13-------13-------15----17-------17-------17----|
- ----15-------15-------14----15-------15-------15-|
- -------14-------14-------------14-------14-------|
- -------------------------------------------------|
- -------------------------------------------------|
- -------------------------------------------------|

- -8------8------8----12------12------12----|
- ---10-----10-----10----10------10------10-|
- ------9------9------------9-------9-------|
- ------------------------------------------|
- ------------------------------------------|
- ------------------------------------------|

----------------------------------------------------------------------------

[Riff 4a] - [00:31] - [00:39]
- ---------------|
- ---------------|
- ---------------| strum for one bar each.
- -7-7-5-5-12-11-|
- -5-5-3-3-8--7--|
- ---------8--7--|

[Riff 4b] - [00:31] - [00:39]
- -5-----5-----5---8-----8-----8---|
- ---6-----6-----6---6-----6-----6-|
- -----7-----7---------7-----7-----|
- ---------------------------------|
- ---------------------------------|
- ---------------------------------|

- -8------8------8----12------12------12----|
- ---10-----10-----10----10------10------10-|
- ------9------9------------9-------9-------|
- ------------------------------------------|
- ------------------------------------------|
- ------------------------------------------|

- -10-------10-------10------------------------|
- ----11-------11-------11------8h10----10p8---|
- -------10-------10-------9h10------10------9-|
- ---------------------------------------------|
- ---------------------------------------------|
- ---------------------------------------------|

----------------------------------------------------------------------------

[Riff 5] - [00:39] - [00:42]
- ---------------------------------|
- ---------------------------------|
- ---------------------------------|
- -----------------------------7~--|
- -000000000---------0-000-000-7~--|
- -000000000---------0-000-000-7~--|
PM ...........................

----------------------------------------------------------------------------

[Riff 6, Guitar 1 & 2] - [00:42] - [01:01]----------------------------------| 2x
- --------------------------------------------------------------------------|
- --------------------------------------------------------------------------|
- ----------------------------------------------------10p9-------12p10p9----|
- -------------------------7p0-----------------------------12p10------------|
- -----5---7h8-------------------------8---7h8h10---------------------------|
- -0-0---0-----0-0-000-000-----0-0-0-0---0--------0-0--------------------8--|
PM ...   .     ...........     .......   .        ...                    .
-
- -------------------------------------------------------------------------|
- ----------------------------------------------------10p8-------11p10p8---|
- ---------------------------------------------------------10p9------------|
- -------------------------7p0---------------------------------------------|
- -----5---7h8-------------------------8---7h8h10--------------------------|
- -0-0---0-----0-0-000-000-----0-0-0-0---0--------0-0--------------------8-|
PM ...   .     ...........     .......   .        ...                    .


- ----------------------------------------------------------------------|
- ------------------------------------------------------------------8---|
- ----------------------------------------------------9--------10-------|
- --------------------------------------------8---7-------11------------|
- -8---8---12p8---7h8---10---12---8---7---8-----------------------------|
- ---8---8------8-----8----8----8---8---7---7---7---7---7----7----7---7-|
PM   .   .      .     .    .    .   .   .   .   .   .   .    .    .   .
-
- ----------------------------------------------------------------------|
- ------------------------------------------------------------------8---|
- ----------------------------------------------------9--------10-------|
- --------------------------------------------8---7-------11------------|
- -8---8---12p8---7h8---10---12---8---7---8-----------------------------|
- ---8---8------8-----8----8----8---8---7---7---7---7---7----7----7---7-|
PM   .   .      .     .    .    .   .   .   .   .   .   .    .    .   .

----------------------------------------------------------------------------

[Riff 7] - [01:01] - [01:02]
- -------------------------|
- -------------------------|
- -------------------------|
- -------------------------|
- -000000000---000000000---|
- -000000000---000000000---|
PM .....................

----------------------------------------------------------------------------

[Riff 8a] - [01:02] - [01:20]-----------------------------| 4x
- --------------------------------------------------------|
- --------------------------------------------------------|
- --------------------------------------------------------|
- --------------------------------------------------------|
- -000000000-------0-000-000-000-000000000---000000000----|
- -000000000-------0-000-000-000-000000000---000000000----|
PM ...................................................

[Riff 8b] - [01:20] - [01:22]
- -----------------|
- -----------------|
- -----------------|
- -----------------|
- -000000000---0---|
- -000000000---0---|

[Riff 9a] - [01:11] - [01:22]-----------------------| 3x
- -17p13p10-13p10-13p10-16p10h12-16p12-16p12p10h12--|
- --------------------------------------------------|
- --------------------------------------------------|
- ----------(play 3 x then end with below riff)-----|
- --------------------------------------------------|
- --------------------------------------------------|
   T        T     T     T        T     T

- -17p13p10-13p10-13p10-16p10h12-16p12-16p12p10----|
- -------------------------------------------------|
- -------------------------------------------------|
- -------------------------------------------------|
- -------------------------------------------------|
- -------------------------------------------------|
   T        T     T     T        T     T

[Riff 9b] - [01:17] - [01:22]
- ----------------------------------------------|
- -18p15p10-15p10-15p9-17p9h15-17p15-17p15p9h15-|
- ----------------------------------------------|
- ----------------------------------------------|
- ----------------------------------------------|
- ----------------------------------------------|
   T        T     T    T       T     T

- ----------------------------------------------|
- -18p15p10-15p10-15p9-17p9h15-17p15-17p15p10---|
- ----------------------------------------------|
- ----------------------------------------------|
- ----------------------------------------------|
- ----------------------------------------------|
   T        T     T    T       T     T

rr messy.. i dont wanna type it all out!
my gp will help if its accepted. its all there if you kno how to read it...

times help..

----------------------------------------------------------------------------

[Riff 10, Guitar 1 & 2] - [01:22] - [01:31]
- -----------------------------------------------------------------|
- -----------------------------------------------------------------|
- -------------------------------------------------9-9---10--------|
- -3p0-------------5h7p5-------5h7-7p0-----------------------7-----|
- -----------------------8p5h8-------------------------------------|
- -----000-0-000-0---------------------000-0-000-0-----0---0---0-0-|
PM     ...........                     ...........     .   .   ...
-
- -----------------------------------------------------------------|
- -----------------------------------------------------------------|
- -------------------------------------------------9-9---10--------|
- -7p0-------------5h7p5-------5h7-7p0-----------------------7-----|
- -----------------------8p5h8-------------------------------------|
- -----000-0-000-0---------------------000-0-000-0-----0---0---0-0-|
PM     ...........                     ...........     .   .   ...


- -----------------------------------------------------------------|
- -----------------------------------------------------------------|
- ------------------------------------------------10p7h9-----7-----|
- -3p0-------------5h7p5-------5h7-7p0-------------------7h8---8p7-|
- -----------------------8p5h8-------------------------------------|
- -----000-0-000-0---------------------000-0-000-0-----------------|
PM     ...........                     ...........
-
- -----------------------------------------------------------------|
- -----------------------------------------------------------------|
- ------------------------------------------------10p7h9-----7-----|
- -7p0-------------5h7p5-------5h7-7p0-------------------7h8---8p7-|
- -----------------------8p5h8-------------------------------------|
- -----000-0-000-0---------------------000-0-000-0-----------------|
PM     ...........                     ...........

----------------------------------------------------------------------------

[Riff 11, Guitar 1 & 2] - [01:31] - [01:40]
- -------------------------------------------------------------------------|
- -------------------------------------------------------------------------|
- -10--------------10h12p10--------10h12-10--------------9--9----10--------|
- ---12--------------------12p10h14--------12------------------------7-----|
- -------------------------------------------------------------------------|
- -----000-0-000-0---------------------------000-0-000-0-------0---0---0-0-|
PM     ...........                           ...........       .   .   ...
-
- -------------------------------------------------------------------------|
- -10--------------10h11p10--------10h11-10----------------------10--------|
- ---10--------------------10p9h12---------10------------12-12-------------|
- -------------------------------------------------------------------12----|
- -------------------------------------------------------------------------|
- -----000-0-000-0---------------------------000-0-000-0-------0---0---0-0-|
PM     ...........                           ...........       .   .   ...


- -----------------------------------------------------------------------|
- -----------------------------------------------------------------------|
- -10--------------10h12p10--------10h12-10-------------10p7h9-----7p6---|
- ---12--------------------12p10h14--------12------------------7h8-------|
- -----------------------------------------------------------------------|
- -----000-0-000-0---------------------------000-0-000-0-----------------|
PM     ...........                           ...........
-
- -----------------------------------------------------------------------|
- -10--------------10h11p10--------10h11-10------------------------------|
- ---10--------------------10p9h12---------10----------------------------|
- -----------------------------------------------------------------------|
- -------------------------------------------------------8p5h7-0h1-5p4---|
- -----000-0-000-0---------------------------000-0-000-0-----------------|
PM     ...........                           ...........

----------------------------------------------------------------------------

[Riff 12, Guitar 1 & 2] - [01:40] - [01:51]-------------------------| 2x
- ------------------------------------------------------------------|
- ------------------------------------------------------------------|
- -2-2-2-2-2-2-2-2-2-2-2-2-2-2-2-2----------------------------------|
- -3-3-3-3-3-3-3-3-3-3-3-3-3-3-3-3-5-5-5-5-5-5-5-5-5-5-5-5-5-5-5-5--|
- -5-5-5-5-5-5-5-5-5-5-5-5-5-5-5-5-3-3-3-3-3-3-3-3-3-3-3-3-3-3-3-3--|
- ------------------------------------------------------------------|
PM                                 ...............................
-
-
- -----------------------------------------------------------------|
- -----------------6-6---5---6p5-------------------8-8---8-----8---|
- -------------7-7---------------7---------------------5---5-5---5-|
- -----7-7-------------7---7-------5-5---------5-5-----------------|
- -5-5-----5-5-------------------------8-8-7-7---------------------|
- -----------------------------------------------------------------|
PM ...     ...         .   .       ...............     .   ...   .

----------------------------------------------------------------------------

[Riff 13a] - [01:51] - [02:00]
- ---------------|
- ---------------|
- -2-2-----------| strum for one bar each.
- -3-3-5-5-12-11-|
- -5-5-3-3-8--7--|
- ---------8--7--|

[Riff 13b] - [01:51] - [02:00]
- -1-----1-----1---5-----5-----5---|
- ---3-----3-----3---6-----6-----6-|
- -----2-----2---------7-----7-----|
- ---------------------------------|
- ---------------------------------|
- ---------------------------------|

- -8------8------8----12------12------12----|
- ---10-----10-----10----10------10------10-|
- ------9------9------------9-------9-------|
- ------------------------------------------|
- ------------------------------------------|
- ------------------------------------------|

- -10-------10-------10------------------------|
- ----11-------11-------11------8h10----10p8---|
- -------10-------10-------9h10------10------9-|
- ---------------------------------------------|
- ---------------------------------------------|
- ---------------------------------------------|

----------------------------------------------------------------------------

[Riff 14] - [02:00] - [02:03]
- ---------------------------------|
- ---------------------------------|
- ---------------------------------|
- -----------------------------7~--|
- -0-0-0-0-0-0-0-0-3-3-3-3-7-7-7~--|
- -0-0-0-0-0-0-0-0-3-3-3-3-7-7-7~--|
PM ...........................

----------------------------------------------------------------------------

[Riff 15, Guitar 1 & 2] - [02:03] - [02:06]
- -----------------------------------------------------------|
- -----------------------------------------------------------|
- -----------------------------------------------------------|
- -----------------------------------------------------------|
- -0-------------0-------------0---5---7p0----0---5---7p0----|
- -0-------------0---------------0---0------0---0---0------0-|
PM ...............               .   .      .   .   .      .
-
- -----------------------------------------------------------|
- -----------------------------------------------------------|
- -----------------------------------------------------------|
- -----------------------------------------------------------|
- -0---5---7p0---0---5---7p0---0---8---10p0---0---8---10p0---|
- ---0---0-----0---0---0-----0---0---0------0---0---0------0-|
PM   .   .     .   .   .     .   .   .      .   .   .      .

----------------------------------------------------------------------------

[Riff 16] - [02:06] - [02:11]
- ---------------------------------------------------------------------|
- ---------------------------------------------------------------------|
- ---------------------------------------------------------------------|
- ---------------------------------------------------------------------|
- -7---7---8p10p7-7---7---7h8h10p8p7-7---7---8h10p7-7---7---7h8h10p8p7-|
- ---7---7----------7---7--------------7---7----------7---7------------|
PM   .   .          .   .              .   .          .   .

----------------------------------------------------------------------------

[Riff 17, Guitar 1 & 2] - [02:11] - [02:15]
- -----------------------------------------------------------|
- -----------------------------------------------------------|
- -----------------------------------------------------------|
- -----------------------------------------------------------|
- -0---5---7p0---0---5---7p0---0---5---7p0----0---5---7p0----|
- ---0---0-----0---0---0-----0---0---0------0---0---0------0-|
PM   .   .     .   .   .     .   .   .      .   .   .      .
-
- -----------------------------------------------------------|
- -----------------------------------------------------------|
- -----------------------------------------------------------|
- -----------------------------------------------------------|
- -0---5---7p0---0---5---7p0---0---8---10p0---0---8---10p0---|
- ---0---0-----0---0---0-----0---0---0------0---0---0------0-|
PM   .   .     .   .   .     .   .   .      .   .   .      .

----------------------------------------------------------------------------

[Riff 18] - [02:15] - [02:19]
- --------------------------------------------------------------------|
- --------------------------------------------------6p5---------------|
- ------------------------------------------------------7p6-7p6-------|
- --------------------------------------------------------------8p7---|
- -7---7---8p10p7-7---7---7h8h10p8p7-7---7---8h10-------------------4-|
- ---7---7----------7---7--------------7---7------7-------------------|
PM   .   .          .   .              .   .      .

----------------------------------------------------------------------------

[Riff 19] - [02:19] - [02:37]-----------------------------| 4x
- --------------------------------------------------------|
- --------------------------------------------------------|
- --------------------------------------------------------|
- --------------------------------------------------------|
- -0000--0000--0--0000--0000--0000--0000--0--0000--0000---|
- -0000--0000--0--0000--0000--0000--0000--0--0000--0000---|
PM ....................................................

----------------------------------------------------------------------------

[Riff 20a] - [02:29] - [02:33]
- -------------------------------------------------------|
- -------------------------------------------------------|
- -------------------------------------------------------|
- -------------------------------------------------------|
- -000---0000-----000---0000--000---0000-----000---0000--|
- -0007b-0000--7b-0007b-0000--0007b-0000--7b-0007b-0000--|
PM ...   ....     ...   .........   ....     ...   ....

[Riff 20b] - [02:33] - [02:37]
- -------------------------------------------------|
- -------------------------------------------------|
- -------------------------------------------------|
- -------------------------------7b-------7b----7b-|
- -0005b-0000--5b-0005b-0000--000---0000-----000---|
- -000---0000-----000---0000--000---0000-----000---|
PM ...   ....     ...   .........   ....     ...

----------------------------------------------------------------------------

[Riff 21] - [02:37] - [02:50]
- -------------------------------------|
- -------------------------------------|
- -------------------------------------|
- -------------0~----------------------|
- -0000--0000--0~----------------------|
- -0000--0000--0~----------------------|
PM ..........

----------------------------------------------------------------------------

this part is probably definately gonna change over the next lil bit
as i get picky n figure the actual chords out :P this is it for now thoo

i tried to get the lil transition between chords right ahaha if you dont
like it just look at the chords n ignore the last bit of each bar.. just
play with the chords n i think you'll get it :P they're listed at the
end of this bit haha

[Riff 22, Guitar 1 & 2] - [02:43] - [03:00]
- -1---1-1---1-1p0-|
- -3---3-3---3-3---|
- -2---2-2---2-2---|
- -0---0-0---0-0---|
- -----------------|
- -----------------|
-
- -1---1-1---1-1p0-|
- -3---3-3---3-3---|
- -2---2-2---2-2---|
- -0---0-0---0-0---|
- -----------------|
- -----------------|


- -----5-5---5-5---|
- -2---2-2---2-2-0-|
- -2---2-2---2-2-0-|
- -2---2-2---2-2---|
- -0---0-0---0-0---|
- -----------------|
-
- -0---0-0---0-0-0-|
- -2---2-2---2-2-2-|
- -2---2-2---2-2-2-|
- -2---2-2---2-2-0-|
- -0---0-0---0-0---|
- -----------------|


- -----5-5---5-5---|
- -3---3-3---3-3---|
- -2---2-2---2-2-2-|
- -0---0-0---0-0-2-|
- ---------------0-|
- -----------------|
-
- -0---0-0---0-0-0-|
- -3---3-3---3-3-2-|
- -2---2-2---2-2-2-|
- -0---0-0---0-0-0-|
- -----------------|
- -----------------|


- -------1-1-0-0---|
- -2---2-2-2-2-2-0-|
- -2---2-2-2-2-2-0-|
- -2---2-----------|
- -0---0-----------|
- -----------------|
-
- -------1-1-0-0---|
- -2---2-2-2-2-2-0-|
- -2---2-2-2-2-2-0-|
- -2---2-----------|
- -0---0-----------|
- -----------------|


- -----------------|
- -----3-3---3-3-0-|
- -3---3-3---3-3-2-|
- -5---5-5---5-5-4-|
- -----------------|
- -----------------|
-
- -----------------|
- ---------------0-|
- -3---3-3---3-3-2-|
- -5---5-5---5-5-4-|
- -----------------|
- -----------------|


- -0---0-0---0-0-0-|
- -0---0-0---0-0-0-|
- -2---2-2---2-2-2-|
- -4---4-4---4-4-3-|
- -----------------|
- -----------------|
-
- -0---0-0---0-0-0-|
- -0---0-0---0-0-0-|
- -2---2-2---2-2-2-|
- -4---4-4---4-4-3-|
- -----------------|
- -----------------|


- -0---0-0---0-0-0-|
- -0---0-0---0-0-0-|
- -2---2-2---2-2-2-|
- -3---3-3---3-3-0-|
- -----------------|
- -----------------|
-
- -0---0-0---0-0-0-|
- -0---0-0---0-0-0-|
- -2---2-2---2-2-2-|
- -3---3-3---3-3-0-|
- -----------------|
- -----------------|


- -----------------|
- -----------------|
- -2~--------------|
- -0~--------------|
- -0~--------------|
- -0~--------------|
-
- -----------------|
- -----------------|
- -2~--------------|
- -0~--------------|
- -0~--------------|
- -0~--------------|

So the chords go like this:

[Riff 22, Guitar 1 & 2] - [02:43] - [03:00]
- -1-5-5-0---0-0---|
- -3-2-3-2-3-0-0---|
- -2-2-2-2-3-2-2-2-|
- -0-2-0-2-5-4-3-0-|
- ---0---0-------0-|
- ---------------0-|
-
- -1-0-0-0---0-0---|
- -3-2-3-2---0-0---|
- -2-2-2-2-3-2-2-2-|
- -0-2-0-2-5-4-3-0-|
- ---0---0-------0-|
- ---------------0-|

Again.. im still unsure about this :P take it r leave it aha

----------------------------------------------------------------------------

[Riff 23a] - [03:00] - [03:31]
- -----------------------------------------------------------------|
- -----------------------------------------------------------------|
- -----------------------------------------------------------------|
- -0---0-0-0-0-0-0-7---7-7-7-7-7\--0---0-0-0-0-0-0-0---0-0-0-0-0-0-|
- -0---0-0-0-0-0-0-7---7-7-7-7-7\--0---0-0-0-0-0-0-0---0-0-0-0-0-0-|
- -0---0-0-0-0-0-0-7---7-7-7-7-7\--0---0-0-0-0-0-0-0---0-0-0-0-0-0-|

- ------------------------------------------------------------------|
- ------------------------------------------------------------------|
- ------------------------------------------------------------------|
- -5---5-5-5-5-5-4-4---4-4-4-4-4-3-3---3-3-3-3-3-3------------------|
- -5---5-5-5-5-5-5-5---5-5-5-5-5-3-3---3-3-3-3-3-3-0-0-0-0-0-0-0000-|
- -5---5-5-5-5-5-4-4---4-4-4-4-4-3-3---3-3-3-3-3-3-0-0-0-0-0-0-0000-|
PM                                                 ................

- -----------------------------------------------------------------|
- -----------------------------------------------------------------|
- -----------------------------------------------------------------|
- -0---0-0-0-0-0-0-7---7-7-7-7-7\--0---0-0-0-0-0-0-0---0-0-0-0-0-0-|
- -0---0-0-0-0-0-0-7---7-7-7-7-7\--0---0-0-0-0-0-0-0---0-0-0-0-0-0-|
- -0---0-0-0-0-0-0-7---7-7-7-7-7\--0---0-0-0-0-0-0-0---0-0-0-0-0-0-|

- ----------------------------------------------------------------------|
- ----------------------------------------------------------------------|
- ----------------------------------------------------------------------|
- -5---5-5-5-5-5-4-4---4-4-4-4-4-3-3---3-3-3-3-3-3-3-3-3-3-3-3-3-3-0~---|
- -5---5-5-5-5-5-5-5---5-5-5-5-5-3-3---3-3-3-3-3-3-3-3-3-3-3-3-3-3-0~---|
- -5---5-5-5-5-5-4-4---4-4-4-4-4-3-3---3-3-3-3-3-3-3-3-3-3-3-3-3-3-0~---|

[Riff 23b] - [03:00] - [03:31]
- -----------------------------------------------|
- -----------------------------------------------|
- -19---19-19-19-19-19\18-18---18-18-18-18-18\12-|
- -x----x--x--x--x--x--x--x----x--x--x--x--x--x--|
- -17---17-17-17-17-17\16-16---16-16-16-16-16\10-|
- -----------------------------------------------|

- ------------------------------------------|
- ------------------------------------------|
- -12---12-12-12-12-12\10-10---10\9-9-9-9-9-|
- -x----x--x--x--x--x--x--x----x--x-x-x-x-x-|
- -10---10-10-10-10-10\8--8----8-\7-7-7-7-7-|
- ------------------------------------------|

- -----------------------------------------------|
- -----------------------------------------------|
- -15---15-15-15-15-15\14-14---14-14-14-14-14-14-|
- -x----x--x--x--x--x--x--x----x--x--x--x--x--x--|
- -13---13-13-13-13-13\12-12---12-12-12-12-12-12-|
- -----------------------------------------------|

- ----------------------------------------13h17-|
- -------------------------------------15-------|
- -14---14-14-14-14-14-14-----------14----------|
- -x----x--x--x--x--x--x--0h7/12-15-------------|
- -12---12-12-12-12-12-12-----------------------|
- ----------------------------------------------|

- -----------------------------------------------|
- -----------------------------------------------|
- -19---19-19-19-19-19\18-18---18-18-18-18-18\12-|
- -x----x--x--x--x--x--x--x----x--x--x--x--x--x--|
- -17---17-17-17-17-17\16-16---16-16-16-16-16\10-|
- -----------------------------------------------|

- ------------------------------------------|
- ------------------------------------------|
- -12---12-12-12-12-12\10-10---10\9-9-9-9-9-|
- -x----x--x--x--x--x--x--x----x--x-x-x-x-x-|
- -10---10-10-10-10-10\8--8----8-\7-7-7-7-7-|
- ------------------------------------------|

- -----------------------------------------------|
- -----------------------------------------------|
- -15---15-15-15-15-15\14-14---14-14-14-14-14-14-|
- -x----x--x--x--x--x--x--x----x--x--x--x--x--x--|
- -13---13-13-13-13-13\12-12---12-12-12-12-12-12-|
- -----------------------------------------------|

- ------------------------------------------------------|
- ------------------------------------------------------|
- -14---14-14-14-14-14-14-14-14-14-14-14-14-14-14-14~---|
- -x----x--x--x--x--x--x--x--x--x--x--x--x--x--x--x-----|
- -12---12-12-12-12-12-12-12-12-12-12-12-12-12-12-12~---|
- ------------------------------------------------------|

----------------------------------------------------------------------------

[Riff 24] - [03:27] - [03:34]
- ---0-----0-----0-----0-----0-----0-----------|
- -----0-----0-----0-----0-----0-----0---------|
- -2-----2-----2-----2-----2-----2-----2~------|
- ---------------------------------------------|
- ---------------------------------------------|
- ---------------------------------------------|

----------------------------------------------------------------------------

[Riff 25] - [03:34] - [03:55]---------| 4x
- ------------------------------------|
- ------------------------------------|
- -2-2---2-----2---0h2-2---2-----2----|
- -3-3-3-3-3-3-3-3-5---5-5-5-5-5-5-5--|
- -5-5-5-5-5-5-5-5-3---3-3-3-3-3-3-3--|
- ------------------------------------|

[Riff 26] - [03:45] - [03:55]
- -13----------13----------15----------15----------|
- ----15----15----15----15----13----13----13----13-|
- -------14----------14----------12----------12----|
- -------------------------------------------------|
- -------------------------------------------------|
- -------------------------------------------------|

- -13----------13----------15----------15~---------|
- ----15----15----15----15----13----13-------------|
- -------14----------14----------12----------------|
- -------------------------------------------------|
- -------------------------------------------------|
- -------------------------------------------------|

----------------------------------------------------------------------------

[Riff 27] - [03:55] - [05:04]---------------------------------------| 3x
- ------------------------------------------------------------------|
- ------------------------------------------------------------------|
- ------------------------------------------------------------------|
- -0-0-0-0-0-0-0-0-5-5-5-5-5-5-5-5-0-0-0-0-0-0-0-0-5-5-5-5-5-5-5-5--|
- -0-0-0-0-0-0-0-0-3-3-3-3-3-3-3-3-0-0-0-0-0-0-0-0-3-3-3-3-3-3-3-3--|
- -0-0-0-0-0-0-0-0-----------------0-0-0-0-0-0-0-0------------------|

- -----------------------------------------------------------------|
- -----------------------------------------------------------------|
- -----------------------------------------------------------------|
- -0-0-0-0-0-0-0-0-5-5-5-5-5-5-5-5-3-3-3-3-2-2-2-2-0~--------------|
- -0-0-0-0-0-0-0-0-3-3-3-3-3-3-3-3-1-1-1-1-0-0-0-0-0~--------------|
- -0-0-0-0-0-0-0-0---------------------------------0~--------------|


[Riff 28] - [03:55] - [04:16]
- ---------------------------------------------------|
- ---------------------------------------------------|
- -9/10-10-10-10-10-10-10-10-12-12-12-12-12-12-12-12-|
- -x-x--x--x--x--x--x--x--x--x--x--x--x--x--x--x--x--|
- -7/12-12-12-12-12-12-12-12-14-14-14-14-14-14-14-14-|
- ---------------------------------------------------|

- ---------------------------------------------------|
- ---------------------------------------------------|
- -9/10-10-10-10-10-10-10-10-12-12-12-12-12-12-12-12-|
- -x-x--x--x--x--x--x--x--x--x--x--x--x--x--x--x--x--|
- -7/12-12-12-12-12-12-12-12-14-14-14-14-14-14-14-14-|
- ---------------------------------------------------|

- ---------------------------------------------------|
- ---------------------------------------------------|
- -9/10-10-10-10-10-10-10-10-12-12-12-12-12-12-12-12-|
- -x-x--x--x--x--x--x--x--x--x--x--x--x--x--x--x--x--|
- -7/12-12-12-12-12-12-12-12-14-14-14-14-14-14-14-14-|
- ---------------------------------------------------|

- -------------------------------------------------------------------|
- -------------------------------------------------------------------|
- -19-19-19-19-18-18-18-18-12/14-14-14-14/19-19-19-19-19-19-19-19-19-|
- -x--x--x--x--x--x--x--x--x--x--x--x--x--x--x--x--x--x--x--x--x--x--|
- -17-17-17-17-16-16-16-16-10/12-12-12-12/17-17-17-17-17-17-17-17-17-|
- -------------------------------------------------------------------|

[Riff 29] - [04:16] - [05:04]--------------------------------| 2x
- -13-------13-------13-------13-------13-------13-----------|
- ----15-------15-------15-------15-------15-------15----15--|
- -------14-------14-------14-------14-------14-------14-----|
- -----------------------------------------------------------|
- -----------------------------------------------------------|
- -----------------------------------------------------------|

- -8------8------8------8------8------8---------|
- ---10-----10-----10-----10-----10-----10---10-|
- ------9------9------9------9------9------9----|
- ----------------------------------------------|
- ----------------------------------------------|
- ----------------------------------------------|

- -13-------13-------13-------13-------13-------13----------|
- ----15-------15-------15-------15-------15-------15----15-|
- -------14-------14-------14-------14-------14-------14----|
- ----------------------------------------------------------|
- ----------------------------------------------------------|
- ----------------------------------------------------------|

- -8------8------8------8------8------8---------|
- ---10-----10-----10-----10-----10-----10---10-|
- ------9------9------9------9------9------9----|
- ----------------------------------------------|
- ----------------------------------------------|
- ----------------------------------------------|

- -13-------13-------13----17-------17-------17----|
- ----15-------15-------15----15-------15-------15-|
- -------14-------14-------------14-------14-------|
- -------------------------------------------------|
- -------------------------------------------------|
- -------------------------------------------------|

- -8------8------8----12------12------12----|
- ---10-----10-----10----10------10------10-|
- ------9------9------------9-------9-------|
- ------------------------------------------|
- ------------------------------------------|
- ------------------------------------------|

- -10-------10-------10------------------------|
- ----11-------11-------11------8h10----10p8---|
- -------10-------10-------9h10------10------9-|
- ---------------------------------------------|
- ---------------------------------------------|
- ---------------------------------------------|

- -------------------------------------------------|-[04:56]-------------|
- -------------------------------------------------|---------------------|
- -14-14-14-14-14-14-14/19-19-19-19-19-19-19-19-19-|-12/14~-(end on 2nd--|
- -x--x--x--x--x--x--x--x--x--x--x--x--x--x--x--x--|-x--x----time playd)-|
- -12-12-12-12-12-12-12/17-17-17-17-17-17-17-17-17-|-10/12~--------------|
- -------------------------------------------------|---------------------|

----------------------------------------------------------------------------

[Riff 30] - [04:56] - [05:12]
- -1-----1-----1---0-----0-----0---0-----0-----0---------------------------|
- ---3-----3-----3---3-----3-----3---2-----2-----2-----------------3~------|
- -----2-----2---------2-----2---------2-----2-----2~------------2---------|
- -------------------------------------------------------------0-----------|
- -----------------------------------------------------------0-------------|
- ---------------------------------------------------------0---------------|

whollyyy tabbing wtff.. :P

----------------------------------------------------------------------------

[Symbols]
~     Let Ring/Vibrato
///   Pick Slide
PM... Palm Mute notes with (...) under them
h     Hammer On
p     Pull Off
/     Slide Up
\     Slide Down
[ ]   Pinch Harmonic
( x)  Play x amount of times
x     Dead Note
b     Bend
r     release
AP... Alternate Pick notes with (...) under them
T     Right Hand Tap

:D
comments
print report bad tab
3 comments total.
+2 reply
rongold360 wrote on June 27 2011, 04:37 pm

Holy crap, 98 pages. Thats awesome! Thanks bro.

+1 reply
josh-josh-josh wrote on June 27 2011, 06:39 pm

:| you printed it!

0 reply
Drewste720571 wrote on October 19 2011, 06:27 pm

[Riff 1a] - [00:00] - [00:51]----------------------------------------------| 6x
- -------5---------5---------5---------5---------0---------0---------0-----|
- ---6-----6---6-----6---6-----6---6-----6---6-----6---6-----6---6-----6---|
- -----7---------7---------7---------7---------7---------7---------7-------|
- -8---------8---------8---------8---------0---------0---------0-----------|
- -------------------------------------------------------------------------|
- -------------------------------------------------------------------------|

- -------8p5-|
- -----6-----|
- ---7-------|
- -0---------|
- -----------|
- -----------|

Small ending edit on this riff. You hold the same finger positions alot easier to play and I swear it sounds better
(Mariana's Trench how I play it)

I want to post or [tab]
guest
You may want to rate the tab now too:
select rating
Please do not post tabs as comments. Select "correction" instead!