Oops, an error
Loading. Please wait.

Empire Tab

ver2
ver2

Whole song

More versions @911Tabs.com
2,216 views 1 this week
no commentswrite comment
1 2 3 4 5
excellent!
x 2
Autoscroll
+/-
esc
set tempo
stop
Contributor
Difficulty
Tuning
intermediate
C G C F A D
WARNING: You are trying to view
                                    content from Ultimate-Guitar.com
                                    in an unauthorized application,
                                    which is prohibited.

                                    Please use an official Ultimate
                                    Guitar Tabs application for iPhone,
                                    iPad or Android to access legitimate
                                    chords, guitar, bass, and drum tabs
                                    from Ultimate-Guitar.com database.

                                    Type "ultimate guitar tabs" in Apple
                                    App Store's or Android Market's
                                    search to find the application.
AUGUST BURNS RED

EMPIRE

CGCFAD

TABBED BY andherembrace




L
---------------------------------------------------------------|
--9------------------------------------------------------------|
--H------------------------------------------------------------|
---------------------------------------------------------------|
---------------------------------------------------------------|
---------------------------------------------------------------|
R
---------------------------------------------------------------|
---------------------------------------------------------------|
---------------------------------------------------------------|
--7------------------------------------------------------------|
--H------------------------------------------------------------|
---------------------------------------------------------------|


0:05

1
-----------------------------------------------------------------------|
-----------------------------------------------------------------------|
-----------------------------------------------------------------------|
-----------------------------------------------------------------------|
-----------5-------------5-------------5-------------5-------------5---|
-8-0-7-8-0---0-8-0-7-8-0---0-8-0-7-8-0---0-8-0-7-8-0---0-8-0-7-8-0---0-|
   *     *   *   *     *   *   *     *   *   *     *   *   *     *   *
2
-----------------------------------------------------------------------|
-----------------------------------------------------------------------|
-----------------------------------------------------------------------|
-----------------------------------------------------------0-----------|
-----------------------------------------------------------0-----------|
-----------------------------------------------------------0-----------|


1
-----------------------------------------------------------------------|
-----------------------------------------------------------------------|
-----------------------------------------------------------------------|
-----------------------------------------------------------------------|
-----------5-------------5-------------5-------------5-------------5---|
-8-0-7-8-0---0-8-0-7-8-0---0-8-0-7-8-0---0-8-0-7-8-0---0-8-0-7-8-0---0-|
   *     *   *   *     *   *   *     *   *   *     *   *   *     *   *

B
----------------------------|
----------------------------|
----------------------------|
----------------------------|
-0-0-0-0--0---0-0-0-0-0-0---|
-0-0-0-0--0---0-0-0-0-0-0---|
 * * * *  *   * * * * * *


0:16

1
-------------------------------------------------------------|
-------------------------------------------------------------|
-------_----^---------_----^--------_----^---------_-----^---|
--^---/ \--7-0---^---/ \--7-0--^---/ \--7-0---^---/ \--10-0--|
-8-0-7-8-0------8-0-7-8-0-----8-0-7-8-0------8-0-7-8-0-------|
-------------------------------------------------------------|

2
-------------------------------------------------------------|
-------------------------------------------------------------|
-------------------------------------------------------------|
-------------------------------------------------------------|
-0-0-0-0---0---0-0-0-0-0-0---0-0-0-0---0-----------------0-0-|
-0-0-0-0---0---0-0-0-0-0-0---0-0-0-0---0-----------------0-0-|
 * * * *   *   * * * * * *   * * * *   *                 * *

1
-------------------------------------------------------------|
-------------------------------------------------------------|
-------_----^---------_----^--------_----^---------_-----^---|
--^---/ \--7-0---^---/ \--7-0--^---/ \--7-0---^---/ \--10-0--|
-8-0-7-8-0------8-0-7-8-0-----8-0-7-8-0------8-0-7-8-0-------|
-------------------------------------------------------------|

2
--------------------------------------------------------|
--------------------------------------------------------|
--------------------------------------------------------|
--------------------------------------------------------|
-0-0-0-0---0---0-0-0-0-0-0---0-0-0-0---0---0-0---0-0-0--|
-0-0-0-0---0---0-0-0-0-0-0---0-0-0-0---0---0-0---0-0-0--|
 * * * *   *   * * * * * *   * * * *   *   * *   * * *


1
-------------------------------------------------------------------|
-------------------------------------------------------------------|
--------__----^---------__-----^---------__----^---------__-----^--|
---^---/  \--8-0---^---/  \--12-0---^---/  \--8-0---^---/  \--10-0-|
-12-0-8-12-0-----12-0-8-12-0------12-0-8-12-0-----12-0-8-12-0------|
-------------------------------------------------------------------|

2
-------------------------------------------------------------|
-------------------------------------------------------------|
-------------------------------------------------------------|
-------------------------------------------------------------|
-0-0-0-0---0---0-0-0-0-0-0---0-0-0-0---0-----------------0-0-|
-0-0-0-0---0---0-0-0-0-0-0---0-0-0-0---0-----------------0-0-|
 * * * *   *   * * * * * *   * * * *   *                 * *

1
-------------------------------------------------------------------|
-------------------------------------------------------------------|
--------__----^---------__-----^---------__----^---------__-----^--|
---^---/  \--8-0---^---/  \--12-0---^---/  \--8-0---^---/  \--15-0-|
-12-0-8-12-0-----12-0-8-12-0------12-0-8-12-0-----12-0-8-12-0------|
-------------------------------------------------------------------|

2
--------------------------------------------------------|
--------------------------------------------------------|
--------------------------------------------------------|
--------------------------------------------------------|
-0-0-0-0---0---0-0-0-0-0-0---0-0-0-0---0---0-0---0-0-0--|
-0-0-0-0---0---0-0-0-0-0-0---0-0-0-0---0---0-0---0-0-0--|
 * * * *   *   * * * * * *   * * * *   *   * *   * * *



0:30

L
-----------------------------------------------------------------|
-----------------------------------------------------------------|
------------------------------------------------------^---^------|
----------^-----------^---^---^-----------^---^---^--8-0-7-0--^--|
--^---^--5-7--^---^--5-7-8-0-7-0--^---^--5-7-8-0-7-0---------8-0-|
-8-0-7-8-----8-0-7-8-------------8-0-7-8-------------------------|

R
---------------------------------------------------------------------------|
---------------------------------------------------------------------------|
----------------------------------------------------------------^----^-----|
-----------^-------------^-----^----^------------^-----^----^-12-0-10-0--^-|
--^----^--8-10--^----^--8-10-12-0-10-0--^----^--8-10-12-0-10-0---------12-0|
12-0-10-12----12-0-10-12--------------12-0-10-12---------------------------|


L
-------------------------------------------------------------------|
-------------------------------------------------------------------|
----------------------------------------------^---^----------------|
----------^-----------^---^---^-----------^--8-0-7-0--^------------|
--^---^--5-7--^---^--5-7-8-0-7-0--^---^--5-7---------8-10-0-7-0-10-|
-8-0-7-8-----8-0-7-8-------------8-0-7-8---------------------------|

R
---------------------------------------------------------------------------|
---------------------------------------------------------------------------|
---------------------------------------------------------------------------|
-----------^-------------^-----^----^------------^-------------------------|
--^----^--8-10--^----^--8-10-12-0-10-0--^----^--8-10--^----^----^---1201013|
12-0-10-12----12-0-10-12--------------12-0-10-12----12-0-10-12-10-12-------|

L
-----------------------------------------------------------------|
-----------------------------------------------------------------|
------------------------------------------------------^---^------|
----------^-----------^---^---^-----------^---^---^--8-0-7-0--^--|
--^---^--5-7--^---^--5-7-8-0-7-0--^---^--5-7-8-0-7-0---------8-0-|
-8-0-7-8-----8-0-7-8-------------8-0-7-8-------------------------|

R
---------------------------------------------------------------------------|
---------------------------------------------------------------------------|
----------------------------------------------------------------^----^-----|
-----------^-------------^-----^----^------------^-----^----^-12-0-10-0--^-|
--^----^--8-10--^----^--8-10-12-0-10-0--^----^--8-10-12-0-10-0---------12-0|
12-0-10-12----12-0-10-12--------------12-0-10-12---------------------------|


L
-------------------------------------------------------------------|
-------------------------------------------------------------------|
----------------------------------------------^---^----------------|
----------^-----------^---^---^-----------^--8-0-7-0--^------------|
--^---^--5-7--^---^--5-7-8-0-7-0--^---^--5-7---------8-10-0-7-0-10-|
-8-0-7-8-----8-0-7-8-------------8-0-7-8---------------------------|

R
---------------------------------------------------------------------------|
---------------------------------------------------------------------------|
---------------------------------------------------------------------------|
-----------^-------------^-----^----^------------^-------------------------|
--^----^--8-10--^----^--8-10-12-0-10-0--^----^--8-10--^-----^----^--1201013|
12-0-10-12----12-0-10-12--------------12-0-10-12----12-0-10-12-10-12-------|



0:47

L
---------------------------------------------------------------|
--------------------------------------------_------------------|
-------------------------------------------/ \-----_-----------|
-0-----------------------0---------------12-8-0---/ \------PH--|
-0-0-0-0-0-0--0000-0---)-0-0-0-0-0-0------------12-8-0--0--8---|
-0-0-0-0-0-0--0000-0--7--0-0-0-0-0-0--------------------0------|
   * * * * *  **** *       * * * * *                    *
R
---------------------------------------------------------------|
--------------------------------------------_------------------|
-------------------------------------------/ \-----_-----------|
-0-----------------------0---------------12-8-0---/ \------PH--|
-0-0-0-0-0-0--0000-0---)-0-0-0-0-0-0------------12-8-0--0--8---|
-0-0-0-0-0-0--0000-0-12--0-0-0-0-0-0--------------------0------|
   * * * * *  **** *       * * * * *                    *


L
----------------------------------------------------------------|
--------------------------------------------_-------------------|
-------------------------------------------/ \-----_---------^--|
-0-----------------------0----------------8-7-0---/ \----^--2-3-|
-0-0-0-0-0-0--0000-0---)-0-0-0-0-0-0-------------8-7-0--3-5-----|
-0-0-0-0-0-0--0000-0--7--0-0-0-0-0-0----------------------------|
   * * * * *  **** *       * * * * *
R
----------------------------------------------------------------|
--------------------------------------------_-------------------|
-------------------------------------------/ \-----_---------^--|
-0-----------------------0----------------8-7-0---/ \----^--5-7-|
-0-0-0-0-0-0--0000-0---)-0-0-0-0-0-0-------------8-7-0--7-8-----|
-0-0-0-0-0-0--0000-0-12--0-0-0-0-0-0----------------------------|
   * * * * *  **** *       * * * * *


L
---------------------------------------------------------------|
--------------------------------------------_------------------|
-------------------------------------------/ \-----_-----------|
-0-----------------------0---------------12-8-0---/ \------PH--|
-0-0-0-0-0-0--0000-0---)-0-0-0-0-0-0------------12-8-0--0--8---|
-0-0-0-0-0-0--0000-0--7--0-0-0-0-0-0--------------------0------|
   * * * * *  **** *       * * * * *                    *
R
---------------------------------------------------------------|
--------------------------------------------_------------------|
-------------------------------------------/ \-----_-----------|
-0-----------------------0---------------12-8-0---/ \------PH--|
-0-0-0-0-0-0--0000-0---)-0-0-0-0-0-0------------12-8-0--0--8---|
-0-0-0-0-0-0--0000-0-12--0-0-0-0-0-0--------------------0------|
   * * * * *  **** *       * * * * *                    *


L
------------------------------------------------------------|
--------------------------------------------_---------------|
-------------------------------------------/ \-----_--------|
-0-----------------------0----------------8-7-0---/ \--0----|
-0-0-0-0-0-0--0000-0---)-0-0-0-0-0-0-------------8-7-0-0----|
-0-0-0-0-0-0--0000-0--7--0-0-0-0-0-0-------------------0-|--|
   * * * * *  **** *       * * * * *
R
-------------------------------------------------------------|
--------------------------------------------_----------------|
-------------------------------------------/ \-----_---------|
-0-----------------------0----------------8-7-0---/ \--0-----|
-0-0-0-0-0-0--0000-0---)-0-0-0-0-0-0-------------8-7-0-0-----|
-0-0-0-0-0-0--0000-0-12--0-0-0-0-0-0-------------------0-|---|
   * * * * *  **** *       * * * * *



1:05

B
-------------------------------------------------------^--------__--------|
------------------------__----------^-----------^----11-10-----/  \-------|
-----------------__----/  \-------10-12-------14-10-------12-10-12-10-----|
-------0---7----/  \--8-10-8-10/12--------12-------------------------12/15|
8-10--------8--8-10-8-----------------------------------------------------|
-----0---0----0-------------------------0----0------0---------------------|
     *   *    *                         *    *      *
L
--------------------------------------------------------------------------|
--------------------------__-----------^-----------^----------------------|
-------------------__----/  \--------10-12-------14-10----7-7-71010-5-5-5-|
-------0---7------/  \--8-10-8-10/12---------12-----------X-X-X-X-X-X-X-X-|
8-10---------8---8-10-8-----------------------------------5-5-5-8-8-3-3-3-|
-----0---0-----0---------------------------0----0------0------------------|
     *   *     *                           *    *      *
R
---------------------------------------------------------------------------|
--------------------------__-----------^-----------^-----------------------|
-------------------__----/  \--------10-12-------14-10---101010-14-14-9-9-9|
-------0---7------/  \--8-10-8-10/12---------12-----------X-X-X--X--X-X-X-X|
8-10---------8---8-10-8-----------------------------------8-8-8-12-12-7-7-7|
-----0---0-----0---------------------------0----0------0-------------------|
     *   *     *                           *    *      *


1:14

L
------------------------------------------------------/\--------__--------|
------------------------__----------^-----------^---101110-----/  \-------|
-----------------__----/  \-------10-12-------14-10-------12-10-12-10-----|
-------0---7----/  \--8-10-8-10/12--------12-------------------------12/15|
8-10--------8--8-10-8-----------------------------------------------------|
-----0---0----0-------------------------0----0------0---------------------|
     *   *    *                         *    *      *
R
-------------------------------------------------------/\-----------------|
------------------------------------^----------15----131513-----/\--------|
-----------------------/\---------14-15----------14--------15-141514------|
--------12------/\---121412-14/15---------15-------------------------15/19|
12-13-8---12--121312------------------------------------------------------|
-----0-0----0---------------------------0----0------0---------------------|
     * *    *                           *    *      *

L
---------------------------------------------------------------------|
------------------------__----------^-----------^----10-10-10-13-13~\|
-----------------__----/  \-------10-12-------14-10------------------|
-------0---7----/  \--8-10-8-10/12--------12-------------------------|
8-10--------8--8-10-8------------------------------------------------|
-----0---0----0-------------------------0----0------0----------------|
     *   *    *                         *    *      *
R
---------------------------------------------------------------------|
------------------------------------^----------15----13-13-13-17-17~\|
-----------------------/\---------14-15----------14------------------|
--------12------/\---121412-14/15---------15-------------------------|
12-13-8---12--121312-------------------------------------------------|
-----0-0----0---------------------------0----0------0----------------|
     * *    *                           *    *      *


1:23

L
--------------------------------------------------5--5-5-5-|
----------------------------5-5-5-5--5-5--6--6-6--6--6-6-6-|
-------10-10-10-10-7-1010-7-5-5-5-5--5-5--5--5-5--5--5-5-5-|
-0-----12-12-12-12-8--8-8-5-3-3-3-3--3-3--3--3-3--3--3-3-3-|
-0-0-0-12-12-12-12-8--8-8-5-3-3-3-3--3-3--3--3-3--3--3-3-3-|
-0-0-0-12-12-12-12-8--8-8-5-3-3-3-3--3-3--3--3-3--3--3-3-3-|
   * *
R
--------------------------------------------------5--5-5-5-|
----------------------------5-5-5-5--5-5--6--6-6--6--6-6-6-|
-------10-10-10-10-7-1010-7-5-5-5-5--5-5--5--5-5--5--5-5-5-|
-0-----12-12-12-12-8--8-8-5-3-3-3-3--3-3--3--3-3--3--3-3-3-|
-0-0-0-12-12-12-12-8--8-8-5-3-3-3-3--3-3--3--3-3--3--3-3-3-|
-0-0-0-12-12-12-12-8--8-8-5-3-3-3-3--3-3--3--3-3--3--3-3-3-|
   * *

L
-----------------------------------------------------------|
-----------------------------------------------------------|
-------10-10-10-10-7-10-101010-101010-14-14-14-5-5-5-9-9-9-|
-0-----12-12-12-12-8--8--8-8-8--X-X-X--X--X--X-X-X-X-X-X-X-|
-0-0-0-12-12-12-12-8--8--8-8-8--8-8-8-12-12-12-3-3-3-7-7-7-|
-0-0-0-12-12-12-12-8--8--8-8-8-----------------------------|
   * *
R
------------------------------------------------------------|
------------------------------------------------------------|
-------10-10-10-10-7-10-101010--7-7-7-101010-5-5-5-12-12-12-|
-0-----12-12-12-12-8--8--8-8-8--X-X-X--X-X-X-X-X-X--X--X--X-|
-0-0-0-12-12-12-12-8--8--8-8-8--5-5-5--8-8-8-3-3-3-10-10-10-|
-0-0-0-12-12-12-12-8--8--8-8-8------------------------------|
   * *

L
-------------------------------------------------5--5-5-5-|
---------------------------5-5-5-5--5-5--6--6-6--6--6-6-6-|
------10-10-10-10-7-1010-7-5-5-5-5--5-5--5--5-5--5--5-5-5-|
------12-12-12-12-8--8-8-5-3-3-3-3--3-3--3--3-3--3--3-3-3-|
-0--0-12-12-12-12-8--8-8-5-3-3-3-3--3-3--3--3-3--3--3-3-3-|
-0--0-12-12-12-12-8--8-8-5-3-3-3-3--3-3--3--3-3--3--3-3-3-|
 *  *
R
-------------------------------------------------5--5-5-5-|
---------------------------5-5-5-5--5-5--6--6-6--6--6-6-6-|
------10-10-10-10-7-1010-7-5-5-5-5--5-5--5--5-5--5--5-5-5-|
------12-12-12-12-8--8-8-5-3-3-3-3--3-3--3--3-3--3--3-3-3-|
-0--0-12-12-12-12-8--8-8-5-3-3-3-3--3-3--3--3-3--3--3-3-3-|
-0--0-12-12-12-12-8--8-8-5-3-3-3-3--3-3--3--3-3--3--3-3-3-|
 *  *

L
---------------------------------------------------------------|
---------------------------------------------------------------|
--------10-10-10-10-7-10-101010-101010-14-14-14-5-5-5-9-9-9-10-|
--------12-12-12-12-8--8--8-8-8--X-X-X--X--X--X-X-X-X-X-X-X-X--|
000-000-12-12-12-12-8--8--8-8-8--8-8-8-12-12-12-3-3-3-7-7-7-8--|
000-000-12-12-12-12-8--8--8-8-8-----------------------------0--|
*** ***
R
---------------------------------------------------------------|
---------------------------------------------------------------|
--------10-10-10-10-7-10-101010--7-7-7-101010-5-5-5-12-12-12-7-|
--------12-12-12-12-8--8--8-8-8--X-X-X--X-X-X-X-X-X--X--X--X-X-|
000-000-12-12-12-12-8--8--8-8-8--5-5-5--8-8-8-3-3-3-10-10-10-5-|
000-000-12-12-12-12-8--8--8-8-8------------------------------0-|
*** ***



1:43

1
-------------------------------------------------------------|
-------------------------------------------------------------|
10-10-10-10101010-10-10-1010--5--5--5--5-5-5-5--5--5--5-5----|
-X--X--X--X-X-X-8--8--8--8-8--3--3--3--3-3-3-X--X--X--X-X----|
-8--8--8--8-8-8-8--8--8--8-8--3--3--3--3-3-3-3--3--3--3-3----|
-0--0--0--0-0-0-8--8--8--8-8-\3--3--3--3-3-3-2--2--2--2-2-/--|

2
-------------------------------------------------------------------|
----13---------13--11--11-10-10-11-10----13------------------------|
--10-----12--12------------------------10--10--10--1210-12-14-1210-|
12---------10----12--12---------------10-----10-----X-X--X--X--X-X-|
---------------------------------------------------10-8-10-12-10-8-|
-------------------------------------------------------------------|


1
--------------------------------------------------------------|
--------------------------------------------------------------|
10-10-10-10101010-10-10-1010--5--5--5--5-5-5-5-5-5-5-5-5-5-5--|
-X--X--X--X-X-X-8--8--8--8-8--3--3--3--3-3-3-X-X-X-X-X-x-x-x--|
-8--8--8--8-8-8-8--8--8--8-8--3--3--3--3-3-3-3-3-3-3-3-3-3-3--|
-0--0--0--0-0-0-8--8--8--8-8-\3--3--3--3-3-3-2-2-2-2-2-2-2-2--|
                                               * * * *
2
-------------------------------------------------------------------|
----13---------13--11--11-10-10-11-10----13------------------------|
--10-----12--12------------------------10--10--10--1210-12-14-1210-|
12---------10----12--12---------------10-----10-----X-X--X--X--X-X-|
---------------------------------------------------10-8-10-12-10-8-|
-------------------------------------------------------------------|



1
----------------------------^-------------------------------|
------13-10101013-10-13-1011-10-----------------------------|
10-10-10-10101010-10-10-1010-10--5--5--5--5-5-5--5--5--5-5--|
-x--X--X--X-X-X-8--8--8--8-8--8--3--3--3--3-3-X--X--X--X-X--|
-8--8--8--8-8-8-8--8--8--8-8--8--3--3--3--3-3-3--3--3--3-3--|
-0--0--0--0-0-0-8--8--8--8-8--8-\3--3--3--3-3-2--2--2--2-2-/|

2
-------------------------------------------------------------|
-------------------------------------------------------------|
10-10-10-10101010-10-10-1010--5--5--5--5-5-5-5--5--5--5-5----|
-X--X--X--X-X-X-8--8--8--8-8--3--3--3--3-3-3-X--X--X--X-X----|
-8--8--8--8-8-8-8--8--8--8-8--3--3--3--3-3-3-3--3--3--3-3----|
-0--0--0--0-0-0-8--8--8--8-8-\3--3--3--3-3-3-2--2--2--2-2-/--|

1
----------------------------^-----------------------------------|
------13-10101013-10-13-1011-10---------------------------------|
10-10-10-10101010-10-10-1010-10--5--5--5--5-5---5-5-5-5-5-5-5-5-|
-x--X--X--X-X-X-8--8--8--8-8--8--3--3--3--3-3---X-X-X-X-X-X-X-X-|
-8--8--8--8-8-8-8--8--8--8-8--8--3--3--3--3-3-0-3-3-3-3-3-3-3-3-|
-0--0--0--0-0-0-8--8--8--8-8--8-\3--3--3--3-3-0-2-2-2-2-2-2-2-2-|
                                              *   * * * *
2
------------------------------------------------------------------------|
------------------------------------------------------------------------|
10-10-10-10101010-10-10-1010--14-14-14-14-14---12--12-12-12-12-12-12-12-|
-X--X--X--X-X-X-8--8--8--8-8--12-12-12-12-12---10--10-10-10-10-10-10-10-|
-8--8--8--8-8-8-8--8--8--8-8--12-12-12-12-12-0-10--10-10-10-10-10-10-10-|
-0--0--0--0-0-0-8--8--8--8-8--12-12-12-12-12-0-10--10-10-10-10-10-10-10-|
                                             *      *  *  *  *


2:15

1
      _
     / \
----5-6-5----------------------------------^----------------------------|
-^-6-----6--------------------13---11----10-11-13-----------------------|
5-7-------5/7-10-10--10-10-10---------------------10--10-10-/14-14-15-15|
---------------------------------8----8---------------------------------|
------------------------------------------------------------------------|
------------------------------------------------------------------------|
                                 *    *
2
-5-5-5-5-5--5-5-5-5-5--5-5-5-5---------------------------------|
-6-6-6-6-6--6-6-6-6-6--6-6-6-6---------------------------------|
-7-7-7-7-7--7-7-7-7-7--7-7-7-7-1010101010-1010101010-10101010--|
-0-0-0-0-0--0-0-0-0-0--0-0-0-0--8-8-8-8-8--8-8-8-8-8--8-8-8-8--|
-0-0-0-0-0--0-0-0-0-0--0-0-0-0--8-8-8-8-8--8-8-8-8-8--8-8-8-8--|
-0-0-0-0-0--0-0-0-0-0--0-0-0-0--8-8-8-8-8--8-8-8-8-8--8-8-8-8--|



2:18

1                                              ^
---------------------------------------------12-13-/19--------------__----|
-----------------------8-10-8-10/13--^--13-15---------20~18-17-----/  \---|
----------------10-9-10------------12-14----------------------19-17-19-17-|
------7-8-7-8-10----------------------------------------------------------|
8-7-8---------------------------------------------------------------------|
--------------------------------------------------------------------------|
* * * * * *

2
---------------------------------------------------------------------------|
---------------------------------------------------------------------------|
5-5-5-5-5--5-5-5-5-5--5-5-5-5--12-12-12-12-12--12-12-12-12-12--12-12-12-12-|
3-3-3-3-3--3-3-3-3-3--3-3-3-3--10-10-10-10-10--10-10-10-10-10--10-10-10-10-|
3-3-3-3-3--3-3-3-3-3--3-3-3-3--10-10-10-10-10--10-10-10-10-10--10-10-10-10-|
3-3-3-3-3--3-3-3-3-3--3-3-3-3--10-10-10-10-10--10-10-10-10-10--10-10-10-10-|



2:23
1
----------------------__-------------------------------------------------|
----------__---------/  \--------__------------------/\------------------|
---------/  \------14-15-14-----/  \---------------101210-----/\------^--|
15--15-17151715--15--------15-14-15-14--------10-12------12-101210---787-|
--17-----------17---------------------15-12-13--------------------13----8|
-------------------------------------------------------------------------|

2
-5-5-5-5-5--5-5-5-5-5--5-5-5-5---------------------------------|
-6-6-6-6-6--6-6-6-6-6--6-6-6-6---------------------------------|
-7-7-7-7-7--7-7-7-7-7--7-7-7-7-1010101010-1010101010-10101010--|
-0-0-0-0-0--0-0-0-0-0--0-0-0-0--8-8-8-8-8--8-8-8-8-8--8-8-8-8--|
-0-0-0-0-0--0-0-0-0-0--0-0-0-0--8-8-8-8-8--8-8-8-8-8--8-8-8-8--|
-0-0-0-0-0--0-0-0-0-0--0-0-0-0--8-8-8-8-8--8-8-8-8-8--8-8-8-8--|


2:27

1
----------------------------------------------------------------------|
----------------_---------_----------------------_----------__-----^--|
-------^---^---/ \---^---/ \---^--------^---^---/ \---^----/  \--10-0-|
--^--10-0-8-0-7-8-0-7-0-5-7-5-3-0--^--10-0-8-0-7-8-0-7-0-10-12-0------|
-5-0------------------------------8-0---------------------------------|
----------------------------------------------------------------------|

2
-----------------------------------------------------------------|
-----------------------------------------------------------------|
5-5-5-5-5--5-5-5-5-5--5-5-5-5--12-12-12-12-12--12-12-12-12-12----|
3-3-3-3-3--3-3-3-3-3--3-3-3-3--10-10-10-10-10--10-10-10-10-10----|
3-3-3-3-3--3-3-3-3-3--3-3-3-3--10-10-10-10-10--10-10-10-10-10--\-|
3-3-3-3-3--3-3-3-3-3--3-3-3-3--10-10-10-10-10--10-10-10-10-10--\-|


2:31

1
----------------------------------------------------------------------|
----------------_---------_----------------------_----------__-----^--|
-------^---^---/ \---^---/ \---^--------^---^---/ \---^----/  \--10-0-|
--^--10-0-8-0-7-8-0-7-0-5-7-5-3-0--^--10-0-8-0-7-8-0-7-0-10-12-0------|
-8-0------------------------------8-0---------------------------------|
----------------------------------------------------------------------|
2
----------------------------------------------------------------------|
----------------------------------------------------------------------|
----------------------------------------------------------------------|
----------------------------------------------------------------------|
-0------------------------------0-0000-0--------------------00-0-00-0-|
-0------------------------------0-0000-0--------------------00-0-00-0-|
 *                              * **** *                    ** * ** *


L
------------------------------------^---------8----6-6-6-10-10-8-8-----|
----------------_---------_--------6-5-8/10------------------------6-6-|
-------^---^---/ \---^---/ \---^---------------------------------------|
--^--10-0-8-0-7-8-0-7-0-5-7-5-3-0--------------------------------------|
-8-0-------------------------------------------------------------------|
--------------------------------------------0----0---------------------|
                                            *    *
R
------------------------------------------------------------------------|
------------------------------------^--------10----8-8-8-11-11-10-10----|
-----------------------------------7-5-9/10--------------------------7-7|
------------------------------------------------------------------------|
-------------------------0----------------------------------------------|
-------------------------0------------------0---0-----------------------|
                         *                  *   *


1
----------------------------------------------------------------------|
----------------_---------_----------------------_----------__-----^--|
-------^---^---/ \---^---/ \---^--------^---^---/ \---^----/  \--10-0-|
--^--10-0-8-0-7-8-0-7-0-5-7-5-3-0--^--10-0-8-0-7-8-0-7-0-10-12-0------|
-8-0------------------------------8-0---------------------------------|
----------------------------------------------------------------------|
2
----------------------------------------------------------------------|
----------------------------------------------------------------------|
----------------------------------------------------------------------|
----------------------------------------------------------------------|
-0------------------------------0-0000-0--------------------00-0-00-0-|
-0------------------------------0-0000-0--------------------00-0-00-0-|
 *                              * **** *                    ** * ** *


L
------------------------------------^---------8----6-6-6-10-10----------|
----------------_---------_--------6-5-8/10--------------------8-8-11-11|
-------^---^---/ \---^---/ \---^----------------------------------------|
--^--10-0-8-0-7-8-0-7-0-5-7-5-3-0---------------------------------------|
-8-0--------------------------------------------------------------------|
--------------------------------------------0---0-----------------------|
                                            *   *
R
--------------------------------------------------------------10-10-13-13-|
------------------------------------^--------10----8-8-8-11-11------------|
-----------------------------------7-5-9/10-------------------------------|
--------------------------------------------------------------------------|
-------------------------0------------------------------------------------|
-------------------------0------------------0---0-------------------------|
                         *                  *   *



1
----------------------------------------------------------------------|
----------------_---------_----------------------_----------__-----^--|
-------^---^---/ \---^---/ \---^--------^---^---/ \---^----/  \--10-0-|
--^--10-0-8-0-7-8-0-7-0-5-7-5-3-0--^--10-0-8-0-7-8-0-7-0-10-12-0------|
-8-0------------------------------8-0---------------------------------|
----------------------------------------------------------------------|

2
----------------------------------------------------------------|
----------------------------------------------------------------|
----------------------------------------------------------------|
----------------------------------------------------------------|
----------------------------------------------------------------|
1212-00-1212-00-1212-00-1212-00-1212-00-1212-00-1212-00-1212-00-|
 * * **  * * **  * * **  * * **  * * **  * * **  * * **  * * **

L
------------------------------------^---------8----6-6-6-10-10-8-8-----|
----------------_---------_--------6-5-8/10------------------------6-6-|
-------^---^---/ \---^---/ \---^---------------------------------------|
--^--10-0-8-0-7-8-0-7-0-5-7-5-3-0--------------------------------------|
-8-0-------------------------------------------------------------------|
--------------------------------------------0----0---------------------|
                                            *    *

R
------------------------------------------------------------------------|
------------------------------------^--------10----8-8-8-11-11-10-10----|
-----------------------------------7-5-9/10--------------------------7-7|
------------------------------------------------------------------------|
------------------------------------------------------------------------|
-8-8-8-8-8-8-8-8-8-8-8-8-8-8-8-8------------0---0-----------------------|
 * * * * * * * * * * * * * * * *            *   *

1
----------------------------------------------------------------------|
----------------_---------_----------------------_----------__-----^--|
-------^---^---/ \---^---/ \---^--------^---^---/ \---^----/  \--10-0-|
--^--10-0-8-0-7-8-0-7-0-5-7-5-3-0--^--10-0-8-0-7-8-0-7-0-10-12-0------|
-8-0------------------------------8-0---------------------------------|
----------------------------------------------------------------------|

2
----------------------------------------------------------------|
----------------------------------------------------------------|
----------------------------------------------------------------|
----------------------------------------------------------------|
----------------------------------------------------------------|
1212-00-1212-00-1212-00-1212-00-1212-00-1212-00-1212-00-1212-00-|
 * * **  * * **  * * **  * * **  * * **  * * **  * * **  * * **


L
------------------------------------^---------8----6-6-6-10-10----------|
----------------_---------_--------6-5-8/10--------------------8-8-11-11|
-------^---^---/ \---^---/ \---^----------------------------------------|
--^--10-0-8-0-7-8-0-7-0-5-7-5-3-0---------------------------------------|
-8-0--------------------------------------------------------------------|
--------------------------------------------0---0-----------------------|
                                            *   *
R
--------------------------------------------------------------10-10-13-13-|
------------------------------------^--------10----8-8-8-11-11------------|
-----------------------------------7-5-9/10-------------------------------|
--------------------------------------------------------------------------|
--------------------------------------------------------------------------|
-8-8-8-8-8-8-8-8-8-8-8-8-8-8-8-8------------0---0-------------------------|
 * * * * * * * * * * * * * * * *            *   *




1
-------------------------------------------------------------|
-------------------------------------------------------------|
-------_----^---------_----^--------_----^---------_-----^---|
--^---/ \--7-0---^---/ \--7-0--^---/ \--7-0---^---/ \--10-0--|
-8-0-7-8-0------8-0-7-8-0-----8-0-7-8-0------8-0-7-8-0-------|
-------------------------------------------------------------|

2
-------------------------------------------------------------|
-------------------------------------------------------------|
-------------------------------------------------------------|
-0-----------------------------------------------------------|
-0-----------------------------------------------------------|
-0-----------------------------------------------------------|

1
-------------------------------------------------------------|
-------------------------------------------------------------|
-------_----^---------_----^--------_----^---------_-----^---|
--^---/ \--7-0---^---/ \--7-0--^---/ \--7-0---^---/ \--10-0--|
-8-0-7-8-0------8-0-7-8-0-----8-0-7-8-0------8-0-7-8-0-------|
-------------------------------------------------------------|

2
-------------------------------------------------------------|
-------------------------------------------------------------|
-------------------------------------------------------------|
-8---------------------------3-------------------------------|
-8---------------------------3-------------------------------|
-8---------------------------3-------------------------------|


1
-------------------------------------------------------------------|
-------------------------------------------------------------------|
--------__----^---------__-----^---------__----^---------__-----^--|
---^---/  \--8-0---^---/  \--12-0---^---/  \--8-0---^---/  \--10-0-|
-12-0-8-12-0-----12-0-8-12-0------12-0-8-12-0-----12-0-8-12-0------|
-------------------------------------------------------------------|
2
---------------------------------------------------------------|
---------------------------------------------------------------|
---------------------------------------------------------------|
-0---------------------------------0---------------------------|
-0---------------------------------0---------------------------|
-0---------------------------------0---------------------------|


1
-------------------------------------------------------------------|
-------------------------------------------------------------------|
--------__----^---------__-----^---------__----^---------__-----^--|
---^---/  \--8-0---^---/  \--12-0---^---/  \--8-0---^---/  \--15-0-|
-12-0-8-12-0-----12-0-8-12-0------12-0-8-12-0-----12-0-8-12-0------|
-------------------------------------------------------------------|
2
-------------------------------------------------------------|
-------------------------------------------------------------|
-------------------------------------------------------------|
-8---------------------------3-------------------------------|
-8---------------------------3-------------------------------|
-8---------------------------3-------------------------------|




B
------------------------------------------|
------------------------------------------|
------------------------------------------|
------------------------------------------|
-0-0-0-0---0---0-0-0-0-0-0---0-0-0-0---0--|
-0-0-0-0---0---0-0-0-0-0-0---0-0-0-0---0--|
 * * * *   *   * * * * * *   * * * *   *

-----------------------------------------------------------|
-----------------------------------------------------------|
-----------------------------------------------------------|
-----------------------------------------------------------|
0-0-0-0-0-0---0---0-0-0-0-0-0---0-0-0-0---0---0-0---0-0-0--|
0-0-0-0-0-0---0---0-0-0-0-0-0---0-0-0-0---0---0-0---0-0-0--|
* * * * * *   *   * * * * * *   * * * *   *   * *   * * *

------------------------------------------|
------------------------------------------|
------------------------------------------|
------------------------------------------|
-0-0-0-0---0---0-0-0-0-0-0---0-0-0-0---0--|
-0-0-0-0---0---0-0-0-0-0-0---0-0-0-0---0--|
 * * * *   *   * * * * * *   * * * *   *

----------------------------------------------------|
----------------------------------------------------|
----------------------------------------------------|
----------------------------------------------0--7--|
0-0-0-0-0-0---0---0-0-0-0-0-0---0-0-0-0---0---0--7--|
0-0-0-0-0-0---0---0-0-0-0-0-0---0-0-0-0---0---0--7--|
* * * * * *   *   * * * * * *   * * * *   *


1
-------------------------------------------------------------|
-------------------------------------------------------------|
-------_----^---------_----^--------_----^---------_-----^---|
--^---/ \--7-0---^---/ \--7-0--^---/ \--7-0---^---/ \--10-0--|
-8-0-7-8-0------8-0-7-8-0-----8-0-7-8-0------8-0-7-8-0-------|
-------------------------------------------------------------|

2
-------------------------------------------------------------|
-------------------------------------------------------------|
-------------------------------------------------------------|
-------------------------------------------------------------|
-0-0-0-0---0---0-0-0-0-0-0---0-0-0-0---0-----------------0-0-|
-0-0-0-0---0---0-0-0-0-0-0---0-0-0-0---0-----------------0-0-|
 * * * *   *   * * * * * *   * * * *   *                 * *

1
-------------------------------------------------------------|
-------------------------------------------------------------|
-------_----^---------_----^--------_----^---------_-----^---|
--^---/ \--7-0---^---/ \--7-0--^---/ \--7-0---^---/ \--10-0--|
-8-0-7-8-0------8-0-7-8-0-----8-0-7-8-0------8-0-7-8-0-------|
-------------------------------------------------------------|

2
--------------------------------------------------------|
--------------------------------------------------------|
--------------------------------------------------------|
--------------------------------------------------------|
-8-8-8-8---8---8-8-8-8-8-8---0-0-0-0---0---0-0---0-0-0--|
-8-8-8-8---8---8-8-8-8-8-8---3-3-3-3---3---3-3---3-3-3--|
 * * * *   *   * * * * * *   * * * *   *   * *   * * *


1
-------------------------------------------------------------------|
-------------------------------------------------------------------|
--------__----^---------__-----^---------__----^---------__-----^--|
---^---/  \--8-0---^---/  \--12-0---^---/  \--8-0---^---/  \--10-0-|
-12-0-8-12-0-----12-0-8-12-0------12-0-8-12-0-----12-0-8-12-0------|
-------------------------------------------------------------------|

2
-------------------------------------------------------------|
-------------------------------------------------------------|
-------------------------------------------------------------|
-------------------------------------------------------------|
-0-0-0-0---0---0-0-0-0-0-0---0-0-0-0---0-----------------0-0-|
-0-0-0-0---0---0-0-0-0-0-0---0-0-0-0---0-----------------0-0-|
 * * * *   *   * * * * * *   * * * *   *                 * *

1
---------------------------------------------------------------------|
---------------------------------------------------------------------|
--------__----^---------__-----^---------__----^---------__-----^----|
---^---/  \--8-0---^---/  \--12-0---^---/  \--8-0---^---/  \--15-0-0-|
-12-0-8-12-0-----12-0-8-12-0------12-0-8-12-0-----12-0-8-12-0------0-|
-------------------------------------------------------------------0-|

2
-----------------------------------------------------------|
-----------------------------------------------------------|
-----------------------------------------------------------|
-------------------------------------------------------0---|
-8-8-8-8---8---8-8-8-8-8-8---0-0-0-0---0---0-0---0-0-0-0---|
-8-8-8-8---8---8-8-8-8-8-8---3-3-3-3---3---3-3---3-3-3-0-|-|
 * * * *   *   * * * * * *   * * * *   *   * *   * * *
comments
We did not receive enough feedback on this tab! Please rate:
print report bad tab
1 2 3 4 5
I want to post or [tab]
guest
You may want to rate the tab now too:
select rating
Please do not post tabs as comments. Select "correction" instead!