Oops, an error
Loading. Please wait.

Fault Line Tab

ver1
ver1

Whole song

Interactive

More versions @911Tabs.com
17,647 views 105 this week
4 commentsread comments
1 2 3 4 5
excellent!
x 9
Autoscroll
+/-
esc
set tempo
stop
Contributor
Tuning
B F# B E G# C#
Hey! There's an official Ultimate Guitar app which is ideal
for learning songs when you're away from computer. Get the app
WARNING: You are trying to view
                                    content from Ultimate-Guitar.com
                                    in an unauthorized application,
                                    which is prohibited.

                                    Please use an official Ultimate
                                    Guitar Tabs application for iPhone,
                                    iPad or Android to access legitimate
                                    chords, guitar, bass, and drum tabs
                                    from Ultimate-Guitar.com database.

                                    Type "ultimate guitar tabs" in Apple
                                    App Store's or Android Market's
                                    search to find the application.

AUGUST BURNS RED

FAULT LINE

B-F#-B-E-G#-C#

TABBED BY andherembrace




-------------------------------------------------------------------|
---------13----------------13-------------10-----------------------|
---14----------------14-------14-----10------10------10----9-12/14-|
12----12----14/15-12----12-------7/8----8-------8/10----10---------|
-------------------------------------------------------------------|
-------------------------------------------------------------------|




1
-------------------------------------------------------------------|
---------13----------------13-------------10-----------------------|
---14----------------14-------14-----10------10------10----9-12/14-|
12----12----14/15-12----12-------7/8----8-------8/10----10---------|
-------------------------------------------------------------------|
-------------------------------------------------------------------|

2
-------------------------------------------------------------------|
-------------------------------------------------------------------|
-------------------------------------------------------------------|
-0---------------------------8----------------10-------------------|
-0---------------------------8----------------10----------------\--|
-0---------------------------8----------------10----------------\--|





0:17


1
-------------------------------------------------------------------|
---------13----------------13-------------10-----------------------|
---14----------------14-------14-----10------10------10----9-12/14-|
12----12----14/15-12----12-------7/8----8-------8/10----10---------|
-------------------------------------------------------------------|
-------------------------------------------------------------------|
2
----------------------------------------------------------------------------|
----------------------------------------------------------------------------|
----------------------------------------------------------------------------|
------0-----------0------0------8--------8---------------10------10---------|
0-000-0-00-0-0000-0-0000-0-0000-8-888-88-8-8888-10101010-10-1010-10-10101010|
0-000-0-00-0-0000-0-0000-0-0000-8-888-88-8-8888-10101010-10-1010-10-10101010|
* *** U ** * **** U **** U **** U *** ** U ****  * * * *  U  * *  U  * * * * 






1
-------------------------------------------------------------------|
---------13----------------13-------------10-----------------------|
---14----------------14-------14-----10------10------10----9-12/14-|
12----12----14/15-12----12-------7/8----8-------8/10----10---------|
-------------------------------------------------------------------|
-------------------------------------------------------------------|

2
----------------------------------------------------------------------------|
----------------------------------------------------------------------------|
----------------------------------------------------------------------------|
------0-----------0------0------8--------8---------------10------10---------|
0-000-0-00-0-0000-0-0000-0-0000-8-888-88-8-8888-10101010-10-1010-10-10101010|
0-000-0-00-0-0000-0-0000-0-0000-8-888-88-8-8888-10101010-10-1010-10-10101010|
* *** U ** * **** U **** U **** U *** ** U ****  * * * *  U  * *  U  * * * * 







0:34


--------------------------------------------------------------------|
----------------------------------------------------------10-8------|
---------------------------------------------------------------10-9-|
-8---0---0----^----------9----^---8---5---5----^--------------------|
-------------0-8---0---0---7-5-7--------------5-8---7---7-----------|
---0---0---0-----0---0--------------5---5---5-----5---5-------------|
   *   *   *     *   *              *   *   *     *   * 

-------------------------------------------------5-6-5-----------|
---------------------------------------------5-6-------6-5-------|
--------------------------------------^--6-7---------------7-6---|
-8---0---0----^----------9----^---^--578-----------------------7-|
-------------0-8---0---0---7-5-7-578-----------------------------|
---0---0---0-----0---0-------------------------------------------|
   *   *   *     *   *           






0:44

1
-------------------------------------------------------------------|
---------------------------------------------------------10-8------|
--------------------------------------------------------------10-9-|
-8---0---0----^----------9----^--8---5---5----^--------------------|
-------------0-8---0---0---7-5-7-------------5-8---7---7-----------|
---0---0---0-----0---0-------------5---5---5-----5---5-------------|
   *   *   *     *   *             *   *   *     *   * 

2
------------------------------------------------------------------|
---------------------------------------------------------6-5------|
-------------------------------------------------------------7-6--|
-----7-7-----7-7-----7------8-8-----5-5-----5-5-------------------|
-5-5-----5-5-----0-0---0577-------------------------7-------------|
--------------------------------5-5-----5-5-----7-7---77----------|
 * *     * *     * *   ****     * *     * *     * *   **



1
-------------------------------------------------5-6-5-----------|
---------------------------------------------5-6-------6-5-------|
--------------------------------------^--6-7---------------7-6---|
-8---0---0----^----------9----^---^--578-------------------------|
-------------0-8---0---0---7-5-7-578-----------------------------|
---0---0---0-----0---0-------------------------------------------|
   *   *   *     *   *           

2
----------------------------------------------------------------|
--------------------------------------------5-6-6-8-6-----------|
-------------------------------------^--6-7-----------7-6-------|
-----7-7-----7-7-----7------8-8--^--578-------------------8-7---|
-5-5-----5-5-----0-0---0577-----578-----------------------------|
----------------------------------------------------------------|
 * *     * *     * *   ****     





1
---------------------------------------|
---------------------------------------|
-10-----10-----------10-----10-----9\--|
---------------12----------------------|
---------------------------------------|
----0-0----0-0----0-----0-0----0-0-----|
    * *    * *    *     * *    * *
2
---------------------------------------|
---------------------------------------|
-7-----7---------7-----7-----6\--------|
-------------8-------------------------|
---------------------------------------|
---0-0---0-0---0---0-0---0-0-----------|
   * *   * *   *   * *   * *






0:52


1
--------------------------------------------------|
--------------------------------------------------|
--------------------------------------------------|
-------7-----------7-----------5-----------5------|
-8-5-8---8-5-8-5-8---8-5-7-4-7---7-4-7-4-7---7-4--|
--------------------------------------------------|
     *           *           *           *
2
--------------------------------------------------|
--------------------------------------------------|
--------------------------------------------------|
--------------------------------------------------|
000---0-000-000---0-000---222---2-222-222---2-222-|
000---0-000-000---0-000---222---2-222-222---2-222-|
***   * *** ***   * ***   ***   * *** ***   * ***



1
--------------------------------------------------------|
--------------------------------------------------------|
-------------------------------------------------6-9-6--|
---------8--------------8------------7------^--7--------|
-10-7-10---10-7-10-7-10---10-7-8-5-8---8-5-5-8----------|
--------------------------------------------------------|
       *              *            *
2
--------------------------------------------------------|
--------------------------------------------------------|
--------------------------------------------------6-----|
-------------------------------------------^----8---7---|
555----5-555-555----5-555----000----0-000-0-5-8---------|
555----5-555-555----5-555----000----0-000---------------|
***    * *** ***    * ***    ***    * ***






1
--------------------------------------------------|
--------------------------------------------------|
--------------------------------------------------|
-------7-----------7-----------5-----------5------|
-8-5-8---8-5-8-5-8---8-5-7-4-7---7-4-7-4-7---7-4--|
--------------------------------------------------|
     *           *           *           *
2
--------------------------------------------------|
--------------------------------------------------|
--------------------------------------------------|
--------------------------------------------------|
000---0-000-000---0-000---222---2-222-222---2-222-|
000---0-000-000---0-000---222---2-222-222---2-222-|
***   * *** ***   * ***   ***   * *** ***   * ***



1
--------------------------------------------------------|
--------------------------------------------------------|
-------------------------------------------------6-9/12-|
---------8--------------8------------7------^--7--------|
-10-7-10---10-7-10-7-10---10-7-8-5-8---8-5-5-8----------|
--------------------------------------------------------|
       *              *            *
2
--------------------------------------------------------|
--------------------------------------------------------|
----------------------------------------------------6/9-|
--------------------------------------------^----8------|
555----5-555-555----5-555----000----0-000--0-5-8--------|
555----5-555-555----5-555----000----0-000---------------|
***    * *** ***    * ***    ***    * ***






1:09


1
---------------------------------__-------------------------------------PH-|
--------------------------------/  \-----------------------------11-10~-10~|
-----------^---10~--------^---10-12-10---------10-12-14-12-10-12-----------|
12~---^--10-12-------^--10-12---------12-10-12-----------------------------|
----10-12----------10-12---------------------------------------------------|
---------------------------------------------------------------------------|

2
--------------------------------------------------------------------------|
--------------------------------------------------------------------------|
--------------------------------------------------------------------------|
-0------0--0000-8------8--8888------10---10-10-----10---10-10-----12------|
-0------0--0000-8------8--8888------10---10-10-----10---10-10-----12------|
-0------0--0000-8------8--8888------10---10-10-----10---10-10-----12------|





1:16

1                                            _____
                           __               /     \
----17-13-----------15----/  \---13/15-17-22-18-17-15---^------------|
15~-------17------------13-15-17----------------------17-18-15~------|
-------------14/15~--------------------------------------------------|
----------------------------------------------------------------[15]-|
---------------------------------------------------------------------|
---------------------------------------------------------------------|
                                           T

2
-------------------------------------------------------------------------|
-------------------------------------------------------------------------|
-------------------------------------------------------------------------|
-------------------------------------------------------------------------|
-000--0-000-000--0-000--888--8-888-888--8-888--101010--10-101010-101010--|
-000--0-000-000--0-000--888--8-888-888--8-888--101010--10-101010-101010--|
 ***  * *** ***  * ***  ***  * *** ***  * ***   * * *   *  * * *  * * * 
CONT.
--------------------------------------|
--------------------------------------|
--------------------------------------|
-------------------------------12-----|
10-101010-121212-121212-121212-12---\-|
10-101010-121212-121212-121212-12---\-|
 *  * * *  * * *  * * *  * * * 








1:24

---------------------------------------------------------------|
---------------------------------------------------------------|
-10----------10-----------9------10----------10----------5-----|
-12-12121212-12-12121010-10-1010-12-12121212-12-12121212-7-----|
---------------------------------------------------------------|
---------------------------------------------------------------|
     * * * *     * * * *     * *     * * * *     * * * * 


---------------------------------------------------------------------|
---------------------------------------------------------------------|
---------------------------------------------------------------------|
---------------------------------------------------------------------|
-8-----8-----------8-----8----------8-----8----------8-----8-----12--|
---0-0---0-0-12-0----0-0---0-0-12-0---8-8---8-8-12-8---8-8---8-8----8|
   * *   * *    *    * *   * *    *   * *   * *    *   * *   * *    *


----------------------------------------|
----------------------------------------|
----------------------------------------|
----------------------------------------|
8------8------------8------8------12----|
--1010---1010-12-10---1010---1010----10-|
   * *    * *     *    * *    * *     *



---------------------------------------------------------------|
---------------------------------------------------------------|
-10----------10-----------9------10----------10----------5-----|
-12-12121212-12-12121010-10-1010-12-12121212-12-12121212-7-----|
---------------------------------------------------------------|
---------------------------------------------------------------|
     * * * *     * * * *     * *     * * * *     * * * * 





1:36


1
-------------------------------------------------------------------------|
-------------------------------------------------------------------------|
-------------------------------------------------------------------------|
-------------------------------------------------------------------------|
-8-----8-----------8-----8----------8-----8----------8---8-10-12-10-8----|
---0-0---0-0-12-0----0-0---0-0-12-0---8-8---8-8-12-8---8--------------12-|
   * *   * *    *    * *   * *    *   * *   * *    *   * 



2
-----------------------------------------------------------------------|
-----------------------------------------------------------------------|
-----------------------------------------------------------------------|
-7-----7----------7-----7-----------7-----7---------7----7-8-10-8-7----|
-------------8-----------------8----------------8-------------------10-|
---0-0---0-0----0----0-0---0-0----0---8-8---8-8---8---8----------------|
   * *   * *    *    * *   * *    *   * *   * *   *   *




1
----------------------------------------|
----------------------------------------|
----------------------------------------|
----------------------------------------|
8------8------------8------8------12----|
--1010---1010-12-10---1010---1010----10-|
   * *    * *     *    * *    * *     *

2
---------------------------------------|
---------------------------------------|
---------------------------------------|
-7-----7-----------7------7------10----|
--------------8------------------------|
--1010---1010---10---1010---1010----10-|
   * *    * *    *    * *    * *     *


---------------------------------------------------------------|
---------------------------------------------------------------|
-10----------10-----------9------10----------10----------5-----|
-12-12121212-12-12121010-10-1010-12-12121212-12-12121212-7-----|
---------------------------------------------------------------|
---------------------------------------------------------------|
     * * * *     * * * *     * *     * * * *     * * * * 





1:45


1
----------------------------------------------------------|
----------^-------------^-------------^-------------^-----|
---10----9-10----10----9-10----10----9-10----10----9-10---|
12----12------12----12------12----12------12----12--------|
----------------------------------------------------------|
----------------------------------------------------------|
 *     *       *     *       *     *       *     *
2
---------------------------------------------------------|
---------------------------------------------------------|
------------^--------------^------------^------------^---|
-----7----10-7-----7-----10-7----7----10-7----7----10-7--|
-5-----5--------5-----5-------5----5-------5----5--------|
---------------------------------------------------------|
 *     *        *     *       *    *       *    *


1
----------------------------------------------------------|
----------^-------------^-------------^-------------^-----|
---10----9-10----10----9-10----10----9-10----10----9-10---|
-8-----8-------8-----8------10----10------10----10--------|
----------------------------------------------------------|
----------------------------------------------------------|
 *     *       *     *       *     *       *     *
2
---------------------------------------------------------|
---------------------------------------------------------|
------------^--------------^------------^------------^---|
-----7----10-7-----7-----10-7----7----10-7----7----10-7--|
-5-----5--------5-----5-------5----5-------5----5--------|
---------------------------------------------------------|
 *     *        *     *       *    *       *    *



1
----------------------------------------------------------|
----------^-------------^-------------^-------------^-----|
---10----9-10----10----9-10----10----9-10----10----9-10---|
12----12------12----12------12----12------12----12--------|
----------------------------------------------------------|
----------------------------------------------------------|
 *     *       *     *       *     *       *     *

2
------------------------------------------------------------|
-----------^--------------^--------------^--------------^---|
---14----17-14----14----17-14----14----17-14----14----17-14-|
12----12-------12----12-------12----12-------12----12-------|
------------------------------------------------------------|
------------------------------------------------------------|
 *     *        *     *        *     *        *     *



1
----------------------------------------------------------|
----------^-------------^-------------^-------------^-----|
---10----9-10----10----9-10----10----9-10----10----9-10---|
-8-----8-------8-----8------10----10------10----10--------|
----------------------------------------------------------|
----------------------------------------------------------|
 *     *       *     *       *     *       *     *

2
------------------------------------------------------------|
-----------^--------------^--------------^--------------^---|
---14----17-14----14----17-14----14----17-14----14----17-14-|
12----12-------12----12-------12----12-------12----12-------|
------------------------------------------------------------|
------------------------------------------------------------|
 *     *        *     *        *     *        *     *







CLEAN FILL W/DELAY    OR 10'S 3RD AND 2ND STRINGS
------------------|----5--5-5-5-|
---6--6-6-6-------|--6----------|
-7----------------|-------------|
------------------|-------------|
------------------|-------------|
------------------|-------------|






2:23

---------------------------------------------------------------------|
---------------------------------------------------------------------|
---------------------------------------------------------------------|
---------------------------------------------------------------------|
-000-000-000---000-0-000-000---000-0-000-000-000-000---000-0-000-000-|
-000-000-000---000-0-000-000---000-0-000-000-000-000---000-0-000-000-|
 *** *** ***   *** * *** ***   *** * *** *** *** ***   *** * *** ***

---------------------------------------------------------------|
---------------------------------------------------------------|
---------------------------------------------------------------|
---------------------------------------------------------------|
-000-0-000-000-000-000---000-0-000-000---000-0-000-000-000-000-|
-000-0-000-000-000-000---000-0-000-000---000-0-000-000-000-000-|
 *** * *** *** *** ***   *** * *** ***   *** * *** *** *** ***






1
-----------------------------------------------------------------------|
-----------------------------------------------------------------------|
-----------------------------------------------------------------------|
-----------------------------------------------------------------------|
-000-0-000-000---000-0-000-000-000-000-----0-000-----0-000----0-000-000|
-000-0-000-000---000-0-000-000-000-000-----0-000-----0-000----0-000-000|
 *** * *** ***   *** * *** *** *** ***     * ***     * ***    * *** ***

2
-------------------------------------------------------------------------|
--------------------------6-----------6-----------6-----------6----------|
----------------------------------7------------7-----------7---------7---|
-------------------------------------------------------------------------|
-------------------------------------------------------------------------|
-------------------------------------------------------------------------|



1
----------------------------------------------------------|
----------------------------------------------------------|
----------------------------------------------------------|
----------------------------------------------------------|
-888-888-888-----8-888----10-101010-----10-101010-101010--|
-888-888-888-----8-888----10-101010-----10-101010-101010--|
 *** *** ***     * ***     *  * * *      *  * * *  * * *
2
----------------------------------------------------------|
-6-----------6-----------6-----------6--------------------|
---------7------------7-----------7---------7-------------|
----------------------------------------------------------|
----------------------------------------------------------|
----------------------------------------------------------|


1
----------------------------------------------|
----------------------------------------------|
----------------------------------------------|
----------------------------------------------|
-000-000-000-----0-000-----0-000----0-000-000-|
-000-000-000-----0-000-----0-000----0-000-000-|
 *** *** ***     * ***     * ***    * *** ***

2    OR 10'S (3RD AND 2ND STRINGS)
-5--------5---------5----------5--------------|
-------6---------6---------6----------6-------|
----------------------------------------------|
----------------------------------------------|
----------------------------------------------|
----------------------------------------------|


1
----------------------------------------------------------|
----------------------------------------------------------|
----------------------------------------------------------|
----------------------------------------------------------|
-888-888-888-----8-888----10-101010-----10-101010-101010--|
-888-888-888-----8-888----10-101010-----10-101010-101010--|
 *** *** ***     * ***     *  * * *      *  * * *  * * *

2    OR 10'S (3RD AND 2ND STRINGS)
-5--------5---------5----------5--------------|
-------6---------6---------6----------6-------|
----------------------------------------------|
----------------------------------------------|
----------------------------------------------|
----------------------------------------------|




-----------------------------|
-----------------------------|
-7-7-7-----------------------|
-7-7-7--------7-7-7---5-7----|
-5-5-5-0-000--7-7-7-0-5-7----|
-------0-000--7-7-7-0-5/7----|
       * ***





2:58


1
------------------------------------------------|
-----------^----------------------^-------------|
----10----9-10----10-------10----9-10----10-----|
-12----12------12----12-12----12------12----12--|
------------------------------------------------|
------------------------------------------------|
  *     *       *        *     *       *

2
-5-5----5---5---5---5-5-----5---5---5-----|
-6-6----6---6---6---6-6-----6---6---6-----|
-7-7----7---7---7---7-7-----7---7---7-----|
-0-0----0---0---0---0-0-----0---0---0-----|
-0-0----0---0---0---0-0-----0---0---0-----|
-0-0----0---0---0---0-0-----0---0---0-----|



1
------------------------------------------------|
-----------^----------------------^-------------|
----10----9-10----10-------10----9-10----10-----|
--8-----8-------8----8---8-----8-------8----8---|
------------------------------------------------|
------------------------------------------------|
  *     *       *        *     *       *
2
------------------------------------------------|
------------------------------------------------|
10-10---10--10--10--10-10---10--10--10----------|
10-10---10--10--10--10-10---10--10--10----------|
-8--8----8---8---8---8--8----8---8---8----------|
-8--8----8---8---8---8--8----8---8---8----------|



1
------------------------------------------------|
-----------^----------------------^-------------|
----10----9-10----10-------10----9-10----10-----|
-10----10------10----10-10---10-------10----10--|
------------------------------------------------|
------------------------------------------------|
  *     *       *        *     *       *
2
------------------------------------------------|
------------------------------------------------|
------------------------------------------------|
-14-14---14--14--14--14-14---14--14--14---------|
-10-10---10--10--10--10-10---10--10--10---------|
-10-10---10--10--10--10-10---10--10--10---------|



1
--------------------------------------------------|
---------------------------10----------11-10------|
----------10----10-9-10-------12-10-12-------10---|
-12-10-12----12---------12------------------------|
--------------------------------------------------|
--------------------------------------------------|

2
-----------------------------|
-----------------------------|
-7-7-7-----------------------|
-7-7-7--------7-7-7---5-7----|
-5-5-5-0-000--7-7-7-0-5-7----|
-------0-000--7-7-7-0-5/7----|
       * ***




1
------------------------------------------------|
-----------^----------------------^-------------|
----10----9-10----10-------10----9-10----10-----|
-12----12------12----12-12----12------12----12--|
------------------------------------------------|
------------------------------------------------|
  *     *       *        *     *       *

2
-5-5----5---5---5---5-5-----5---5---5-----|
-6-6----6---6---6---6-6-----6---6---6-----|
-7-7----7---7---7---7-7-----7---7---7-----|
-0-0----0---0---0---0-0-----0---0---0-----|
-0-0----0---0---0---0-0-----0---0---0-----|
-0-0----0---0---0---0-0-----0---0---0-----|



1
------------------------------------------------|
-----------^----------------------^-------------|
----10----9-10----10-------10----9-10----10-----|
--8-----8-------8----8---8-----8-------8----8---|
------------------------------------------------|
------------------------------------------------|
  *     *       *        *     *       *
2
------------------------------------------------|
------------------------------------------------|
10-10---10--10--10--10-10---10--10--10----------|
10-10---10--10--10--10-10---10--10--10----------|
-8--8----8---8---8---8--8----8---8---8----------|
-8--8----8---8---8---8--8----8---8---8----------|



1
------------------------------------------------|
-----------^----------------------^-------------|
----10----9-10----10-------10----9-10----10-----|
-10----10------10----10-10---10-------10----10--|
------------------------------------------------|
------------------------------------------------|
  *     *       *        *     *       *
2
------------------------------------------------|
------------------------------------------------|
------------------------------------------------|
-14-14---14--14--14--14-14---14--14--14---------|
-10-10---10--10--10--10-10---10--10--10---------|
-10-10---10--10--10--10-10---10--10--10---------|



1
-------------------------------------------|
---------------------------10--------------|
----------10----10-9-10-------12-10-9------|
-12-10-12----12---------12-----------------|
-------------------------------------------|
-------------------------------------------|

2
-----------------------------|
-----------------------------|
-7-7-7-----------------------|
-7-7-7--------7-7--7-7-------|
-5-5-5-0-000--7-7--7-7-------|
-------0-000--7-7--7-7-------|
       * ***





3:18


-------------------------------------------------------------------|
---------13----------------13-------------10-----------------------|
---14----------------14-------14-----10------10------10----9-12/14-|
12----12----14/15-12----12-------7/8----8-------8/10----10---------|
-------------------------------------------------------------------|
-------------------------------------------------------------------|


1
-------------------------------------------------------------------|
---------13----------------13-------------10-----------------------|
---14----------------14-------14-----10------10------10----9-12/14-|
12----12----14/15-12----12-------7/8----8-------8/10----10---------|
-------------------------------------------------------------------|
-------------------------------------------------------------------|
2

-5------------------5----------8------------------------------------|
-6------------------6----------8------------------------------------|
-7------------------7---------10----------------14------------------|
-0------------------0---------10----------------10------------------|
-0------------------0----------8----------------10------------------|
-0------------------0----------8----------------10------------------|





3:35


1
--------------------------------------------------------------|
----------------131313--------------------------131313--------|
------141414--------------------------141414----------141414--|
121212------1212------1414141515121212------1212--------------|
--------------------------------------------------------------|
--------------------------------------------------------------|

2
-5-55555555555555--------5-555555555555-----------------------------------|
-6-66666666666666--------6-666666666666-----------------------------------|
-7-77777777777777--------7-777777777777-----------------------------------|
-0-00000000000000--------0-000000000000-10101010101010101010101010101010--|
-0-00000000000000--0-0-0-0-000000000000--8-8-8-8-8-8-8-8-8-8-8-8-8-8-8-8--|
-0-00000000000000--0-0-0-0-000000000000--8-8-8-8-8-8-8-8-8-8-8-8-8-8-8-8--|
                   * * *

1
-------------------------------------------------------------|
--------------101010-----------------------------------------|
-----101010---------101010---------101010----999-121212-1414-|
77888------88-------------88-101010------1010----------------|
-------------------------------------------------------------|
-------------------------------------------------------------|

2
-------------------------------------|
-------------------------------------|
-------------------------------------|
----------14-14141414141414141414----|
-10-10-10-10-10101010101010101010----|
-10-10-10-10-10101010101010101010----|
  *  *  *


1
1
--------------------------------------------------------------|
----------------131313--------------------------131313--------|
------141414--------------------------141414----------141414--|
121212------1212------1414141515121212------1212--------------|
--------------------------------------------------------------|
--------------------------------------------------------------|

2
-5555555555555555--------55555555555555-----------------------------------|
-6666666666666666--------66666666666666-----------------------------------|
-7777777777777777--------77777777777777-----------------------------------|
-0000000000000000--------00000000000000-10101010101010101010101010101010--|
-0000000000000000--0-0-0-00000000000000--8-8-8-8-8-8-8-8-8-8-8-8-8-8-8-8--|
-0000000000000000--0-0-0-00000000000000--8-8-8-8-8-8-8-8-8-8-8-8-8-8-8-8--|
                   * * *

1
-------------------------------------------------------------|
--------------101010-----------------------------------------|
-----101010---------101010---------101010----999-121212-1414-|
77888------88-------------88-101010------1010----------------|
-------------------------------------------------------------|
-------------------------------------------------------------|


2
-------------------------------------|
-------------------------------------|
-------------------------------------|
-14141414141414141414141414141414----|
-10101010101010101010101010101010----|
-10101010101010101010101010101010----|
  



END FILL

1
-----------------------|
--------------__-------|
----14-------/  \------|
-12----12--14-15-14----|
-----------------------|
-----------------------|

2
-----------------------|
-----------------------|
-----------------------|
-0---------------------|
-0---------------------|
-0---------------------|
comments
print report bad tab
4 comments total. Showing first comments.
+1 reply
l0rdslayer wrote on May 17 2013, 12:16 pm

Surprisingly, this song is most definitely in Drop B, despite the majority of their previous songs being in C.

0 reply
P_Trik wrote on May 18 2013, 01:42 pm

Great work as usual andherembrace!

0 reply
jordan163 wrote on May 20 2013, 10:06 am

dude ive been waiting for someone to put the right tabs up for this song and i have to say that i most definitely know that i love abr for this reason.

I want to post or [tab]
guest
You may want to rate the tab now too:
select rating
Please do not post tabs as comments. Select "correction" instead!