Oops, an error
Loading. Please wait.

Meddler Tab

ver2
ver2

Whole song

More versions @911Tabs.com
20,088 views 27 this week
7 commentsread comments
1 2 3 4 5
accurate
x 8
Autoscroll
+/-
esc
set tempo
stop
Contributor
Difficulty
Tuning
intermediate
C G C F A D
Hey! There's an official Ultimate Guitar app which is ideal
for learning songs when you're away from computer. Get the app
WARNING: You are trying to view
                                    content from Ultimate-Guitar.com
                                    in an unauthorized application,
                                    which is prohibited.

                                    Please use an official Ultimate
                                    Guitar Tabs application for iPhone,
                                    iPad or Android to access legitimate
                                    chords, guitar, bass, and drum tabs
                                    from Ultimate-Guitar.com database.

                                    Type "ultimate guitar tabs" in Apple
                                    App Store's or Android Market's
                                    search to find the application.
[Meddler]
[Constellations]
[August Burns Red]

Watch the times, some things overlap.
See how many times each riff is played (No indication means 1)
Watch if each part has one guitar or two matching.
Symbols at bottum.

[Riff 1a] - [00:00] - [00:21]------------------------------------| 4x
- ---------------------------------------------------------------|
- ---------------------------------------------------------------|
- -----------7-------------------9-------------------10----------|
- -7-00-7-00---00-7-00-7-00-7-00---00-7-00-7-00-7-00----00-7-00--|
- ---------------------------------------------------------------|
- ---------------------------------------------------------------|
PM   ..   ..   ..   ..   ..   ..   ..   ..   ..   ..    ..   ..

- ----------------------------|----------------------------------|
- ----------------------------|----------(End With)--------------|
- ----------------------------|----------------------------------|
- -5h7p5p0-7-00-8-00-8h10p8p0-|-5h7p5p0-5h7p5p0-7h8p7p0-8h10p8p0-|
- ----------------------------|----------------------------------|
- ----------------------------|----------------------------------|
PM           ..   ..

[Riff 2] - [00:00] - [00:21]
- -----------------------------------------------------------------|
- -----------------------------------------------------------------|
- -----------------------------------------------------------------|
- -0---------------3--------------/8---------------5---------------|
- -0---------------3--------------/8---------------5---------------|
- -0---------------3--------------/8---------------5---------------|

- -----------------------------------------------------------------|
- -----------------------------------------------------------------|
- -----------------------------------------------------------------|
- -----------------------------------------------------------------|
- -0-0-0-0-0-0-0-0-3-3-3-3-3-3-3-3-8-8-8-8-8-8-8-8-5-5-5-5-///-----|
- -0-0-0-0-0-0-0-0-3-3-3-3-3-3-3-3-8-8-8-8-8-8-8-8-5-5-5-5-///-----|
PM .......................................................

- -----------------------------------------------------------------|
- -6-6-6-6-6-6-6-6-------------------------------------------------|
- -7-7-7-7-7-7-7-7-------------------------------------------------|
- -7-7-7-7-7-7-7-7-7-7-7-7-7-7-7-7-12121212121212128-8-8-8-8-8-8-8-|
- -5-5-5-5-5-5-5-5-3-3-3-3-3-3-3-3-8-8-8-8-8-8-8-8-5-5-5-5-5-5-5-5-|
- -----------------3-3-3-3-3-3-3-3-8-8-8-8-8-8-8-8-5-5-5-5-5-5-5-5-|

- -----------------------------------------------------------------|
- -6-6-6-6-6-6-6-6-------------------------------------------------|
- -7-7-7-7-7-7-7-7-------------------------------------------------|
- -7-7-7-7-7-7-7-7-7-7-7-7-7-7-7-7-12121212121212128-8-8-8-8-8-8-8-|
- -5-5-5-5-5-5-5-5-3-3-3-3-3-3-3-3-8-8-8-8-8-8-8-8-5-5-5-5-5-5-5-5-|
- -----------------3-3-3-3-3-3-3-3-8-8-8-8-8-8-8-8-5-5-5-5-5-5-5-5-|

----------------------------------------------------------------------------

[Riff 3] - [00:21] - [00:32]-------------------| 2x
- ------------8--------------------12----------|
- ------10-------------------10----------------|
- -9-10----10---10-9-10-9-10----10----10-9-10--|
- ---------------------------------------------|
- ---------------------------------------------|
- ---------------------------------------------|

- ------------8-------------------12-8-----|
- ------10----------------10-------------8-|
- -9-10----10---10-9-10-7----10-9------9---|
- -----------------------------------------|
- -----------------------------------------|
- -----------------------------------------|

[Riff 4] - [00:21] - [00:32]----------------------------------------| 2x
- ------------------------------------------------------------------|
- ------------------------------------------------------------------|
- ------------------------------------------------------------------|
- ------------------------------------------------------------------|
- ------------------------------------------------------------------|
- -0---------------3---------------8---------------5----------------|
PM ...............................................................
AP ...............................................................

----------------------------------------------------------------------------

[Riff 5] - [00:32] - [00:42]
- ------------------------------------------------------------------------|
- ------------------------------------------------------------------------|
- ---------------------------10---9-----------------------------10---[9~]-|
- ---------10-----12--------------------------10-----12-------------------|
- ------------------------------------------------------------------------|
- -000-0-0----0-0----0-0-000----0---0-000-0-0----0-0----0-0-000----0------|
PM .......    ...    .......    .   .........    ...    .......    .

- -------------------------------------------------------------------------|
- -------------------------------------------------------------------------|
- ---------------------------10---9----------------9-------12--------------|
- ---------10-----12-------------------------------------------------------|
- -------------------------------------------------------------------------|
- -888-8-8----8-8----8-8-888----8---8-101010-10-10---10-10----10-10-101010-|
PM .......    ...    .......    .   ..............   .....    ............

- -------------|
- -------10----|
- -12----------|
- -------------|
- -------------|
- ----10----10-|
PM    ..    ..

----------------------------------------------------------------------------

[Riff 6, Guitar 1 & 2] - [00:42] - [00:53]
- -----------------------------------------------------------------------|
- -----------------------------------------------------------------------|
- ---------------------------10---9-----------------------------10---9---|
- ---------10-----12--------------------------10-----12------------------|
- -----------------------------------------------------------------------|
- -000-0-0----0-0----0-0-000----0---0-000-0-0----0-0----0-0-000----0---0-|
PM .......    ...    .......    .   .........    ...    .......    .   .
-
- -----------------------------------------------------------------------|
- ---------------------------10---8-----------------------------10---8---|
- ---------9------10--------------------------9------10------------------|
- -----------------------------------------------------------------------|
- -----------------------------------------------------------------------|
- -000-0-0----0-0----0-0-000----0---0-000-0-0----0-0----0-0-000----0---0-|
PM .......    ...    .......    .   .........    ...    .......    .   .


- --------------------------------------------------------------------|
- --------------------------------------------------------------------|
- ---------------------------10---9-----------------------------------|
- ---------10-----12--------------------------8-8-8-8-8-7-7-7-7-7-7-7-|
- ------------------------------------555-5-5-5-5-5-5-5-5-5-5-5-5-5-5-|
- -888-8-8----8-8----8-8-888----8---8-555-5-5-5-5-5-5-5-5-5-5-5-5-5-5-|
PM .......    ...    .......    .   .........
-
- --------------------------------------------------------------------|
- ---------------------------10---8-----------------------------------|
- ---------9------10--------------------------------------------------|
- --------------------------------------------8-8-8-8-8-7-7-7-7-7-7-7-|
- ------------------------------------555-5-5-5-5-5-5-5-5-5-5-5-5-5-5-|
- -888-8-8----8-8----8-8-888----8---8-555-5-5-5-5-5-5-5-5-5-5-5-5-5-5-|
PM .......    ...    .......    .   .........

----------------------------------------------------------------------------

[Riff 7] - [00:53] - [01:04]
- ---------------------------------------------|
- ---------------------------------------------|
- ---------------------------------------------|
- -----10-10-12-12-----10-10-12-12/15-15-14-14-|
- ---------------------------------------------|
- -000-------------000-------------------------|
PM ...             ...

- ---------------------------------------------|
- ---------------------------------------------|
- ---------------------------------------------|
- -----10-10-12-12-----10-10-12-12/15-15-14-14-|
- ---------------------------------------------|
- -000-------------000-------------------------|
PM ...             ...

- ---------------------------------------------|
- ---------------------------------------------|
- ---------------------------------------------|
- -----10-10-12-12-----10-10-12-12/15-15-14-14-|
- ---------------------------------------------|
- -888-------------888-------------------------|
PM ...             ...

- -----------------------------------------------|
- -----------------------------------13-13-13-13-|
- --------9-9-12-12--------9-9-12-12-------------|
- -----------------------------------------------|
- -----------------------------------------------|
- -101010-----------101010-----------------------|
PM ......           ......

[Riff 8] - [01:04] - [01:14]
- ------------------------------------------|
- ------------------------------------------|
- ------------------------------------------|
- -----10-10-12-12-----10-10-12-12----------|
- ------------------------------------------|
- -000-------------000-------------00000000-|
PM ...             ...             ........

- ------------------------------------------|
- ------------------------------------------|
- ------------------------------------------|
- -----10-10-12-12-----10-10-12-12----------|
- ------------------------------------------|
- -000-------------000-------------00000000-|
PM ...             ...             ........

- ------------------------------------------|
- ------------------------------------------|
- ------------------------------------------|
- -----10-10-12-12-----10-10-12-12----------|
- ------------------------------------------|
- -888-------------888-------------88888888-|
PM ...             ...             ........

- ----------------------------------------------------|
- ----------------------------------------------------|
- --------9-9-12-12--------9-9-12-12------------------|
- ----------------------------------------------------|
- ----------------------------------------------------|
- -101010-----------101010-----------1010101010101010-|
PM ......           ......           ................

[Riff 8] - [00:53] - [01:14]
- --------------------------------------------------|
- -15\13--18--17br-------15\--13\--10\--6\--5--5br--|
- --------------------------------------------------|
- --------------------------------------------------|
- --------------------------------------------------|
- --------------------------------------------------|

- --------------------------17/----20--20br---------|
- -3/--6/-----10/-15----18--------------------------|
- --------------------------------------------------|
- --------------------------------------------------|
- --------------------------------------------------|
- --------------------------------------------------|

----------------------------------------------------------------------------

[Riff 9, Guitar 1 & 2] - [01:14] - [01:21]
- ------------------------------------------------------------------------|
- ------------------------------------------------------------------------|
- ------------------------------------------------------------------------|
- -0~---------------------------------------------------------------------|
- -0~---------------------------------------------------------------------|
- -0~---------------------------------------------------------------------|
-
- ------------------------------------------------------------------------|
- -------------------------------------------------------------------15\--|
- -------------------------------------------------------------12h14------|
- ---------------------------5h7p0-7h8p7p0-10p0-10p0-14p0-14p0------------|
- -5h7p7p0-5h7p0-8p0-8p0-7h8----------------------------------------------|
- ------------------------------------------------------------------------|


- -----------------------------------------------------8-8----------------|
- ---------------------------------------------------------8-8------------|
- -------------------------------------10-10-7-7---------------------9-9--|
- ---------------------------------8-8-----------10-10---------10-10------|
- -0----------------------------------------------------------------------|
- -0----------------------------------------------------------------------|
PM ......................................................................
-
- -----------------------------------------------------12-12-8-8----------|
- -------------------------------------10-10-------------------------8-8--|
- ---------------------------------7-7-------10-10-9-9-----------9-9------|
- ---------------------------5h7p0----------------------------------------|
- -5h7p7p0-5h7p0-8p0-8p0-7h8----------------------------------------------|
- ------------------------------------------------------------------------|
PM                                 .....................................

----------------------------------------------------------------------------

[Riff 10, Guitar 1] - [01:21] - [01:27]
- ------------------------------------------------------------------------|
- -------------------------------------------------------------------15\--|
- -------------------------------------------------------------12h14------|
- ---------------------------5h7p0-7h8p7p0-10p0-10p0-14p0-14p0------------|
- -5h7p7p0-5h7p0-8p0-8p0-7h8----------------------------------------------|
- ------------------------------------------------------------------------|

- -------------------------------------------------1212-88--------|
- ------------------------------------1010--------------------88--|
- ---------------------------------77------1010-99---------99-----|
- ---------------------------5h7p0--------------------------------|
- -5h7p7p0-5h7p0-8p0-8p0-7h8--------------------------------------|
- ----------------------------------------------------------------|
PM                                 .............................

[Riff 10, Guitar 2] - [01:21] - [01:27]
- ------------------------------------------------------------------------|
- ------------------------------------------------------------------------|
- ------------------------------------------------------------------------|
- ----------------------------------------------------------------8h10p12-|
- -00000-----0000000000---00000---8h10p8p0-8/10p0-12p0-12p0-10h12---------|
- -00000-----0000000000---00000-------------------------------------------|
PM ............................

- -----------------88------------|
- --------------------88---------|
- ----1010-77-----------------99-|
- -88---------1010-------1010----|
- -------------------------------|
- -------------------------------|
PM .............................

----------------------------------------------------------------------------

[Riff 11, Guitar 1] - [01:27] - [01:41]------------------------------------| 2x
- -------------------------------------------------------------------------|
- -------------------------------------------------------------------15\---|
- -------------------------------------------------------------12h14-------|
- ---------------------------5h7p0-7h8p7p0-10p0-10p0-14p0-14p0-------------|
- -5h7p7p0-5h7p0-8p0-8p0-7h8-----------------------------------------------|
- -------------------------------------------------------------------------|

- -------------------------------------------------1212-88--------|
- ------------------------------------1010--------------------88--|
- ---------------------------------77------1010-99---------99-----|
- ---------------------------5h7p0--------------------------------|
- -5h7p7p0-5h7p0-8p0-8p0-7h8--------------------------------------|
- ----------------------------------------------------------------|
PM                                 .............................

[Riff 11, Guitar 2] - [01:27] - [01:41]-----------------------------------| 2x
- ----------------------------------------------------------------88------|
- -------------------------------------------------------------------88---|
- ---------------------------------------------------1010-77--------------|
- ------------------------------------------------88---------1010---------|
- -00000-----0000000000---00000---00000-----0-000-------------------------|
- -00000-----0000000000---00000---00000-----0-000-------------------------|
PM .....................................................................

- ---------|
- ---------|
- ------99-|
- -1010----|
- ---------|
- ---------|
PM .......

----------------------------------------------------------------------------

[Riff 12] - [01:41] - [01:42]
- -------------------1212-8-8-----|
- -----1010-----------------------|
- -7-7------1010-9-9----------9---|
- --------------------------------|
- --------------------------------|
- --------------------------------|
PM ..........................

----------------------------------------------------------------------------

[Riff 13] - [01:42] - [01:54]
- ----------------------------------------------------------|
- ----------------------------------------------------------|
- ----------------------------------------------------------|
- ----------------------------------------------------------|
- -0-00-00-00000---0-----000000000-00--00-0000-000---000000-|
- -0-00-00-00000---0-----000000000-00--00-0000-000---000000-|
PM ........................................................

- ----------------------------------------------------------|
- ----------------------------------------------------------|
- ----------------------------------------------------------|
- ----------------------------------------------------------|
- -0-00-00-00000-----0000----00-00-00000-----00000---00-00--|
- -0-00-00-00000-----0000----00-00-00000-----00000---00-00--|
PM .......................................................

Each - is a 16th note. note including first and last.

----------------------------------------------------------------------------

[Riff 13] - [01:54] - [02:05]

[Riff 14, Guitar 1 & 2] - [01:54] - [02:05]---------| 2x
- --------------------------------------------------|
- -------------10----------------------13-----------|
- -------10----------------------10-----------------|
- -10-12----12----12-10-12-10-12----12----12-10-12--|
- --------------------------------------------------|
- --------------------------------------------------|
-
- -------------------------------------------------|
- -------------------------------------10----------|
- -------7-----10----------------7-----------------|
- -7--8-----8-----8--7--8--7--8-----8-----8--7--8--|
- -------------------------------------------------|
- -------------------------------------------------|


- -------------------------------------|
- -------------10----------------------|
- -------10-------------------10-10-9--|
- -10-12----12----12-10-12-8-----------|
- -------------------------------------|
- -------------------------------------|
-
- -------------------------------------|
- -------------------------------------|
- -------7-----10-------------7--7--5--|
- -7--8-----8-----8--7--8--5-----------|
- -------------------------------------|
- -------------------------------------|

[Riff 15, Guitar 1, 2 & 3] - [02:05] - [02:06]
- -----------|
- -----------|
- -----------|
- -----------|
- -0---0---0-|
- -0---0---0-|
PM .........
-
- -----------|
- -10-8------|
- ------9----|
- --------10-|
- -----------|
- -----------|
-
- -----------|
- -6--5------|
- ------5----|
- --------7--|
- -----------|
- -----------|

----------------------------------------------------------------------------

[Riff 16] - [02:06] - [02:29]----------| 4x
- -------------------------------------|
- --------------------------10---------|
- -----7---10-----------7------7-9-----|
- -7-8---8----8-7-8-7-8---8--------10--|
- -------------------------------------|
- -------------------------------------|

- -------------13------------------8-10-8------|
- -------10-------13-11---------10--------10-8-|
- -10-12----10----------11-9-12----------------|
- ---------------------------------------------|
- ---------------------------------------------|
- ---------------------------------------------|

[Riff 17] - [02:06] - [02:29]
- ---------------------------------|
- ---3-6-5-----------3-6-5---3-6-5-|
- ---3-7-5-----------3-7-5---3-7-5-|
- -7-3-7-5---3-7-5-7-3-7-5-7-3-7-5-|
- -3-1-5-3-3-1-5-3-3-1-5-3-3-1-5-3-|
- -3-------3-------3-------3-------|
PM         .......

Play each chord for one bar behind solo. listen for strumming.

----------------------------------------------------------------------------

[Riff 18] - [02:29] - [02:53]
- -5h8p5---------------------------------------8/13-------------------|
- -------6--------------------------------8-10------------10h11p10----|
- ---------5-7/10-10--9h10p9h10p9h10p9h10--------------10----------10-|
- --------------------------------------------------12----------------|
- --------------------------------------------------------------------|
- --------------------------------------------------------------------|

- -------------15--------13-15-17-13-15-17-13-17/22----20\------------|
- -15-13--------------------------------------------------------------|
- --------------------------------------------------------------------|
- --------------------------------------------------------------------|
- --------------------------------------------------------------------|
- --------------------------------------------------------------------|

- -13h15p13-------------------12h13p12-------------------|
- ----------15-------------13----------13----------------|
- -------------14----12-14----------------12-------------|
- ----------------15-------------------------14----------|
- ----------------------------------------------15-10/12-|
- -------------------------------------------------------|

- ----------------------------------------------------------------13p12-|
- ----------------------------------------------------13----13----------|
- ----------------------------------------10/14----14----14----14-------|
- -0-3-5/7-5-7-5-7/10-7-10-10/15-12-15-12-------15----------------------|
- ----------------------------------------------------------------------|
- ----------------------------------------------------------------------|

- ------15p12------------------------------------------------------------|
- ---13-------13---------------------------------------------------------|
- ---------------12----------------------------------12-14----12-14---12-|
- ------------------14----12-14-15-12-14-15-12-14-15-------15-------15---|
- ---------------------15------------------------------------------------|
- -----------------------------------------------------------------------|
AP                        ..............................................

- -------------------13-12------------------------|
- -------13-------13----------13------------------|
- -14-15----14-15----------------12---------------|
- ----------------------------------14------------|
- ------------------------------------15p10-------|
- ------------------------------------------14p10-|
AP .................

[Riff 19] - [02:29] - [02:53]
- ---------------------------------|
- -6---3-5-6---3-5-6---3-5---------|
- -7---3-5-7---3-5-7---3-5---------|
- -7-7-3-5-7-7-3-5-7-7-3-5---------|
- -5-3-1-3-5-3-1-3-5-3-1-3-0-3-8-5-|
- ---3-------3-------3-----0-3-8-5-|
PM                         .......

Play each chord for one bar behind solo. listen for strumming.

----------------------------------------------------------------------------

[Riff 9, Guitar 1 & 2] - [02:53] - [02:59]
[Riff 11, Guitar 1] & [Riff 11, Guitar 2] - [02:59] - [03:13]

----------------------------------------------------------------------------

[Riff 20] - [03:13] - [03:23]----| 4x
- -------------------------------|
- -------------------------------|
- -------------------------------|
- -------------------------------|
- -0000--0--0--00-0--0--0--------|
- -0000--0--0--00-0--0--0--------|

Each - is a 16th note. note including first and last.

----------------------------------------------------------------------------

[Riff 21] - [03:23] - [03:49]-----------------------------| 4x
- --------------------------------------------------------|
- -------------------------------------10-----------------|
- --------------------------------9h10----9-10h12---------|
- -12-00-12-00-10h12p10h12-000-12-----------------0-12\8--|
- --------------------------------------------------------|
- --------------------------------------------------------|
PM    ..    ..             ...

- -----------------------------------------------------|
- -----------------------------------------------------|
- -----------------------------------------------------|
- -12-00-12-00-10h12p10h12-000-7-00-7-00-8-00-8h10p8p0-|
- -----------------------------------------------------|
- -----------------------------------------------------|
PM    ..    ..             ...   ..   ..   ..

[Riff 22] - [03:23] - [03:54]
- ------------------------------------------------------------------|
- ------------------------------------------------------------------|
- ------------------------------------------------------------------|
- ------------------------------------------------------------------|
- -0000--0--0--00-0--0--0--0000--0--8--88-8--8--8--5555--5--5--55-5-|
- -0000--0--0--00-0--0--0--0000--0--8--88-8--8--8--5555--5--5--55-5-|
PM ................................................................

- ------------------------------------------------------------------|
- ------------------------------------------------------------------|
- ------------------------------------------------------------------|
- ------------------------------------------------------------------|
- ---0--0--0000--0--0--00-0--0--0--8888--8--8--88-8--5--5--5555--5--|
- ---0--0--0000--0--0--00-0--0--0--8888--8--8--88-8--5--5--5555--5--|
PM ................................................................

- ------------------------------------------------------------------|
- ------------------------------------------------------------------|
- ------------------------------------------------------------------|
- ------------------------------------------------------------------|
- --0--00-0--0--0--0000--0--0--00-0--8--8--8888--8--5--55-5--5--5---|
- --0--00-0--0--0--0000--0--0--00-0--8--8--8888--8--5--55-5--5--5---|
PM ................................................................

- ------------------------------------------------------------------|
- ------------------------------------------------------------------|
- ------------------------------------------------------------------|
- ------------------------------------------------------------------|
- -0000--0--0--00-0--0--0--0000--0--8--88-8--8--8--5555--5--5--55-5-|
- -0000--0--0--00-0--0--0--0000--0--8--88-8--8--8--5555--5--5--55-5-|
PM ................................................................

- -----------------|
- -----------------|
- -----------------|
- -----------------|
- -0---------------|
- -0---------------|
PM .

each - is a 16th note. not including the first and last.

----------------------------------------------------------------------------

Playing Riff 23:

yesss there is a pattern here ahaha its not all just random. you needa be
a genious to play this tho.. the initial riff without any notes is this:

- -------------------------|
- -------------------------|
- -------------------------|
- -------------------------|
- -xxxx--x--x--xx-x--x--x--|
- -xxxx--x--x--xx-x--x--x--|

which is 1.5 bars long (6 beats). which is tricky because the lead riff
is 4 bars long (16 beats) and 6 beats does not divide evenly into 16 :P

the trick is to play the above riff until the end, but you switch notes
every 4 beats, making it fucking rediculous to play :P

this is what it looks like if its broken up to show the riff.
look at where the riffs start and where the notes change. quite tricky lol

[Riff 23] - [03:23] - [03:54]
- ------------------------------------------------------------------|
- -----------1-----------------------2----------------------3-------|
- --____________________    ____________________    ________________
- -/                    \  /                    \  /
- -0000--0--0--00-0--0--0--0000--0--8--88-8--8--8--5555--5--5--55-5-|
- -0000--0--0--00-0--0--0--0000--0--8--88-8--8--8--5555--5--5--55-5-|
PM ................................................................

- ------------------------------------------------------------------|
- -------------------4------------------------5-------------------6-|
- ______    ____________________    ____________________    ________
-       \  /                    \  /                    \  /
- ---0--0--0000--0--0--00-0--0--0--8888--8--8--88-8--5--5--5555--5--|
- ---0--0--0000--0--0--00-0--0--0--8888--8--8--88-8--5--5--5555--5--|
PM ................................................................

- ------------------------------------------------------------------|
- ---------------------------7------------------------8-------------|
- ______________    ___________________     ____________________
-               \  /                   \   /                    \
- --0--00-0--0--0--0000--0--0--00-0--8--8--8888--8--5--55-5--5--5---|
- --0--00-0--0--0--0000--0--0--00-0--8--8--8888--8--5--55-5--5--5---|
PM ................................................................

- ------------------------------------------------------------------|
- -----------9-----------------------10---------------------11------|
-   ____________________    ____________________    ________________
-  /                    \  /                    \  /
- -0000--0--0--00-0--0--0--0000--0--8--88-8--8--8--5555--5--5--55-5-|
- -0000--0--0--00-0--0--0--0000--0--8--88-8--8--8--5555--5--5--55-5-|
PM ................................................................

my guitar pro will help if its accepted, but its still really hard lol
you basically hav to be in ABR to play it so.. have fun with that :P
not that half of tab readers kno what i just said means, anyway lol

----------------------------------------------------------------------------

[Symbols]

PM... Palm Mute notes with (...) under them
AP... Alternate Pick notes with (...) under them
h     Hammer On
p     Pull Off
[ ]   Pinch Harmonic
~     Let Ring
\     Slide Down
/     Slide Up
br    Bend Release

:D
comments
print report bad tab
7 comments total. Showing first comments.
0 reply
linds4lif wrote on May 2 2010, 02:38 pm

Riff 1a should have a 10 not a 12:
- ---------------------------------------------------------------|
- ---------------------------------------------------------------|
- -----------7-------------------9-------------------12----------|
- -7-00-7-00---00-7-00-7-00-7-00---00-7-00-7-00-7-00----00-7-00--|
- ---------------------------------------------------------------|
- ---------------------------------------------------------------|

so it should be this:
- ---------------------------------------------------------------|
- ---------------------------------------------------------------|
- -----------7-------------------9-------------------10----------|
- -7-00-7-00---00-7-00-7-00-7-00---00-7-00-7-00-7-00----00-7-00--|
- ---------------------------------------------------------------|
- ---------------------------------------------------------------|

0 reply
josh-josh-josh wrote on May 2 2010, 02:41 pm

you are 100% correct :P im so bad with these typos.. see if you can find anymore! aha they're lurking in theree

+1 reply
coolbeans777 wrote on May 14 2011, 04:56 pm

- -------------------------------------------------------------------------|
- -------------------------------------------------------------------15\---|
- -------------------------------------------------------------12h14-------|
- ---------------------------5h7p0-7h8p7p0-10p0-10p0-14p0-14p0-------------|
- -5h7p7p0-5h7p0-8p0-8p0-7h8-----------------------------------------------|
- -------------------------------------------------------------------------|

- -------------------------------------------------1212-88--------|
- ------------------------------------1010--------------------88--|
- ---------------------------------77------1010-99---------99-----|
- ---------------------------5h7p0--------------------------------|
- -5h7p7p0-5h7p0-8p0-8p0-7h8--------------------------------------|
- ----------------------------------------------------------------|
PM .............................

Is there a typo here, because it's not exactly possible to hammer-on/pull-off to the fret you were just on?

I want to post or [tab]
guest
You may want to rate the tab now too:
select rating
Please do not post tabs as comments. Select "correction" instead!