Oops, an error
Loading. Please wait.

Meddler Tab

ver3
ver3

Whole song

More versions @911Tabs.com
19,008 views 36 this week
7 commentsread comments
1 2 3 4 5
accurate
x 7
Autoscroll
+/-
esc
set tempo
stop
Contributor
Difficulty
Tuning
advanced
C G C F A D
WARNING: You are trying to view
                                    content from Ultimate-Guitar.com
                                    in an unauthorized application,
                                    which is prohibited.

                                    Please use an official Ultimate
                                    Guitar Tabs application for iPhone,
                                    iPad or Android to access legitimate
                                    chords, guitar, bass, and drum tabs
                                    from Ultimate-Guitar.com database.

                                    Type "ultimate guitar tabs" in Apple
                                    App Store's or Android Market's
                                    search to find the application.
Hey guys, this is an exported guitar pro file so it's a bit messy. 
I altered a lot of what other people had to my liking, and this is how I interpret 
the song and how I play it. 
I've tried to make it as easy as possible to play, because I've seen other tabs that make the 
song much harder than it really should be. 
So enjoy the song, have fun learning it, and don't give up!

Song: Meddler
Artist: August Burns Red
Album: Constellations
Tuning: Drop C
               
Intro                                                           
                   PM PM    PM PM    PM PM    PM PM       PM PM    PM PM    PM PM    PM PM  
     E             S  S  E  S  S  E  S  S  E  S  S     E  S  S  E  S  S  E  S  S  E  S  S   
D||-------------------------------------------------|--------------------------------------|
A||-------------------------------------------------|--------------------------------------|
F||-------------------------------7-----------------|--------------------9-----------------|
C||--7-------------0--0--7--0--0-----0--0--7--0--0--|--7--0--0--7--0--0-----0--0--7--0--0--|
G||-------------------------------------------------|--------------------------------------|
C||-------------------------------------------------|--------------------------------------|


     PM PM    PM PM     PM PM    PM PM               PM PM    PM PM           
  E  S  S  E  S  S   E  S  S  E  S  S     S S S S E  S  S  E  S  S  S  S S S  
---------------------------------------|-------------------------------------|
---------------------------------------|-------------------------------------|
--------------------10-----------------|-------------------------------------|
--7--0--0--7--0--0------0--0--7--0--0--|--5-7-5-0-7--0--0--8--0--0--8-10-8-0-|
---------------------------------------|-------------------------------------|
---------------------------------------|-------------------------------------|


     PM PM    PM PM    PM PM    PM PM       PM PM    PM PM    PM PM    PM PM  
  E  S  S  E  S  S  E  S  S  E  S  S     E  S  S  E  S  S  E  S  S  E  S  S   
--------------------------------------|--------------------------------------|
--------------------------------------|--------------------------------------|
--------------------7-----------------|--------------------9-----------------|
--7--0--0--7--0--0-----0--0--7--0--0--|--7--0--0--7--0--0-----0--0--7--0--0--|
--------------------------------------|--------------------------------------|
--------------------------------------|--------------------------------------|


     PM PM    PM PM     PM PM    PM PM               PM PM    PM PM           
  E  S  S  E  S  S   E  S  S  E  S  S     S S S S E  S  S  E  S  S  S  S S S  
---------------------------------------|-------------------------------------|
---------------------------------------|-------------------------------------|
--------------------10-----------------|-------------------------------------|
--7--0--0--7--0--0------0--0--7--0--0--|--5-7-5-0-7--0--0--8--0--0--8-10-8-0-|
---------------------------------------|-------------------------------------|
---------------------------------------|-------------------------------------|


     PM PM    PM PM    PM PM    PM PM       PM PM    PM PM    PM PM    PM PM  
  E  S  S  E  S  S  E  S  S  E  S  S     E  S  S  E  S  S  E  S  S  E  S  S   
--------------------------------------|--------------------------------------|
--------------------------------------|--------------------------------------|
--------------------7-----------------|--------------------9-----------------|
--7--0--0--7--0--0-----0--0--7--0--0--|--7--0--0--7--0--0-----0--0--7--0--0--|
--------------------------------------|--------------------------------------|
--------------------------------------|--------------------------------------|


     PM PM    PM PM     PM PM    PM PM               PM PM    PM PM           
  E  S  S  E  S  S   E  S  S  E  S  S     S S S S E  S  S  E  S  S  S  S S S  
---------------------------------------|-------------------------------------|
---------------------------------------|-------------------------------------|
--------------------10-----------------|-------------------------------------|
--7--0--0--7--0--0------0--0--7--0--0--|--5-7-5-0-7--0--0--8--0--0--8-10-8-0-|
---------------------------------------|-------------------------------------|
---------------------------------------|-------------------------------------|


     PM PM    PM PM    PM PM    PM PM       PM PM    PM PM    PM PM    PM PM  
  E  S  S  E  S  S  E  S  S  E  S  S     E  S  S  E  S  S  E  S  S  E  S  S   
--------------------------------------|--------------------------------------|
--------------------------------------|--------------------------------------|
--------------------7-----------------|--------------------9-----------------|
--7--0--0--7--0--0-----0--0--7--0--0--|--7--0--0--7--0--0-----0--0--7--0--0--|
--------------------------------------|--------------------------------------|
--------------------------------------|--------------------------------------|


     PM PM    PM PM     PM PM    PM PM               PM PM    PM PM           
  E  S  S  E  S  S   E  S  S  E  S  S     S S S S E  S  S  E  S  S  S  S S S  
---------------------------------------|-------------------------------------|
---------------------------------------|-------------------------------------|
--------------------10-----------------|-------------------------------------|
--7--0--0--7--0--0------0--0--7--0--0--|--5-7-5-0-7--0--0--8--0--0--8-10-8-0-|
---------------------------------------|-------------------------------------|
---------------------------------------|-------------------------------------|

Riff 2
   E   E   E   E   E   E   E   E      E   E   E   E   E   E   E   E   
----------------------------------|----------------------------------|
----------------------------------|------------------17--------------|
----------14------17--------------|----------14----------------------|
--14--15------15------15--14--15--|--14--15------15------15--14--15--|
----------------------------------|----------------------------------|
----------------------------------|----------------------------------|


   E   E   E   E   E   E   E   E      E   E   E   E   E   E   E   E   
----------------------------------|----------------------------------|
----------------------------------|------------------17--------------|
----------14------17--------------|------14--------------17----------|
--14--15------15------15--14--15--|--12------15--14----------14--15--|
----------------------------------|----------------------------------|
----------------------------------|----------------------------------|


   E   E   E   E   E   E   E   E      E   E   E   E   E   E   E   E   
----------------------------------|----------------------------------|
----------------------------------|------------------17--------------|
----------14------17--------------|----------14----------------------|
--14--15------15------15--14--15--|--14--15------15------15--14--15--|
----------------------------------|----------------------------------|
----------------------------------|----------------------------------|


   E   E   E   E   E   E   E   E      E   E   E   E   E   E   E  E   
----------------------------------|---------------------------------|
----------------------------------|------------------17-------------|
----------14------17--------------|------14--------------17---------|
--14--15------15------15--14--15--|--12------15--14----------14-----|
----------------------------------|---------------------------------|
----------------------------------|---------------------------------|

Riff 3
  PM PM PM PM PM     PM PM        PM PM PM PM PM     PM    PM    PM PM PM PM PM     PM PM      
  S  S  E  E  E   E  E  E   E     E  E  S  S  E   E  E  E  E     S  S  E  E  E   E  E  E   E   
-------------------------------|------------------------------|-------------------------------|
-------------------------------|------------------------------|-------------------------------|
-------------------------------|-----------------10-----9-----|-------------------------------|
-----------------10--------12--|------------------------------|-----------------10--------12--|
--0--0--0--0--0------0--0------|--0--0--0--0--0------0-----0--|--0--0--0--0--0------0--0------|
--0--0--0--0--0------0--0------|--0--0--0--0--0------0-----0--|--0--0--0--0--0------0--0------|


  PM PM PM PM PM     PM              PM PM PM PM PM     PM PM        PM PM PM PM PM     PM    PM  
  E  E  S  S  E   E  E    E    E     S  S  E  E  E   E  E  E   E     E  E  S  S  E   E  E  E  E   
----------------------------------|-------------------------------|------------------------------|
----------------------------------|-------------------------------|------------------------------|
-----------------10-----<>9pb--L--|-------------------------------|-----------------10-----9-----|
----------------------------------|-----------------10--------12--|------------------------------|
--0--0--0--0--0------0------------|--8--8--8--8--8------8--8------|--8--8--8--8--8------8-----8--|
--0--0--0--0--0------0------------|--8--8--8--8--8------8--8------|--8--8--8--8--8------8-----8--|


   PM PM PM  PM  PM      PM  PM         PM  PM  PM PM PM      PM      PM  
   S  S  E   E   E   E   E   E   E      E   E   S  S  E   E   E   E   E   
------------------------------------|------------------------------------|
------------------------------------|------------------------------------|
--------------------10----------12--|--------------------12------14------|
------------------------------------|------------------------------------|
--10-10-10--10--10------10--10------|--10--10--10-10-10------10------10--|
--10-10-10--10--10------10--10------|--10--10--10-10-10------10------10--|


  PM PM PM PM PM    PM PM        PM PM PM PM PM     PM     PM    PM PM PM PM PM    PM PM      
  S  S  E  E  E  E  E  E   E     E  E  S  S  E   E  E   E  E     S  S  E  E  E  E  E  E   E   
------------------------------|-------------------------------|------------------------------|
------------------------------|-------------------------------|------------------------------|
-----------------9--------10--|-----------------14-----12-----|-----------------9--------10--|
------------------------------|-------------------------------|------------------------------|
--0--0--0--0--0-----0--0------|--0--0--0--0--0------0------0--|--0--0--0--0--0-----0--0------|
--0--0--0--0--0-----0--0------|--0--0--0--0--0------0------0--|--0--0--0--0--0-----0--0------|


  PM PM PM PM PM     PM     PM    PM PM PM PM PM    PM PM        PM PM PM PM PM     PM     PM  
  E  E  S  S  E   E  E   E  E     S  S  E  E  E  E  E  E   E     E  E  S  S  E   E  E   E  E   
-------------------------------|------------------------------|-------------------------------|
-------------------------------|------------------------------|-------------------------------|
-----------------14-----12-----|-----------------9--------10--|-----------------14-----12-----|
-------------------------------|------------------------------|-------------------------------|
--0--0--0--0--0------0------0--|--8--8--8--8--8-----8--8------|--8--8--8--8--8------8------8--|
--0--0--0--0--0------0------0--|--8--8--8--8--8-----8--8------|--8--8--8--8--8------8------8--|


  PM PM PM PM                                                                  
  E  E  E  E  E  E  E  E     E  E  E  E  E  E  E  E      H.             Q      
--------------------------|--------------------------|--10s~------------8~----|
--------------------------|--------------------------|------------------------|
--------------------------|--------------------------|------------------------|
--------------8--8--8--7--|--7--7--7--7--7--7--7--7--|------------------------|
--5--5--5--5--5--5--5--5--|--5--5--5--5--5--5--5--5--|------------------------|
--5--5--5--5--5--5--5--5--|--5--5--5--5--5--5--5--5--|------------------------|

Little Bit of a Solo
   H         Q      Q        Q     H          Q        W                   H.             Q      
---L--------13~-----L----|--12~----Lb--------10~----|--L----------------|--8s~------------5~----|
-------------------------|--------------------------|-------------------|-----------------------|
-------------------------|--------------------------|-------------------|-----------------------|
-------------------------|--------------------------|-------------------|-----------------------|
-------------------------|--------------------------|-------------------|-----------------------|
-------------------------|--------------------------|-------------------|-----------------------|


  H        H           Q     Q    Q    Q        H        H            H.            Q      
--L--------L--------|------------------------|---------------------|----------------------|
--------------------|--6~----L----L----5~----|--L--------Lb--------|----------------6~----|
--------------------|------------------------|---------------------|--7~------------------|
--------------------|------------------------|---------------------|----------------------|
--------------------|------------------------|---------------------|----------------------|
--------------------|------------------------|---------------------|----------------------|


  W                    H.             Q        W                    H.             Q      
-------------------|-----------------10~----|--L----------------|--13~------------17~----|
--L----------------|--10~-------------------|-------------------|------------------------|
-------------------|------------------------|-------------------|------------------------|
-------------------|------------------------|-------------------|------------------------|
-------------------|------------------------|-------------------|------------------------|
-------------------|------------------------|-------------------|------------------------|


  H         H             Q      H         Q         W                 
--L--------20~--------|--20b-----L--------20~----|---L----------------|
----------------------|--------------------------|--------------------|
----------------------|--------------------------|--------------------|
----------------------|--------------------------|--------------------|
----------------------|--------------------------|--------------------|
----------------------|--------------------------|--------------------|

Riff 4 (this is a tricky one)
  S  S  S S S  S S S  S S  S S S  S S S    S  S  S S  S S  S S  S S  S S  S  S  S   S  
----------------------------------------|---------------------------------------------|
----------------------------------------|--------------------------------------15s--x-|
----------------------------------------|--------------------------------12-14--------|
------------------------------------7-0-|--7h-8p-7-0-10-0-10-0-14-0-14-0--------------|
--5h-7p-5-0-3S-7-0-8p-0-8p-0-7-8-10-----|---------------------------------------------|
----------------------------------------|---------------------------------------------|


  S  S  S S S  S S S  S S  S S S  S S S     S  S  S  S  S  S  S  S  S  S  S  S  S  S  S  S  
----------------------------------------|--------------------------------------------------|
----------------------------------------|--------------------------17-17-13-13-------------|
----------------------------------------|--------14-14-------------------------------12-12-|
------------------------------------7-0-|--12-12-------15-15-14-14-------------14-14-------|
--5h-7p-5-0-3S-7-0-8p-0-8p-0-7-8-10-----|--------------------------------------------------|
----------------------------------------|--------------------------------------------------|


  S  S  S S S  S S S  S S  S S S  S S S    S  S  S S  S S  S S  S S  S S  S  S  S   S  
----------------------------------------|---------------------------------------------|
----------------------------------------|--------------------------------------15s--x-|
----------------------------------------|--------------------------------12-14--------|
------------------------------------7-0-|--7h-8p-7-0-10-0-10-0-14-0-14-0--------------|
--5h-7p-5-0-3S-7-0-8p-0-8p-0-7-8-10-----|---------------------------------------------|
----------------------------------------|---------------------------------------------|


  S  S  S S S  S S S  S S  S S S  S S S     S  S  S  S  S  S  S  S  S  S  S  S  S  S  S  S  
----------------------------------------|--------------------------------------------------|
----------------------------------------|--------------------------17-17-13-13-------------|
----------------------------------------|--------14-14-------------------------------12-12-|
------------------------------------7-0-|--12-12-------15-15-14-14-------------14-14-------|
--5h-7p-5-0-3S-7-0-8p-0-8p-0-7-8-10-----|--------------------------------------------------|
----------------------------------------|--------------------------------------------------|


  S  S  S S S  S S S  S S  S S S  S S S    S  S  S S  S S  S S  S S  S S  S  S  S   S  
----------------------------------------|---------------------------------------------|
----------------------------------------|--------------------------------------15s--x-|
----------------------------------------|--------------------------------12-14--------|
------------------------------------7-0-|--7h-8p-7-0-10-0-10-0-14-0-14-0--------------|
--5h-7p-5-0-3S-7-0-8p-0-8p-0-7-8-10-----|---------------------------------------------|
----------------------------------------|---------------------------------------------|


  S  S  S S S  S S S  S S  S S S  S S S     S  S  S  S  S  S  S  S  S  S  S  S  S  S  S  S  
----------------------------------------|--------------------------------------------------|
----------------------------------------|--------------------------17-17-13-13-------------|
----------------------------------------|--------14-14-------------------------------12-12-|
------------------------------------7-0-|--12-12-------15-15-14-14-------------14-14-------|
--5h-7p-5-0-3S-7-0-8p-0-8p-0-7-8-10-----|--------------------------------------------------|
----------------------------------------|--------------------------------------------------|


  S  S  S S S  S S S  S S  S S S  S S S    S  S  S S  S S  S S  S S  S S  S  S  S   S  
----------------------------------------|---------------------------------------------|
----------------------------------------|--------------------------------------15s--x-|
----------------------------------------|--------------------------------12-14--------|
------------------------------------7-0-|--7h-8p-7-0-10-0-10-0-14-0-14-0--------------|
--5h-7p-5-0-3S-7-0-8p-0-8p-0-7-8-10-----|---------------------------------------------|
----------------------------------------|---------------------------------------------|


  S  S  S S S  S S S  S S  S S S  S S S     S  S  S  S  S  S  S  S  S  S  S  S  S  S  S  S  
----------------------------------------|--------------------------------------------------|
----------------------------------------|--------------------------17-17-13-13-------------|
----------------------------------------|--------14-14-------------------------------12-12-|
------------------------------------7-0-|--12-12-------15-15-14-14-------------14-14-------|
--5h-7p-5-0-3S-7-0-8p-0-8p-0-7-8-10-----|--------------------------------------------------|
----------------------------------------|--------------------------------------------------|


                                                                 ^ ^            
   S  S  S  S  S  S  S  S  S  S  S  S  S  S S S    E  S S S S E  S S S S E  E   
------------------------------------------------|------------------------------|
--------------------------17-17-13-13-----------|------------------------------|
--------14-14-----------------------------------|------------------------------|
--12-12-------15-15-14-14-------------14--L-----|------------------------------|
------------------------------------------------|--0--0-0-L-0-0--0-0-0-0-0-----|
------------------------------------------------|--0--0-0-L-0-0--0-0-0-0-0-----|

Breakdown (again, weird timing and tricky)
  E  E  E  S S S S S S S S E     S S E  S S S S T T S S T S S S X X X X X X  
------------------------------|---------------------------------------------|
------------------------------|---------------------------------------------|
------------------------------|---------------------------------------------|
------------------------------|---------------------------------------------|
--0--L--L--0-0-0-0-0-0-0-0----|--0-0----0-0---0-----0-0---0-0-0-------------|
--0--L--L--0-0-0-0-0-0-0-0----|--0-0----0-0---0-----0-0---0-0-0-------------|


  S S S S S S S S S S S S S S S S    S S S S S S S S S S S S S S S S  
----------------------------------|----------------------------------|
----------------------------------|----------------------------------|
----------------------------------|----------------------------------|
----------------------------------|----------------------------------|
------0-0-0-0-0-0-0-L-0-0-L-0-0-L-|--0-0-0-0-0-----------0-0-0-0-----|
------0-0-0-0-0-0-0-L-0-0-L-0-0-L-|--0-0-0-0-0-----------0-0-0-0-----|


  S S S S S S S S S S S S S S S S    S S S S S S S S S S S S S S S S  
----------------------------------|----------------------------------|
----------------------------------|----------------------------------|
----------------------------------|----------------------------------|
----------------------------------|----------------------------------|
------0-0---0-0---0-0-0-0-0-------|------0-0-0-0-0-------0-0---0-0---|
------0-0---0-0---0-0-0-0-0-------|------0-0-0-0-0-------0-0---0-0---|

Riff 5
   E    E   E   E   E   E    E    E      E    E   E   E   E   E    E    E   
-------------------------------------|-------------------------------------|
-------------------------------------|-------------------13----------------|
-----------10------14----------------|-----------10------------------------|
--10h--12------12------12p--10h--12--|--10h--12------12------12p--10h--12--|
-------------------------------------|-------------------------------------|
-------------------------------------|-------------------------------------|


   E    E   E   E   E   E    E    E     E   E  E  E   E    E   E   E   
-------------------------------------|--------------------------------|
-------------------------------------|--------------------------------|
-----------10------14----------------|-----10-----9-----------10------|
--10h--12------12------12p--10h--12--|--8------8-----10h--12------12--|
-------------------------------------|--------------------------------|
-------------------------------------|--------------------------------|


   E   E    E    E   E    E   E   E      E   E    E    E   E    E   E   E   
-------------------------------------|-------------------------------------|
-------------------------------------|--13---------------------------------|
--14-------------------------10------|-----------------------------10------|
------12p--10h--12--10h--12------12--|------12p--10h--12--10h--12------12--|
-------------------------------------|-------------------------------------|
-------------------------------------|-------------------------------------|


   E   E    E    E  E   E  E  E      E  E   E  E     E  E  E  E   E  E  E  E   
---------------------------------|----------------|---------------------------|
---------------------------------|--10--8---------|---------------------------|
--14-------------------10-----9--|---------10--9--|--------7-----10-----------|
------12p--10h--12--8------8-----|----------------|--7--8-----8------8--7--8--|
---------------------------------|----------------|---------------------------|
---------------------------------|----------------|---------------------------|


  E  E  E  E   E  E  E  E      E   E   E   E   E   E   E   E     E   E   E   E   E   E   E   E   
---------------------------|------------------13--------------|-----------------10--------------|
--------------10-----------|----------10----------13--10------|---------10--13------13--10------|
--------7---------7--9--5--|--10--12------10--------------10--|--9--12----------------------12--|
--7--8-----8---------------|----------------------------------|---------------------------------|
---------------------------|----------------------------------|---------------------------------|
---------------------------|----------------------------------|---------------------------------|


  E  E  E  E   E  E  E  E     E  E  E  E   E  E  E   E      E   E   E   E   E   E   E   E   
---------------------------|----------------------------|------------------13--------------|
---------------------------|--------------10------------|----------10----------13--10------|
--------7-----10-----------|--------7---------7--9------|--10--12------10--------------10--|
--7--8-----8------8--7--8--|--7--8-----8------------10--|----------------------------------|
---------------------------|----------------------------|----------------------------------|
---------------------------|----------------------------|----------------------------------|


  E   E   E   E   E   E   E   E     E  E  E  E   E  E  E  E     E  E  E  E   E  E  E   E   
-----------------10--------------|---------------------------|----------------------------|
---------10--13------13--10------|---------------------------|--------------10------------|
--9--12----------------------12--|--------7-----10-----------|--------7---------7--9------|
---------------------------------|--7--8-----8------8--7--8--|--7--8-----8------------10--|
---------------------------------|---------------------------|----------------------------|
---------------------------------|---------------------------|----------------------------|


   E   E   E   E   E   E   E   E     E   E   E   E   E   E   E   E     E  E  E  E   E  E  E  E   
------------------13--------------|-----------------10--------------|---------------------------|
----------10----------13--10------|---------10--13------13--10------|---------------------------|
--10--12------10--------------10--|--9--12----------------------12--|--------7-----10-----------|
----------------------------------|---------------------------------|--7--8-----8------8--7--8--|
----------------------------------|---------------------------------|---------------------------|
----------------------------------|---------------------------------|---------------------------|


  E  E  E  E   E  E  E   E      E   E   E   E   E   E   E   E     E   E   E   E   E   E   E   E   
----------------------------|------------------13--------------|-----------------10--------------|
--------------10------------|----------10----------13--10------|---------10--13------13--10------|
--------7---------7--9------|--10--12------10--------------10--|--9--12----------------------12--|
--7--8-----8------------10--|----------------------------------|---------------------------------|
----------------------------|----------------------------------|---------------------------------|
----------------------------|----------------------------------|---------------------------------|

Second Solo
   S   S   E   E   E  E   T  S T  E   E     S  S S  S S  S S  S  E   E  E   T  S T  
-----------------------------------------|------------------------------8s--L-13-L-|
--10h-13p-10-----------------------------|--------------------------10-------------|
--------------10------9s--L-10-L-10---L--|--9-10-9-10-9-10-9-10-10-----------------|
------------------10---------------------|-----------------------------------------|
-----------------------------------------|-----------------------------------------|
-----------------------------------------|-----------------------------------------|


                                                  T
   E   E   E   E   E   E   E   E      E   E   E   H         E      E   E   E   E   E   E   E   E
--------------------------10-------|---------------------------|--13--15--17--13--15--17--13--15s|
----------10--11--10----------13~--|--L---L------20~--------L--|---------------------------------|
------10--------------10-----------|-----17--17----------------|---------------------------------|
--12-------------------------------|---------------------------|---------------------------------|
-----------------------------------|---------------------------|---------------------------------|
-----------------------------------|---------------------------|---------------------------------|


   Q    E   H         E      S  S  E   E   E   E   E   E   E      S  S  E   E   E   E  E  E   E   
--22----L--20~--------L--|--13-15-13--------------------------|--12-13-12------------------------|
-------------------------|------------15--------------13--15--|------------13--------------------|
-------------------------|----------------14------14----------|----------------12------5---------|
-------------------------|--------------------15--------------|--------------------10-----5S--7--|
-------------------------|------------------------------------|----------------------------------|
-------------------------|------------------------------------|----------------------------------|


   S   S E   E  E  S S E  E   E      S   S E    E  E   S  S E   E    E   
---------------------------------|--------------------------------------|
---------------------------------|--------------------------------------|
--------------------------2s--5--|---------5s--10--7--10-10-9--10s--14--|
---------3s--7--5--7-7-5---------|--(5)s-7------------------------------|
--(3)s-5-------------------------|--------------------------------------|
---------------------------------|--------------------------------------|


   E   E   E   E   E   E   E   E       E   E   E   E   E   E   E   E   
--------------------------13--12b~--|--L--20--15----------------------|
------10--13--10--13--10------------|-------------17------------------|
--10--------------------------------|-----------------17--------------|
------------------------------------|---------------------17----------|
------------------------------------|-------------------------19--15--|
------------------------------------|---------------------------------|


  S S S S  S  S S S S S  S  S S S S S     S  S  S  S  S  S  S  S  S  S  S  S  S  S  S  S  
--------------------------------------|--------------------------------------------------|
--------------------------------------|--------------------------------------------------|
--7-7-9-9-10-10-7-7-9-9-10-10-7-7-9-9-|--10-10-12-12-14-14-10-10-12-12-14-14-10-10-12-12-|
--------------------------------------|--------------------------------------------------|
--------------------------------------|--------------------------------------------------|
--------------------------------------|--------------------------------------------------|


   S  S  S  S  S  S  S  S  S  S  S  S  E   E      E   E   E   E   E   E   E   E   
--------------------------------------13--12~--|--L------------------------------|
-----------------------------------------------|-----13--------------------------|
--14-14-15-15-17-17-14-14-15-15-17-17----------|---------12----------------------|
-----------------------------------------------|-------------14--10--------------|
-----------------------------------------------|---------------------12--10------|
-----------------------------------------------|-----------------------------10--|

Back to the Tricky Riff
  S  S  S S S  S S S  S S  S S S  S S S    S  S  S S  S S  S S  S S  S S  S  S  S   S  
----------------------------------------|---------------------------------------------|
----------------------------------------|--------------------------------------15s--x-|
----------------------------------------|--------------------------------12-14--------|
------------------------------------7-0-|--7h-8p-7-0-10-0-10-0-14-0-14-0--------------|
--5h-7p-5-0-3S-7-0-8p-0-8p-0-7-8-10-----|---------------------------------------------|
----------------------------------------|---------------------------------------------|


  S  S  S S S  S S S  S S  S S S  S S S     S  S  S  S  S  S  S  S  S  S  S  S  S  S  S  S  
----------------------------------------|--------------------------------------------------|
----------------------------------------|--------------------------17-17-13-13-------------|
----------------------------------------|--------14-14-------------------------------12-12-|
------------------------------------7-0-|--12-12-------15-15-14-14-------------14-14-------|
--5h-7p-5-0-3S-7-0-8p-0-8p-0-7-8-10-----|--------------------------------------------------|
----------------------------------------|--------------------------------------------------|


  S  S  S S S  S S S  S S  S S S  S S S    S  S  S S  S S  S S  S S  S S  S  S  S   S  
----------------------------------------|---------------------------------------------|
----------------------------------------|--------------------------------------15s--x-|
----------------------------------------|--------------------------------12-14--------|
------------------------------------7-0-|--7h-8p-7-0-10-0-10-0-14-0-14-0--------------|
--5h-7p-5-0-3S-7-0-8p-0-8p-0-7-8-10-----|---------------------------------------------|
----------------------------------------|---------------------------------------------|


  S  S  S S S  S S S  S S  S S S  S S S     S  S  S  S  S  S  S  S  S  S  S  S  S  S  S  S  
----------------------------------------|--------------------------------------------------|
----------------------------------------|--------------------------17-17-13-13-------------|
----------------------------------------|--------14-14-------------------------------12-12-|
------------------------------------7-0-|--12-12-------15-15-14-14-------------14-14-------|
--5h-7p-5-0-3S-7-0-8p-0-8p-0-7-8-10-----|--------------------------------------------------|
----------------------------------------|--------------------------------------------------|


  S  S  S S S  S S S  S S  S S S  S S S    S  S  S S  S S  S S  S S  S S  S  S  S   S  
----------------------------------------|---------------------------------------------|
----------------------------------------|--------------------------------------15s--x-|
----------------------------------------|--------------------------------12-14--------|
------------------------------------7-0-|--7h-8p-7-0-10-0-10-0-14-0-14-0--------------|
--5h-7p-5-0-3S-7-0-8p-0-8p-0-7-8-10-----|---------------------------------------------|
----------------------------------------|---------------------------------------------|


  S  S  S S S  S S S  S S  S S S  S S S     S  S  S  S  S  S  S  S  S  S  S  S  S  S S S  
----------------------------------------|------------------------------------------------|
----------------------------------------|--------------------------17-17-13-13-----------|
----------------------------------------|--------14-14-----------------------------------|
------------------------------------7-0-|--12-12-------15-15-14-14-------------14--L-----|
--5h-7p-5-0-3S-7-0-8p-0-8p-0-7-8-10-----|------------------------------------------------|
----------------------------------------|------------------------------------------------|


Another breakdown, all palm muted notes
  S         S S S S S S S S S S S S S S S    S S S S S S S S S S S S S S S S  
------------------------------------------|----------------------------------|
------------------------------------------|----------------------------------|
------------------------------------------|----------------------------------|
------------------------------------------|----------------------------------|
--0---------0-0-0---L-0---L-0---L-0-0-L-0-|----L-0---L-0---L-0-0-0-0---L-0---|
--0---------0-0-0---L-0---L-0---L-0-0-L-0-|----L-0---L-0---L-0-0-0-0---L-0---|


  S S S S S S S S S S S S S S S S    S S S S S S S S S S S S S S S S  
----------------------------------|----------------------------------|
----------------------------------|----------------------------------|
----------------------------------|----------------------------------|
----------------------------------|----------------------------------|
--L-0---L-0-0-L-0---L-0---L-0---L-|--0-0-0-0---L-0---L-0---L-0-0-L-0-|
--L-0---L-0-0-L-0---L-0---L-0---L-|--0-0-0-0---L-0---L-0---L-0-0-L-0-|


  S S S S S S S S S S S S S S S S    S S S S S S S S S S S S S S S S  
----------------------------------|----------------------------------|
----------------------------------|----------------------------------|
----------------------------------|----------------------------------|
----------------------------------|----------------------------------|
----L-0---L-0---L-0-0-0-0---L-0-L-|--L-0---L-0-0-L-0---L-0---L-0---L-|
----L-0---L-0---L-0-0-0-0---L-0-L-|--L-0---L-0-0-L-0---L-0---L-0---L-|

Ending Riff
      PM     PM                             <        PM                     
   E  E   E  E   S   S  S   S E  S S    E   S  S  E  E   S  S  S S  E  E    
-------------------------------------|-------------------------------------|
-------------------------------------|-------------------------------------|
-------------------------------------|-----------14------------------------|
--12--0--12--0--10h-12p-0h-12-0--0-0-|--0--14-15-----0--15-17-15-0-12--7s--|
-------------------------------------|-------------------------------------|
-------------------------------------|-------------------------------------|


      PM     PM                                                           
   E  E   E  E   S   S   S   S S S S S    S S S S E  S S E  S S S  S S S  
---------------------------------------|---------------------------------|
---------------------------------------|---------------------------------|
---------------------------------------|---------------------------------|
--12--0--12--0--10h-12p-10h-12-L-0-0-0-|--5-7-5-0-7--0-0-8--0-0-8-10-8-0-|
---------------------------------------|---------------------------------|
---------------------------------------|---------------------------------|


      PM     PM                             <        PM                     
   E  E   E  E   S   S  S   S E  S S    E   S  S  E  E   S  S  S S  E  E    
-------------------------------------|-------------------------------------|
-------------------------------------|-------------------------------------|
-------------------------------------|-----------14------------------------|
--12--0--12--0--10h-12p-0h-12-0--0-0-|--0--14-15-----0--15-17-15-0-12--7s--|
-------------------------------------|-------------------------------------|
-------------------------------------|-------------------------------------|


      PM     PM                                                           
   E  E   E  E   S   S   S   S S S S S    S S S S E  S S E  S S S  S S S  
---------------------------------------|---------------------------------|
---------------------------------------|---------------------------------|
---------------------------------------|---------------------------------|
--12--0--12--0--10h-12p-10h-12-L-0-0-0-|--5-7-5-0-7--0-0-8--0-0-8-10-8-0-|
---------------------------------------|---------------------------------|
---------------------------------------|---------------------------------|


      PM     PM                             <        PM                     
   E  E   E  E   S   S  S   S E  S S    E   S  S  E  E   S  S  S S  E  E    
-------------------------------------|-------------------------------------|
-------------------------------------|-------------------------------------|
-------------------------------------|-----------14------------------------|
--12--0--12--0--10h-12p-0h-12-0--0-0-|--0--14-15-----0--15-17-15-0-12--7s--|
-------------------------------------|-------------------------------------|
-------------------------------------|-------------------------------------|


      PM     PM                                                           
   E  E   E  E   S   S   S   S S S S S    S S S S E  S S E  S S S  S S S  
---------------------------------------|---------------------------------|
---------------------------------------|---------------------------------|
---------------------------------------|---------------------------------|
--12--0--12--0--10h-12p-10h-12-L-0-0-0-|--5-7-5-0-7--0-0-8--0-0-8-10-8-0-|
---------------------------------------|---------------------------------|
---------------------------------------|---------------------------------|


      PM     PM                             <        PM                     
   E  E   E  E   S   S  S   S E  S S    E   S  S  E  E   S  S  S S  E  E    
-------------------------------------|-------------------------------------|
-------------------------------------|-------------------------------------|
-------------------------------------|-----------14------------------------|
--12--0--12--0--10h-12p-0h-12-0--0-0-|--0--14-15-----0--15-17-15-0-12--7s--|
-------------------------------------|-------------------------------------|
-------------------------------------|-------------------------------------|


      PM     PM                                                                           
   E  E   E  E   S   S   S   S S S S S    S S S S E  S S E  S S S  S S S                  
---------------------------------------|---------------------------------|----|----|----||
---------------------------------------|---------------------------------|----|----|----||
---------------------------------------|---------------------------------|----|----|----||
--12--0--12--0--10h-12p-10h-12-L-0-0-0-|--5-7-5-0-7--0-0-8--0-0-8-10-8-0-|----|----|----||
---------------------------------------|---------------------------------|----|----|----||
---------------------------------------|---------------------------------|----|----|----||


Duration Legend
---------------
W - whole
H - half
Q - quarter
E - 8th
S - 16th
T - 32nd
X - 64th
. - note dotted
|-n-|  - n-tuplets


Tablature Legend
----------------
L - tied note
x - dead note
g - grace note
(n) - ghost note
> - accentuded note
h - hammer on
p - pull off
b - bend
br - bendRelease
pb - preBend
pbr - preBendRelease
brb - bendReleaseBend
S - shift slide
s - legato slide
/ -  slide into from below or out of upwards
\ -  slide into from above or out of downwards
~ - vibrato
W - wide vibrato
tr - trill
TP - tremolo picking
T - tapping
7 comments total. Showing first comments.
0 reply
Bound wrote on October 31 2010, 05:16 pm

As I am learning this right now, I'm adding some slides from about 2:05-2:29. This is pretty solid though!

0 reply
Bound wrote on November 1 2010, 03:03 am

My ear is taking a few things a little differently.

In my opinion, I would change 1:57-1:59 to this...


E E E E E E E E
-------------------------------|
-------------------------------|
-----10-10--9-----------10--L--|
--8------------10h--12---------|
-------------------------------|
-------------------------------|


and then it goes back up to 10 on the second string, or 14 on the 3rd string, whatever you prefer. Then same thing again before that riff drops to the lower harmony. I guess L(tied note) is the same as 'let ring.'

Here's the sliding I was talking about:

E E E E E E E E E E E E E E E E E E E E E E E E
---------------------------|------------------13--------------|---------------------------------|
--------------10-----------|----------10----------13--10------|---------10--13/-15--13--10------|
--------7---------7/10-----|--10--12------10--------------10--|--9--12----------------------12--|
--7--8-----8-----------10--|----------------------------------|---------------------------------|
---------------------------|----------------------------------|---------------------------------|
---------------------------|----------------------------------|---------------------------------|


And I pretty much retabbed 2:39-2:45...

I know the spacing's not right, but with the E's I'm sure you can figure it out.


E E E E E E E E E E E E E E E E
-----------------------------|------------------------------|
-----------------------------|------------------------------|
-----------------------------|---------------10------10/-14-|
----0--3/-7-----7h-10--7/-10-|7--10/-15-\12------12---------|
-------------8---------------|------------------------------|
-----------------------------|------------------------------|

E E E E E E E E E E E E E E E
-------------------13--12b~--|--L--20--15----------------------|
----------13-----------------|-------------17------------------|
------14------14-------------|-----------------17--------------|
--15-------------------------|---------------------17----------|
-----------------------------|-------------------------19--15--|
-----------------------------|---------------------------------|


I hope this helps.

0 reply
Bound wrote on November 1 2010, 03:21 am

ahhh I knew I shouldn't have posted so early.
I just changed my last part again to make the 20th fret easier to reach.


E E E E E E E E E E E E E E E
-----------------------------|--L--20--15----------------------|
-------------------18--17b~--|-------------17------------------|
------14--17--14-------------|-----------------17--------------|
--15-------------------------|---------------------17----------|
-----------------------------|-------------------------19--15--|
-----------------------------|---------------------------------|

I want to post or [tab]
guest
You may want to rate the tab now too:
select rating
Please do not post tabs as comments. Select "correction" instead!