Oops, an error
Loading. Please wait.

Meridian Tab

ver2
ver2

Solo

Whole song

Interactive

More versions @911Tabs.com
21,878 views 33 this week
2 commentsread comments
1 2 3 4 5
excellent!
x 14
Autoscroll
+/-
esc
set tempo
stop
Contributor
Difficulty
Tuning
intermediate
C G C F A D
Hey! There's an official Ultimate Guitar app which is ideal
for learning songs when you're away from computer. Get the app
WARNING: You are trying to view
                                    content from Ultimate-Guitar.com
                                    in an unauthorized application,
                                    which is prohibited.

                                    Please use an official Ultimate
                                    Guitar Tabs application for iPhone,
                                    iPad or Android to access legitimate
                                    chords, guitar, bass, and drum tabs
                                    from Ultimate-Guitar.com database.

                                    Type "ultimate guitar tabs" in Apple
                                    App Store's or Android Market's
                                    search to find the application.
[Meridian]
[Constellations]
[August Burns Red]

Tuning: CGCFAD (Drop C or Drop D One Step Down)
joshuaoliveira@hotmail.com

Watch the times, some things overlap.
See how many times each riff is played (No indication means 1)
Watch if each part has one guitar or two matching.
Symbols at bottum.

** [Riff 7] minor correction! thanks to Josh Port for emailing me! hehe

[Riff 1] - [00:00] - [01:00]----| 8x
- ------------------------------|
- -3~----------3~---------------|
- -2~----7~----2~---------------|
- -3~----8~----3~---------------|
- -0~----5~----0~---------------|
- -0~----5~----0~---------------|

----------------------------------------------------------------------------

[Riff 2] - [00:19] - [00:46]
- -----------------------------------------------------------------|
- -----------------------------------------------------------------|
- -----------------------------------------------------------------|
- -----------------------------------------------------------------|
- -1-1-1-1-1-1-1-1/5-5-5-5-5-5-5-5\0-0-0-0-0-0-0-0-0-0-0-0-0-0-0-0-|
- -----------------------------------------------------------------|
PM ...............................................................

- -----------------------------------------------------------------|
- -----------------------------------------------------------------|
- -----------------------------------------------------------------|
- -----------------------------------------------------------------|
- -1-1-1-1-1-1-1-1/5-5-5-5-5-5-5-5---------------------------------|
- ---------------------------------0-0-0-0-0-0-0-0-0-0-0-0-0-0-0-0-|
PM ...............................................................

- -----------------------------------------------------------------|
- -----------------------------------------------------------------|
- -----------------------------------------------------------------|
- -----------------------------------------------------------------|
- -----------------------------------------------------------------|
- -0-0-0-0-0-0-0-0-5-5-5-5-5-5-5-5-0-0-0-0-0-0-0-0-0-0-0-0-0-0-0-0-|
PM ...............................................................

- -----------------------------------------------------------------|
- -----------------------------------------------------------------|
- -----------------------------------------------------------------|
- -----------------------------------------------------------------|
- -----------------------------------------------------------------|
- -0-0-0-0-0-0-0-0-5-5-5-5-5-5-8-8-7-7-7-7-7-7-7-7-7-7-7-7-7-7-7-7-|
PM ...............................................................

----------------------------------------------------------------------------

[Riff 3] - [00:46] - [01:00]
- ----------------------------------|
- ----------------------------------|
- ----------------------------------|
- ------------------------8-7-------|
- -1--/5--\0-------1--/5------------|
- ----------------------------------|
AP ..........................

----------------------------------------------------------------------------

[Riff 4] - [01:00] - [01:21]-----------------------------------------| 3x
- -------------------------------------------------------------------|
- -------------------------------------------------------------------|
- -------------------------------------------------------------------|
- -------------------------------------------------------------------|
- -000-0-----00000-0---0-----0000000---0-----00-00-0---0-----000000--|
- -000-0-----00000-0---0-----0000000---0-----00-00-0---0-----000000--|
PM ................................................................

----------------------------------------------------------------------------

[Riff 5] - [01:00] - [01:30]
- ---------------------------------|
- -----------------8-8-8-8-8-8-8-8-|
- -7-7-7-7-7-7-7-7-----------------|
- ---------------------------------|
- ---------------------------------|
- ---------------------------------|

- -----------------10-10-10-10-10-10-10-10-|
- -----------------------------------------|
- -7-7-7-7-7-7-7-7-------------------------|
- -----------------------------------------|
- -----------------------------------------|
- -----------------------------------------|

- -----------------------------------|
- -----------------8-8-8-8-8-8/11-11-|
- -7-7-7-7-7-7-7-7-------------------|
- -----------------------------------|
- -----------------------------------|
- -----------------------------------|

- -------------------------------------------------|
- -10-10-10-10-10-10-10-10/15----15----15----15----|
- -------------------------------------------------|
- ----------------------------12----12----12----12-|
- -------------------------------------------------|
- -------------------------------------------------|

- -------------------------15-15-15-15-15-15-15-15-|
- -15-15-15-15-15-15-15-15-------------------------|
- -------------------------------------------------|
- -------------------------------------------------|
- -------------------------------------------------|
- -------------------------------------------------|

- -------------------------18-18-18-18-17-17-17-17-|
- -15-15-15-15-15-15-15-15-------------------------|
- -------------------------------------------------|
- -------------------------------------------------|
- -------------------------------------------------|
- -------------------------------------------------|

- -------------------------------------------------|
- -15-15-15-15-15-15-15\11-11-11-11-11-11-11-11-11-|
- -------------------------------------------------|
- -------------------------------------------------|
- -------------------------------------------------|
- -------------------------------------------------|

- -------------------------------|
- -----------10h11(4x)-11h13(4x)-|
- -12h14(8x)---------------------|
- -------------------------------|
- -------------------------------|
- -------------------------------|

[Riff 6] - [01:21] - [01:35]
- --------------------------------------------------------------------|
- --------------------------------------------------------------------|
- --------------------------------------------------------------------|
- -----------------------------------------------------------------0~-|
- -000-0-----00000-0---0-----0000000---0-----00-00-0---0---000000000~-|
- -000-0-----00000-0---0-----0000000---0-----00-00-0---0---000000000~-|
PM ................................................................

----------------------------------------------------------------------------

[Riff 7, Guitar 1 & 2] - [01:35] - [02:09]----------| 4x
- --------------------------------------------------|
- -10-10-10-10-10-------11-11-11-11-11-10-10--------|
- -------------------10----------------------10-10--|
- ----------------12--------------------------------|
- --------------------------------------------------|
- --------------------------------------------------|
-
- -1~----------------------------------------------|
- -3~----------------------------------------------|
- -2~----------------------------------------------|
- -0~----------------------------------------------|
- -------------------------------------------------|
- -------------------------------------------------|


- -------------------------------------------------|----------------|
- -------------------------------------------------|-(end with on---|
- ----------------------10-10----------------------|--last time)----|
- -12-12-12-12-12-12-12-------12-12-10-10-12-12-12-|----------------|
- -------------------------------------------------|-10-10/12-12-12-|
- -------------------------------------------------|----------------|
-
- -------------------------------------------------|
- -3~----------------------3-----------------------|
- -2~-------------------------3--2-----2-----2-----|
- -3~-------------------------------------------3--|
- -1~----------------------(only on second time)---|
- -------------------------------------------------|

----------------------------------------------------------------------------

[Riff 8, Guitar 1 & 2] - [02:09] - [02:17]
- -------------------------------------------------|
- -------------------------------------------------|
- -------------------------------------------------|
- -0--0--0--0--0--0--0--0--0--0--0--0--0--0--0--0--|
- -1--1--1--1--1--1--1--1--1--1--1--1--1--1--1--1--|
- -------------------------------------------------|
-
- -------------------------------------------------|
- -10-10-10-10-10-10-10-10-10-10-10-10-10-10-10-10-|
- -7--7--7--7--7--7--7--7--7--7--7--7--7--7--7--7--|
- -8--8--8--8--8--8--8--8--8--8--8--8--8--8--8--8--|
- -------------------------------------------------|
- -------------------------------------------------|


- -------------------------------------------------|
- -------------------------------------------------|
- -------------------------------------------------|
- -0--0--0--0--0--0--0--0--0--0--0--0--0--0--0--0--|
- -1--1--1--1--1--1--1--1--1--1--1--1--1--1--1--1--|
- -------------------------------------------------|
-
- -------------------------------------------------|
- -10-10-10-10-10-10-10-11-11-11-11-11-11-11-11-11-|
- -7--7--7--7--7--7--7--7--7--7--7--7--7--7--7--7--|
- -8--8--8--8--8--8--8--8--8--8--8--8--8--8--8--8--|
- -------------------------------------------------|
- -------------------------------------------------|

----------------------------------------------------------------------------

[Riff 9] - [02:17] - [03:22]----------------------------------------| 4x
- ------------------------------------------------------------------|
- ------------------------------------------------------------------|
- -----------------------2-2-2-2-2-----------2-2---------3-3-3-3-3--|
- -3-3-3-3-3-3-3-3-3-3-3-3-3-3-3-3-3-3-3-3-3-3-3-3-3-3-3-3-3-3-3-3--|
- -5-5-5-5-5-5-5-5-5-5-5-5-5-5-5-5-5-5-5-5-5-5-5-5-5-5-5-5-5-5-5-5--|
- ------------------------------------------------------------------|
-
- -----------------------------------------------------------------|
- -----------------------------------------------------------------|
- -----------------------------------------------------------------|
- -----------------------1010101010----------------------8-8-8-8-8-|
- -8-8-8-8-8-8-8-8-8-8-8-8-8-8-8-8-8-8-8-8-8-8-8-8-8-8-8-8-8-8-8-8-|
- -0-0-0-0-0-0-0-0-0-0-0-0-0-0-0-0-0-0-0-0-0-0-0-0-0-0-0-0-0-0-0-0-|


- -----------------------------------------------------------------|
- -----------------------------------------------------------------|
- -----------------------2-2-2-2-2---------------------------------|
- -3-3-3-3-3-3-3-3-3-3-3-3-3-3-3-3-1-1-1-1-1-1-1-1-1-1-1-1-1-1-1-1-|
- -5-5-5-5-5-5-5-5-5-5-5-5-5-5-5-5-0-0-0-0-0-0-0-0-0-0-0-0-0-0-0-0-|
- -----------------------------------------------------------------|
-
- ------------------------------------------------------------------|
- ---------------------------------10101010101010101010101010101010-|
- ---------------------------------7-7-7-7-7-7-7-7-7-7-7-7-7-7-7-7--|
- -----------------------10101010108-8-8-8-8-8-8-8-8-8-8-8-8-8-8-8--|
- -8-8-8-8-8-8-8-8-8-8-8-8-8-8-8-8----------------------------------|
- -0-0-0-0-0-0-0-0-0-0-0-0-0-0-0-0----------------------------------|

----------------------------------------------------------------------------

[Riff 10] - [02:49] - [03:02]
- -----------------------------------------------------8-------8-------8---|
- -----6-------------3-------3---------10----------------------------------|
- ---7-----------------5-------5-----10--------------10------10------10----|
- -7---------------7-------7-----------------------------------------------|
- ---------------------------------8---------------8-------8-------8-------|
- -------------------------------------------------------------------------|

- ------------8-------8-|
- ----------------------|
- ----------10------10--|
- ----------------------|
- --------8-------8-----|
- ----------------------|

----------------------------------------------------------------------------

[Riff 11] - [03:02] - [03:22]
- -------------------------------------------------|
- -11-11-11-11-11-11-11-11-11-11-11-11-11-11-11-11-|
- -------------------------------------------------|
- -------------------------------------------------|
- -------------------------------------------------|
- -------------------------------------------------|

- -------------------------------------------------|
- -------------------------------------------------|
- -------------------------------------------------|
- -------------------------------------------------|
- -12-12-12-12-12-12-12-12-12-12-12-10-10-10-10-10-|
- -------------------------------------------------|

- -------------------------------------------------|
- -------------------------------------------------|
- -------------------------------------------------|
- -------------------------------------------------|
- -12-12-12-12-12-12-12-12-12-12-12-10-10-10-10-10-|
- -------------------------------------------------|

- -------------------------------------------------|
- -------------------------------------------------|
- -------------------------------------------------|
- -------------------------------------------------|
- -12-12-12-12-12-12-12-12-12-12-12-10-10-10-10-10-|
- -------------------------------------------------|

- -------------------------------------------------|
- -11-11-11-11-11-11-11-11-11-11-11-11-11-11-11-11-|
- -------------------------------------------------|
- -------------------------------------------------|
- -------------------------------------------------|
- -------------------------------------------------|

----------------------------------------------------------------------------

[Riff 12] - [03:20] - [03:22]
- ---------------|
- ---------------|
- ---------------|
- -8-8-8-8\5-5-5-|
- -8-8-8-8\5-5-5-|
- -8-8-8-8\5-5-5-|

----------------------------------------------------------------------------

[Riff 13] - [03:22] - [04:30]
- ------------------------------------------------------------------|
- ------------------------------------------------------------------|
- ------------------------------------------------------------------|
- -0---0---0---0---0---0---0---0---0---0---0---0---0-7-7-7-7-8-8-8--|
- -0---0---0---0---0---0---0---0---0---0---0---0---0-8-8-8-8-101010-|
- -0---0---0---0---0---0---0---0---0---0---0---0---0-7-7-7-7-8-8-8--|

- ------------------------------------------------------------------|
- ------------------------------------------------------------------|
- ------------------------------------------------------------------|
- -0---0---0---0---0---0---0---0---0---0---0---0---0-7-7-7-7-8-8-8--|
- -0---0---0---0---0---0---0---0---0---0---0---0---0-8-8-8-8-101010-|
- -0---0---0---0---0---0---0---0---0---0---0---0---0-7-7-7-7-8-8-8--|

- ------------------------------------------------------------------|
- ------------------------------------------------------------------|
- ------------------------------------------------------------------|
- -0---0---0---0---0---0---0---0---0---0---0---0---0-7-7-7-7-8-8-8--|
- -0---0---0---0---0---0---0---0---0---0---0---0---0-8-8-8-8-101010-|
- -0---0---0---0---0---0---0---0---0---0---0---0---0-7-7-7-7-8-8-8--|

- -----------------------------------------------------------------|
- -----------------------------------------------------------------|
- -----------------------------------------------------------------|
- -0---0---0---0---0---0---0---0---8---8---8---8---8-8-8-8-8\5-5-5-|
- -0---0---0---0---0---0---0---0---8---8---8---8---8-8-8-8-8\5-5-5-|
- -0---0---0---0---0---0---0---0---8---8---8---8---8-8-8-8-8\5-5-5-|

- ------------------------------------------------------------------|
- ------------------------------------------------------------------|
- ------------------------------------------------------------------|
- -0---0---0---0---0---0---0---0---0---0---0---0---0-7-7-7-7-8-8-8--|
- -0---0---0---0---0---0---0---0---0---0---0---0---0-8-8-8-8-101010-|
- -0---0---0---0---0---0---0---0---0---0---0---0---0-7-7-7-7-8-8-8--|

- ------------------------------------------------------------------|
- ------------------------------------------------------------------|
- ------------------------------------------------------------------|
- -0---0---0---0---0---0---0---0---0---0---0---0---0-7-7-7-7-8-8-8--|
- -0---0---0---0---0---0---0---0---0---0---0---0---0-8-8-8-8-101010-|
- -0---0---0---0---0---0---0---0---0---0---0---0---0-7-7-7-7-8-8-8--|

- ------------------------------------------------------------------|
- ------------------------------------------------------------------|
- ------------------------------------------------------------------|
- -0---0---0---0---0---0---0---0---0---0---0---0---0-7-7-7-7-8-8-8--|
- -0---0---0---0---0---0---0---0---0---0---0---0---0-8-8-8-8-101010-|
- -0---0---0---0---0---0---0---0---0---0---0---0---0-7-7-7-7-8-8-8--|

- -----------------------------------------------------------------|
- -----------------------------------------------------------------|
- -----------------------------------------------------------------|
- -0---0---0---0---0---0---0---0---8-8-8-8-8-8-8-8-8-8-8-8-8-8-8-8-|
- -0---0---0---0---0---0---0---0---8-8-8-8-8-8-8-8-8-8-8-8-8-8-8-8-|
- -0---0---0---0---0---0---0---0---8-8-8-8-8-8-8-8-8-8-8-8-8-8-8-8-|

- -----------------|
- -----------------|
- -----------------|
- -5-5-5-5-5-5-5-5-|
- -5-5-5-5-5-5-5-5-|
- -5-5-5-5-5-5-5-5-|


[Riff 14] - [03:22] - [03:54]
- -----------------------------------------|
- -----------------------------------------|
- -10-10-10-10-10-10-10-5-5-5-10-5-5-5-5-5-|
- -x--x--x--x--x--x--x--x-x-x-x--x-x-x-x-x-|
- -8--8--8--8--8--8--8--3-3-3-8--3-3-3-3-3-|
- -----------------------------------------|

- -----------------------------------------------|
- -----------------------------------------------|
- -10-10-10-10-10-10-10-10-10-10-10-10-3-3-3-3-3-|
- -x--x--x--x--x--x--x--x--x--x--x--x--x-x-x-x-x-|
- -8--8--8--8--8--8--8--8--8--8--8--8--1-1-1-1-1-|
- -----------------------------------------------|

- -------------------------------------------------|
- -------------------------------------------------|
- -10-10-10-10-10-10-10-10-10-10-10-10-10-10-10-10-|
- -x--x--x--x--x--x--x--x--x--x--x--x--x--x--x--x--|
- -8--8--8--8--8--8--8--8--8--8--8--8--8--8--8--8--|
- -------------------------------------------------|

- ---------------------------------------------|
- ---------------------------------13-13-13-13-|
- -9-9-9-9-10-10-10-10-12-12-12-12-------------|
- ---------------------------------------------|
- ---------------------------------------------|
- ---------------------------------------------|


[Riff 15] - [03:54] - [04:10]-----------------------| 2x
- -17-------17-17-------17-17-------17-17\12-12\10--|
- ----15-15-------15-15-------15-15-----------------|
- --------------------------------------------------|
- --------------------------------------------------|
- --------------------------------------------------|
- --------------------------------------------------|

- -10----------10----------10\6-6\3-3/5-3/--|
- ----10-10-10----10-10-10------------------|
- ------------------------------------------|
- ------------------------------------------|
- ------------------------------------------|
- ------------------------------------------|


[Riff 16] - [04:10] - [04:30]
- -17-------17-17-------17-17-------17-17\12-12\10-|
- ----15-15-------15-15-------15-15----------------|
- -------------------------------------------------|
- -------------------------------------------------|
- -------------------------------------------------|
- -------------------------------------------------|

- -10----------10---------------------------------|
- ----10-10-10----10-10-10----13-13\11-11\10-10\8-|
- -------------------------12---------------------|
- ------------------------------------------------|
- ------------------------------------------------|
- ------------------------------------------------|

- -------------------------------------|
- -6~--------------10---10---10---10---|
- --------------------9----9----9----9-|
- -------------------------------------|
- -------------------------------------|
- -------------------------------------|

- ---------------------------------|
- -6-6-6-6-6-6-6-6-6-6-6-6-6-6-6-6-|
- -7-7-7-7-7-7-7-7-7-7-7-7-7-7-7-7-|
- ---------------------------------|
- ---------------------------------|
- ---------------------------------|

- --------------------------------------|
- -10---10---10---10/11-8---8---8---8---|
- ----7----7----7---------7---7---7---7-|
- --------------------------------------|
- --------------------------------------|
- --------------------------------------|

----------------------------------------------------------------------------

[Riff 17] - [04:30] - [05:42]---------------------------------------| 9x
- ------------------------------------------------------------------|
- ------------------------------------------------------------------|
- ------------------------------------------------------------------|
- -7-7-7-7-7-7-7-8-8-8-8-8-8-8-8-8-7--------------------------------|
- -8-8-8-8-8-8-8-1010101010101010108-0-0-0-000-000---0-0-0-000-000--|
- -7-7-7-7-7-7-7-8-8-8-8-8-8-8-8-8-7-0-0-0-000-000---0-0-0-000-000--|
PM                                   .............................

[Riff 18] - [04:30] - [05:42] - 4-------------------|5x
- --------------------------------------------------|
- -10-10-10-10-10-------11-11-11-11-11-10-10--------|
- -------------------10----------------------10-10--|
- ----------------12--------------------------------|
- --------------------------------------------------|
- --------------------------------------------------|

- -------------------------------------------------|
- -------------------------------------------------|
- -------------------------------------------------|
- -12-12-12-12-12-12-12-12-12-12-12-12-12-12-12-12-|
- -------------------------------------------------|
- -------------------------------------------------|

- -------------------------------------------------|
- -10-10-10-10-10-------11-11-11-11-11-10-10-------|
- -------------------10----------------------10-10-|
- ----------------12-------------------------------|
- -------------------------------------------------|
- -------------------------------------------------|

- -------------------------------------------------|
- -------------------------------------------------|
- ----------------------10-10----------------------|
- -12-12-12-12-12-12-12-------12-12-10-10-12-12-12-|
- -------------------------------------------------|
- -------------------------------------------------|

[Riff 19] - [05:02] - [05:42]
- -------------------------------------------------|
- -------------------------------------------------|
- -10-10-10-10-10-------12-12-12-12-12-10-10-------|
- -------------------12----------------------12-12-|
- ----------------13-------------------------------|
- -------------------------------------------------|

- -------------------------------------------------|
- -------------------------------------------------|
- -------------------------------------------------|
- -------------------------------------------------|
- -12-12-12-12-12-12-12-12-12-12-12-12-12-12-12-12-|
- -------------------------------------------------|

- -------------------------------------------------|
- -------------------------------------------------|
- -10-10-10-10-10-------12-12-12-12-12-10-10-------|
- -------------------12----------------------12-12-|
- ----------------13-------------------------------|
- -------------------------------------------------|

- -------------------------------------------------|
- -------------------------------------------------|
- -------------------------------------------------|
- -------------------------------------------------|
- -12-12-12-12-12-12-12-12-12-8--8--7--7--8--8--8--|
- -------------------------------------------------|

[Riff 20] - [05:18] - [05:42] - 1-------------------|5x
- --------------------------------------------------|
- --------------------------------------------------|
- -10-10-10-10-10-------12-12-12-12-12-10-10--------|
- -------------------12----------------------12-12--|
- ----------------13--------------------------------|
- --------------------------------------------------|

- -------------------------------------------------|
- -------------------------------------------------|
- -10-10-10-10-10-10-10-10-10-10-10-10-10-10-10-10-|
- -------------------------------------------------|
- -------------------------------------------------|
- -------------------------------------------------|

- -------------------------------------------------|
- -------------------------------------------------|
- -10-10-10-10-10-------12-12-12-12-12-10-10-------|
- -------------------12----------------------12-12-|
- ----------------13-------------------------------|
- -------------------------------------------------|

- -------------------------------------------------|
- ----------------------10-10----------------------|
- -10-10-10-10-10-10-10-------10-10-9--9--10-10-10-|
- -------------------------------------------------|
- -------------------------------------------------|
- -------------------------------------------------|

----------------------------------------------------------------------------

[Riff 21a] - [05:42] - [06:00]
- -----------------------------------------------------------------|
- -----------------------------------------------------------------|
- -----------------------------------------------------------------|
- -7-7-7-7-7-7-7-8-8-8-8-8-8-8-8-8-7~------------------------------|
- -8-8-8-8-8-8-8-1010101010101010108~------------------------------|
- -7-7-7-7-7-7-7-8-8-8-8-8-8-8-8-8-7~------------------------------|

[Riff 21b] - [05:42] - [06:00]
- -----------------------------------------------------------------|
- -10-10-10-10-10-------11-11-11-11-11-10-10-------10~-------------|
- -------------------10----------------------10-10-----------------|
- ----------------12-----------------------------------------------|
- -----------------------------------------------------------------|
- -----------------------------------------------------------------|

[Riff 21c] - [05:42] - [06:00]
- -----------------------------------------------------------------|
- -----------------------------------------------------------------|
- -10-10-10-10-10-------12-12-12-12-12-10-10-------10~-------------|
- -------------------12----------------------12-12-----------------|
- ----------------13-----------------------------------------------|
- -----------------------------------------------------------------|

----------------------------------------------------------------------------

[Symbols]
PM... Palm Mute notes with (...) under them
h     Hammer On
p     Pull Off
\     Slide Down
/     Slide Up
AP... Alternate Pick notes with (...) under them
x     Dead Note
b     Bend
r     Release bend
///   Pick Slide
T     Right Finger Tap
~     let Ring
[ ]   Pinch Harmonic
( x)  Play riff x amount of times

:D
comments
print report bad tab
2 comments total.
+2 reply
Pwd4life1001 wrote on April 28 2010, 04:44 am

Maaate this is genius way better than the other one like with this cuz that is terrible on the other 1 5* this is great
|-----|
|--3--|
|--2--|
|--3--|
|--0--|
|-----|

+1 reply
lawizeg wrote on July 10 2010, 02:40 am

perfect! it sounds great even though i'm on an acoustic.

I want to post or [tab]
guest
You may want to rate the tab now too:
select rating
Please do not post tabs as comments. Select "correction" instead!