Oops, an error
Loading. Please wait.

Meridian Tab

ver3
ver3

Solo

Whole song

More versions @911Tabs.com
1,184 views 9 this week
no commentswrite comment
1 2 3 4 5
excellent!
x 3
Autoscroll
+/-
esc
set tempo
stop
Contributor
Difficulty
Tuning
intermediate
C G C F A D
WARNING: You are trying to view
                                    content from Ultimate-Guitar.com
                                    in an unauthorized application,
                                    which is prohibited.

                                    Please use an official Ultimate
                                    Guitar Tabs application for iPhone,
                                    iPad or Android to access legitimate
                                    chords, guitar, bass, and drum tabs
                                    from Ultimate-Guitar.com database.

                                    Type "ultimate guitar tabs" in Apple
                                    App Store's or Android Market's
                                    search to find the application.
-----------------------------------------------------------------------------
                        August Burns Red - Meridian
-----------------------------------------------------------------------------
Tabbed by:Metalcoreking
Email:Matthessell@live.com

Tuning:CGCFAD

INTRO
D|----------------------------------------------------------------------(x2)|
A|-3---------3--------------------------------------------------------------|
F|-2---------2--------------------------------------------------------------|
C|-0----8----0--------------------------------------------------------------|
G|-0----5----0--------------------------------------------------------------|
C|-0----5----0--------------------------------------------------------------|

D|----------------------------------------------------------------------(x4)|
A|--------------------------------------------------------------------------|
F|--------------------------------------------------------------------------|
C|--------------------------------------------------------------------------|
G|-1-1-1-1-1-1-1-1/5-5-5-5-5-5-5-5\0-0-0-0-0-0-0-0-0-0-0-0-0-0-0-0----------|
C|--------------------------------------------------------------------------|
   x x x x x x x x x x x x x x x x x x x x x x x x x x x x x x x x          
D|--------------------------------------------------------------------------|
A|--------------------------------------------------------------------------|
F|--------------------------------------------------------------------------|
C|------------------------------------------------------8888888877777777----|
G|-11111111/55555555/0000000000000000-11111111/55555555---------------------|
C|--------------------------------------------------------------------------|
  
D|-------------------------------------------------10-10-10-10-10-10-10-10--|
A|-----------------8-8-8-8-8-8-8-8------------------------------------------|
F|-7-7-7-7-7-7-7-7-----------------7-7-7-7-7-7-7-7--------------------------|
C|--------------------------------------------------------------------------|
G|--------------------------------------------------------------------------|
C|--------------------------------------------------------------------------|
 |                                                                          |
D|--------------------------------------------------------------------------|
A|-----------------8-8-8-8-8-8/11-11-10-10-10-10-10-10-10-10/15--15--15--15-|
F|-7-7-7-7-7-7-7-7----------------------------------------------------------|
C|------------------------------------------------------------12--12--12--12|
G|--------------------------------------------------------------------------|
C|--------------------------------------------------------------------------|
 |                                                                          |
D|-------------------------15-15-15-15-15-15-15-15--------------------------|
A|-15-15-15-15-15-15-15-15--------------------------------------------------|
F|--------------------------------------------------------------------------|
C|--------------------------------------------------------------------------|
G|--------------------------------------------------------------------------|
C|--------------------------------------------------------------------------|
 |                                                                          |
D|-------------------------18-18-18-18-17-17-17-17--------------------------|
A|-15-15-15-15-15-15-15-15--------------------------------------------------|
F|--------------------------------------------------------------------------|
C|--------------------------------------------------------------------------|
G|--------------------------------------------------------------------------|
C|--------------------------------------------------------------------------|
 |                                                                          |
D|--------------------------------------------------------------------------|
A|-15-15-15-15-15-15-15\11-11-11-11-11-11-11-11-11--------------------------|
F|--------------------------------------------------------------------------|
C|--------------------------------------------------------------------------|
G|--------------------------------------------------------------------------|
C|--------------------------------------------------------------------------|

D|--------------------------------------------------------------------------|
A|------------10h11-(x4)-11h13-(x4)-----------------------------------------|
F|-12h14-(x8)---------------------------------------------------------------|
C|--------------------------------------------------------------------------|
G|--------------------------------------------------------------------------|
C|--------------------------------------------------------------------------|

D|--------------------------------------------------------------------------|
A|-10-10-10-10-10-------11-11-11-11-11-10-10--------------------------------|
F|-------------------10----------------------10-10--------------------------|
C|----------------12--------------------------------------------------------|
G|--------------------------------------------------------------------------|
C|--------------------------------------------------------------------------|
 |                                                                          |
D|----------------------------------|------------(x3)|----------------------|
A|----------------------------------|----------------|----------------------|
F|----------------------10-10-------|----------------|----------------------|
C|-12-12-12-12-12-12-12-------12-12-|-10-10/12-12-12-|----------------------|
G|----------------------------------|----------------|-10-10/12-12-12-------|
C|----------------------------------|----------------|----------------------|

D|--------------------------------------------------------------------------|
A|--------------------------------------------------------------------------|
F|---------------------------------10101010101010101010101010101010---------|
C|-0-0-0-0-0-0-0-0-0-0-0-0-0-0-0-0-7-7-7-7-7-7-7-7-7-7-7-7-7-7-7-7----------|
G|-1-1-1-1-1-1-1-1-1-1-1-1-1-1-1-1-8-8-8-8-8-8-8-8-8-8-8-8-8-8-8-8----------|
C|--------------------------------------------------------------------------|
   x x x x x x x x x x x x x x x x x x x x x x x x x x x x x x x x 
D|--------------------------------------------------------------------------|
A|--------------------------------------------------------------------------|
F|--------------------------------------------------------------------------|
C|-----------------------1010101010----------------------8-8-8-8-8----------|
G|-8-8-8-8-8-8-8-8-8-8-8-8-8-8-8-8-8-8-8-8-8-8-8-8-8-8-8-8-8-8-8-8----------|
C|--------------------------------------------------------------------------|
 |                                                                          | 
D|----------------------------------------------------------------------(x2)|
A|----------------------------------10101010101010101010101010101010--------|
F|----------------------------------7-7-7-7-7-7-7-7-7-7-7-7-7-7-7-7---------|
C|-----------------------1010101010-8-8-8-8-8-8-8-8-8-8-8-8-8-8-8-8---------|
G|-8-8-8-8-8-8-8-8-8-8-8-8-8-8-8-8------------------------------------------|
C|--------------------------------------------------------------------------|

D|--------------------------------------------8------8------8------8------8-|
A|-----6------3------3----------10------------------------------------------|
F|---7----------5------5------10-----------10-----10-----10-----10-----10---|
C|-7--------7------7--------8-------------8------8------8------8------8-----|
G|--------------------------------------------------------------------------|
C|--------------------------------------------------------------------------|

D|--------------------------------------------------------------------------|
A|--------------------------------------------------------------------------|
F|-15-15-15-15-15-15-15-15-18-18-18-18-18-18-18-18--------------------------|
C|--------------------------------------------------------------------------|
G|--------------------------------------------------------------------------|
C|--------------------------------------------------------------------------|

D|--------------------------------------------------------------------------|
A|--------------------------------------------------------------------------|
F|--------------------------------------------------------------------------|
C|-----------------------1010101010----------------------8-8-8-8-8----------|
G|-8-8-8-8-8-8-8-8-8-8-8-8-8-8-8-8-8-8-8-8-8-8-8-8-8-8-8-8-8-8-8-8----------|
C|--------------------------------------------------------------------------|
 |                                                                          | 
D|--------------------------------------------------------------------------|
A|--------------------------------------------------------------------------|
F|--------------------------------------------------------------------------|
C|-----------------------1010101010-----------------------------------------|
G|-8-8-8-8-8-8-8-8-8-8-8-8-8-8-8-8------------------------------------------|
C|--------------------------------------------------------------------------|
 |                                                                          |
D|----------------------------------------------------------------------(x2)|
A|--------------------------------------------------------------------------|
F|-9-9-9-10-10-10-10-10-12-12-12-12-17-17-17--------------------------------|
C|--------------------------------------------------------------------------|
G|--------------------------------------------------------------------------|
C|--------------------------------------------------------------------------|

SOLO
D|-17-------17-------17-------17--------------------------------------------|
A|----15-15----15-15----15-15----15-15--------------------------------------|
F|--------------------------------------------------------------------------|
C|--------------------------------------------------------------------------|
G|--------------------------------------------------------------------------|
C|--------------------------------------------------------------------------|
 |                                                                          |
D|-17\12\10-------10-------10----10\6\3/6\0---------------------------------|
A|----------10-10----10-10----10--------------------------------------------|
F|--------------------------------------------------------------------------|
C|--------------------------------------------------------------------------|
G|--------------------------------------------------------------------------|
C|--------------------------------------------------------------------------|
 |                                                                          |
D|-17-------17-------17-------17--------------------------------------------|
A|----15-15----15-15----15-15----15-15--------------------------------------|
F|--------------------------------------------------------------------------|
C|--------------------------------------------------------------------------|
G|--------------------------------------------------------------------------|
C|--------------------------------------------------------------------------|
 |                                                                          |
D|-17\12\10-------10-------10-----------------------------------------------|
A|----------10-10----10-10----10-13-13\11\10\8------------------------------|
F|--------------------------------------------------------------------------|
C|--------------------------------------------------------------------------|
G|--------------------------------------------------------------------------|
C|--------------------------------------------------------------------------|
 |                                                                          |
D|--------------------------------------------------------------------------|
A|-6-6-6-6-6-6-6-6-10-10-10-10-10-10-10-10-6-6-6-6-6-6-6-6-6-6-6-6-6-6-6-6--|
F|--------------------------------------------------------------------------|
C|--------------------------------------------------------------------------|
G|--------------------------------------------------------------------------|
C|--------------------------------------------------------------------------|
 |                                                                          |
D|--------------------------------------------------------------------------|
A|-10-10-10-10-10-10-10-10-8-8-8-8-11-11-11-11------------------------------|
F|--------------------------------------------------------------------------|
C|--------------------------------------------------------------------------|
G|--------------------------------------------------------------------------|
C|--------------------------------------------------------------------------|

D|--------------------------------------------------------------------------|
A|-10-10-10-10-10-------11-11-11-11-11-10-10--------------------------------|
F|-------------------10----------------------10-10--------------------------|
C|----------------12--------------------------------------------------------|
G|--------------------------------------------------------------------------|
C|--------------------------------------------------------------------------|
 |                                                                          |
D|--------------------------------------------------------------------------|
A|--------------------------------------------------------------------------|
F|----------------------10-10-----------------------------------------------|
C|-12-12-12-12-12-12-12-------12-12-10-10/12-12-12--------------------------|
G|--------------------------------------------------------------------------|
C|--------------------------------------------------------------------------|
 |                                                                          |
D|--------------------------------------------------------------------------|
A|-10-10-10-10-10-------11-11-11-11-11-10-10--------------------------------|
F|-------------------10----------------------10-10--------------------------|
C|----------------12--------------------------------------------------------|
G|--------------------------------------------------------------------------|
C|--------------------------------------------------------------------------|
 |                                                                          |
D|----------------------------------------------------------------------(x4)|
A|--------------------------------------------------------------------------|
F|--------------------------------------------------------------------------|
C|-12-12-12-12-12-12-12-12-12-12-12-12-12-12-12-12--------------------------|
G|--------------------------------------------------------------------------|
C|--------------------------------------------------------------------------|

************************************

| /   slide up
| \   slide down
| h   hammer-on
| p   pull-off
| ~   vibrato
| +   harmonic
| x   Mute note
| b   Bend
| pb  Pre-bend
| br  Bend release
| pbr Pre-bend release
| brb Bend release bend

************************************
comments
We did not receive enough feedback on this tab! Please rate:
print report bad tab
1 2 3 4 5
I want to post or [tab]
guest
You may want to rate the tab now too:
select rating
Please do not post tabs as comments. Select "correction" instead!