Oops, an error
Loading. Please wait.

Messengers Tab

17,654 views 15 this week
6 commentsread comments
1 2 3 4 5
excellent!
x 5
add to favorites launch autoscroll
font size
0
reset
Autoscroll
+/-
esc
set tempo
stop
Contributor
WARNING: You are trying to view
                                    content from Ultimate-Guitar.com
                                    in an unauthorized application,
                                    which is prohibited.

                                    Please use an official Ultimate
                                    Guitar Tabs application for iPhone,
                                    iPad or Android to access legitimate
                                    chords, guitar, bass, and drum tabs
                                    from Ultimate-Guitar.com database.

                                    Type "ultimate guitar tabs" in Apple
                                    App Store's or Android Market's
                                    search to find the application.
i did not tab any of this. i just took the best tabs of these songs and compiled
them. so here you go


1.The Truth Of A Liar (THEhardcoreSIHT)
2.Up Against The Ropes (adtthosa)
3.Back Burner (adtthosa)
4.The Blinding Light (bobbo007)   (this one is a powertab)
5.Composure (adtthosa)
6.Vital Signs (adtthosa)
7.The Eleventh Hour (adtthosa)
8.The Balance (gtribz)
9.Black Sheep (adtthosa)
10.An American Dream (adtthosa)
11.Redemption (adtthosa)
B-Side
12.Carol of the Bells (!normajean!)

-----AUGUST BURNS RED------|
-----Truth Of A Liar-------|

Intro
||----------------------------------------------------------------|
||----------------------------------------------------------------|
||----------------------------------------------------------------| X 2
||------------12--------14--------15--14--12----------------------|
||-12--12--12----12--12-----12--12--------------------------------|
||-.---.----.-----.---.------.---.--------------------------------|

||----------------------------------------------------------------|
||----------------------------------------------------------------|
||----------------------------------------------------------------|
||----------------------------------------------------------------|
||-8--8--8--12--8--12--8--8--8--12--8--12-------------------------|
||-.--.--.------.------.--.--.------.-----------------------------|

||----------------------------------------------------------------|
||----------------------------------------------------------------|
||------------------------------9-----9---------------------------|
||----------11-----11---------------------------------------------|
||-7--7--7------7------7--7--7-----7-----7------------------------|
||-.--.--.------.------.--.--.-----.-----.------------------------|

||----------------------------------------------------------------|
||----------------------------------------------------------------|
||----------------------------------------------------------------| X 2
||------------12--------14--------15--14--12----------------------|
||-12--12--12----12--12-----12--12--------------------------------|
||-.---.----.-----.---.------.---.--------------------------------|

||----------------------------------------------------------------|
||----------------------------------------------------------------|
||----------------------------------------------------------------|
||----------------------------------------------------------------|
||-8--8--8--12--8--12--8--8--8--12--8--12-------------------------|
||-.--.--.------.------.--.--.------.-----------------------------|


||----------------------------------------------------------------|
||----------------------------------------------------------------|
||------------------------------9---------------------------------|
||----------11-----11---------------------------------------------|
||-7--7--7------7------7--7--7------------------------------------|
||-.--.--.------.------.--.--.------------------------------------|

Play this next section four times
===================================================================

||----------------------------------------------------------------|
||----------------------------------------------------------------|
||----------------------------------------------------------------| X 2
||-------------12----------14--------------15--14--12-------------|
||-12--12--12------12--12------12--12--12-------------------------|
||--.---.---.-------.---.-------.---.---.-------------------------|
		     1					 2,3,4
||------------------------------------------|----------------------------------|
||------------------------------------------|----------------------------------|
||------------------------------------------|----------------------------------|
||------------------------------------------|----------------------------------|
||-8--8--8--12--10--12--8--8--8--12--10--12-|-8-8-8-12-12-12-10-10-10-12-12-12-|
||-.--.--.--------------.--.--.-------------|----------------------------------|

||----------------------------------------------------------------|
||----------------------------------------------------------------|
||------------------------------9-----9---------------------------|
||----------11-----11---------------------------------------------|
||-7--7--7------7------7--7--7-----7------------------------------|
||-.--.--.------.------.--.--.-----.------------------------------|

===================================================================

||----------------------------------------------------------------|------------|
||----------------------------------------------------------------|------------|
||----------------------------------------------------------------|------------|
||-------------12----------14--------------15--14--12---------0---|---7h8p7----|
||-12--12--12------12--12------12--12--12---------------------0---|----------8-|
||--.---.---.-------.---.-------.---.---.---------------------0---|------------|

===================================================================
Verse
This Part four times
||----------------------------------------------------------------|
||----------------------------------------------------------------|
||----------------------------------------------------------------|
||----------7-----5h8-------------------8p7-----------------------|
||-5-----8----------------7p0-----5----------8--------------------|
||----0--------0-------0-------8-----0----------------------------|
      .        .       .             .
			      1st,3rd,4th Time             2nd Time
||-------------------------|----------------------|------------------------|
||-------------------------|----------------------|------------------------|
||-------------------------|-7--10p9--------------|------------------------|
||----------7-----5h8------|----------8p7---------|----------------8--7----|
||-5-----8-----------------|---------------10-----|----------------------8-|
||----0--------0-------0---|----------------------|-7--7--8--8--0----------|
      .        .       .					.
==================================================================
         This part X 3               Then this after that
||------------------------------|-----------------------------|
||------------------------------|-----------------------------|
||------------------------------|-----------------------------|
||---------------8--7-----------|-----------------------------|
||-5--0-0-0-0-0--------8--------|-5--0-0-0-0------------------|
||----0-0-0-0-0-----------------|----0-0-0-0------------------|
      . . . . .                      . . . .
||----------------------------------------------------------------|
||----------------------------------------------------------------|
||----------------------------------------------------------------|
||-3----3--3--3----3--5--5--5--5----------------------------------|
||-3----3--3--3----3--5--5--5--5--0--0--0--0----------------------|
||-3----3--3--3----3--5--5--5--5--0--0--0--0----------------------|
                                  .  .  .  .
||--------------------------------------------------------------------------------|
||--------------------------------------------------------------------------------|
||--------------------------------------------------------------------------------|
||-------------8--7-------------------8--7------------------8--7--8---------------|
||-0-0-0-0-0-0--------8--5--0-0-0-0-0-------8--5--0-0-0-0-0----------5--0-0-0-0---|
||-0-0-0-0-0-0--------------0-0-0-0-0-------------0-0-0-0-0-------------0-0-0-0---|
   . . . . . .              . . . . .             . . . . .             . . . .
||----------------------------------------------------------------|
||----------------------------------------------------------------|
||----------------------------------------------------------------|
||-3----3--3--3----3--5--5--5--5----------------------------------|
||-3----3--3--3----3--5--5--5--5--0--0--0--0----------------------|
||-3----3--3--3----3--5--5--5--5--0--0--0--0----------------------|
                                  .  .  .  .
Breakdown A
||-----------------------------------------------------------------------------------|
||-----------------------------------------------------------------------------------|
||-----------------------------------------------------------------------------------|
||-----------------------------8--7---------------------------------------8--7-------|
||-0-0-0-0-0-0-----0-0-0-0--5--------5--0-0-0-0-0----0-0-0----0-0-0-0--5--------8----|
||-0-0-0-0-0-0-----0-0-0-0--------------0-0-0-0-0----0-0-0----0-0-0-0----------------|
   . . . . . .     . . . .              . . . . .    . . .    . . . .
||-------------------------------------------------------------------------------------|
||-------------------------------------------------------------------------------------|
||-------------------------------------------------------------------------------------|
||-------------------------------8--7--------------------------------------------------|
||-5--0-0-0-0-0------0-0-0-0--5--------8--5--0-0-0-0-0---0-0-0----0-0-0-0-0-0-0-0-0-0--|
||----0-0-0-0-0------0-0-0-0-----------------0-0-0-0-0---0-0-0----0-0-0-0-0-0-0-0-0-0--|
      . . . . .      . . . .                 . . . . .   . . .    . . . . . . . . . .
||-----------------------------------------------------------------------------------|
||-----------------------------------------------------------------------------------|
||-----------------------------------------------------------------------------------|
||----0---------------------------------------------------------------------0--------|
||----0---------------------------------------------------------------------0--------|
||----0---------------------------------------------------------------------0--------|

Intro
 Play this Intro twice
======================================================================
||----------------------------------------------------------------|
||----------------------------------------------------------------|
||----------------------------------------------------------------| X 2
||------------12--------14--------15--14--12----------------------|
||-12--12--12----12--12-----12--12--------------------------------|
||-.---.----.-----.---.------.---.--------------------------------|

||----------------------------------------------------------------|
||----------------------------------------------------------------|
||----------------------------------------------------------------|
||----------------------------------------------------------------|
||-8--8--8--12--8--12--8--8--8--12--8--12-------------------------|
||-.--.--.------.------.--.--.------.-----------------------------|

||----------------------------------------------------------------|
||----------------------------------------------------------------|
||------------------------------9-----9---------------------------|
||----------11-----11---------------------------------------------|
||-7--7--7------7------7--7--7-----7-----7------------------------|
||-.--.--.------.------.--.--.-----.-----.------------------------|

=====================================================================
 then this one twice
||----------------------------------------------------------------|
||----------------------------------------------------------------|
||----------------------------------------------------------------| X 2
||-------------15----------17----------19--17--15-----------------|
||-15--15--15------15--15------15--15-----------------------------|
||--.---.---.-------.---.-------.---.-----------------------------|

||----------------------------------------------------------------|
||----------------------------------------------------------------|
||----------------------------------------------------------------|
||----------------------------------------------------------------|
||-8--8--8--12--8--12--8--8--8--12--8--12-------------------------|
||-.--.--.------.------.--.--.------.-----------------------------|

||----------------------------------------------------------------|
||----------------------------------------------------------------|
||----------------------------9-----9-----------------------------|
||----------7-----7-----------------------------------------------|
||-7--7--7-----7-----7--7--7-----7--------------------------------|
||-.--.--.-----.-----.--.--.-----.--------------------------------|

Build Up
====================================================================
||----------------------------------------------------------------|
||----------------------------------------------------------------|
||-------10-----9-------------------------------------------------|
||-----------------------7----8p7-------7p5--8p7------------------|
||---------------------------------8p5----------------------------|
||-0--0------0-----0--0-------------------------------------------|
   .  .      .     .  . 					     X 2
||----------------------------------------------------------------|
||----------------------------------------------------------------|
||----------7---------------------------------7h8-----------------|
||----------------8-----7-----5-----7h8--7p5----------------------|
||----------------------------------------------------------------|
||-5--5--5-----5-----5-----5-----5--------------------------------|
   .  .  .     .     .     .     .
====================================================================

||----------------------------------------------------------------|
||----------------------------------------------------------------|
||-------------------9--10p9--------9p7--10p9---------------------|
||-------8-----7--------------10p7--------------------------------|
||----------------------------------------------------------------|
||-0--0-----0-----0-----------------------------------------------|
   .  .     .     .		  1st time	       2nd time	       X 2
||---------------------------|-------------------|--------------------|
||---------------------------|---------------5h6-|--------------------|
||---------------------------|------4h5--4-------|--------------------|
||----------5----------------|-------------7-----|--------------------|
||----------------6-----5----|--3----------------|-5-5-5-5---5-5-5-5--|
||-5--5--5-----5-----5-----5-|-----5-------------|-5-5-5-5---5-5-5-5--|
   .  .  .     .     .     .       .
======================================================================

||---------------------------------------------------------------|
||----------------------------10p8-------------------------------|
||---------------9h10--7-----------10p9--------------------------|
||------------7-------------------------7--7h8h10----------------|
||---------------------------------------------------------------|
||-0-0-0-0-0--------------0-0------------------------------------|
   . . . . .              . .					   X 4
||---------------------------------------------------------------|
||----------------------------10p8-----------11-10-8-------------|
||---------------9h10--7------------10p9-------------------------|
||------------7--------------------------------------------------|
||---------------------------------------------------------------|
||-0-0-0-0-0--------------0-0------------------------------------|
   . . . . .              . .
Breakdown B
                                                  1,2,3                    4
||---------------------------------------|----------------------|----------------------|
||---------------------------------------|----------------------|----------------------|
||---------------------------------------|----------------------|----------------------|
||---------------------------------------|----------------------|----------------------|
||-0-0-0-0-0---0--0---0-0-0-0-0-0-0--0-0-|-0-0-0--0-0-0-0-0-0-0-|-0-0-0---0-0-0-0-0----|
||-0-0-0-0-0---0--0---0-0-0-0-0-0-0--0-0-|-0-0-0--0-0-0-0-0-0-0-|-0-0-0---0-0-0-0-0----|
   . . . . .   .  .   . . . . . . .  . .   . . .  . . . . . . .   . . .   . . . . .
Solo
									   1,2,3
||---------------------------------------------------------------|-----------------------|
||-15---15--151515-----------------------------------------------|-----------------------|
||------------------14---14-14---14h15p14---12---121212---12-----|-------------12---1415-|
||------------------------------------------------------------12-|--12-12---12-----------|
||---------------------------------------------------------------|-----------------------|
||---------------------------------------------------------------|-----------------------|
	 4
||-----------------|
||-----------------|
||-----------------|
||--12--12----12---|
||-----------------|
||-----------------|

Bridge X 2
                                                       "  "
||-------------------------------------------------"--13--10---"-----|
||--"---------"-----------------------------------10----------10-----|
||--7--------10------7--10--9-----7--10--7---------------------------|
||-----------------------------7------------0------------------------|
||-------------------------------------------------------------------|
||-------------------------------------------------------------------|

||---------------------------------------------------------------------------------------|
||---------------------------------------------------------------------------------------|
||--9--10--7--9------7-----------------------------------------------------------------"-|
||---------------10-----9--10--7--9--10--7----------------7-------------------------"--6-|
||------------------------------------------8------7---------7--3--5--3--0--2--3----7----|
||---------------------------------------------12-----10---------------------------------|

Outro
||-------------------------------------------------------------------------------------|
||-------------------------------------------------------------------------------------|
||--------10-------------------10-------------------9-------------------9--------------|
||-------------12-------------------12------------------10------------------10---------|
||---------------------------------------0-0--0-0-0---0----0-0-0--0-0-0---0----0-7-7---|
||-0-0-0-0---0----0-0-0--0-0-0----0----0-----------------------------------------------|
   . . . .   .    . . .  . . .    .    . . .  . . .   .    . . .  . . .   .    . . .
||-------------------------------------------------------------------------------------|
||-------------------------------------------------------------------------------------|
||------------9-------------------9--------------9-------------------9-----------------|
||-------6------6------------6------6----------------10------------------10------------|
||-7-7-7---7------7-7--7-7-7---7------0-0--0-0-0---0----0-0-0--0-0-0---0----0-0--------|
||-------------------------------------------------------------------------------------|
   . . .   .      . .  . . .   .      . .  . . .   .    . . .  . . .   .    . .
||-------------------------------------------------------------------------------------|
||---------10-------------------10-------------------10-------------------10-----------|
||--------------10-------------------10--------------------9-------------------9-------|
||-------------------------------------------------------------------------------------|
||----------------------------------------0-0--0-0-0-----0---0-0-0--0-0-0----0---0-7-7-|
||-0-0-0-0----0----0-0-0--0-0-0----0----0----------------------------------------------|
   . . . .    .    . . .  . . .    .    . . .  . . .     .   . . .  . . .    .   . . .
||-------------------------------------------------------------------------------------|
||-----------9------------------9------------------10------------------10--------------|
||-------9-----9------------9-----9------------9-------------------9-------------------|
||-------------------------------------------------------------------------------------|
||-7-7-7---7-----7-7--7-7-7---7-----0-0--0-0-0---0----0-0-0--0-0-0---0----0-0-0--------|
||-------------------------------------------------------------------------------------|
   . . .   .     . .  . . .   .     . .  . . .   .    . . .  . . .   .    . . .
||----------------------------------------------------------------|
||-----------10---------------------------------------------------|
||-------9--------------------------------------------------------|
||----------------------------------------------------------------|
||-0-0-0---0----0-0-0---0-0-0-0-----------------------------------|
||----------------------------------------------------------------|
   . . .   .    . . .   . . . .

UP AGAINST THE ROPES
As recorded by August Burns Red
(From the 2007 Album MESSENGERS)

Transcribed by Chris Allan

For those without powertab. Sorry about the length, again. This should be almost
100% accurate, enjoy.

Words and Music by ABR
Arranged by ABR

 Intro
  Q=225
  N.C.
 4/4
  Gtrs I, II
    N.C.
        PM  PM  PM      PM  PM  PM          PM  PM  PM    PM  PM
||------------------|-----------------|-----------------|-----------------|
||o-----------------|-----------------|-----------------|-----------------|
||------------------|-----------------|-----------6-----|-----------------|
||------------------|-----7-----------|---------------7-|-----------------|
||o-5h7---0---0---7h|=8-------8---7---|-5h7---0---------|---7---7h8p7-4---|
||------0---0---0---|---0---0---0---0-|-----0---0---0---|-0---0-----------|


  N.C.
      PM  PM  PM      PM  PM  PM          PM  PM  PM
|-----------------|-----------------|-----------------|
|-----------------|-----------------|-----------------|
|-----------------|-----------------|-----------6---7-|
|-----------------|-----7-----------|-----------------|
|-5h7---0---0---7h|=8-------8---7---|-5h7---0---------|
|-----0---0---0---|---0---0---0---0-|-----0---0---0---|


 1.,2.,3.             4.           Q=145
  PM  PM              PM  PM        ~~
                   4x
|------------------||------------------||
|-----------------o||--------------10--||
|---9---10p9p7-----||---9---10p9p7-----||
|--------------7---||------------------||
|-----------------o||------------------||
|-0---0------------||-0---0------------||


   Breakdown A
    Q=145
    $$
    D5
    PM-----------------------------------------|  PM PM----|
||------------------------------|--------------------------|
||o-----------------------------|--------------------------|
||------------------------------|--------------------------|
||------------------------------|--------------------------|
||o-0-0-0-0-0-0--0--0-0-0-0-0-0-|-0-0--0--0--0-0--0--0-0---|
||--0-0-0-0-0-0--0--0-0-0-0-0-0-|-0-0--0--0--0-0--0--0-0---|


                                        To Dbl. Coda
  D5                                          N.C.
  PM-----------------------------------------------------|
|---------------------------|----------------------------|
|---------------------------|------------------------o---|
|---------------------------|----------------------------|
|---------------------------|----------------------------|
|-0-0-0-0-0-0---0-0-0-0-0-0-|-0-0--0--0--0-0---------o---|
|-0-0-0-0-0-0---0-0-0-0-0-0-|-0-0--0--0--0-0--3b3.5------|


    D5
    Gtr I
    PM-----------------------------------------|  PM PM----|
||------------------------------|--------------------------|
||o-----------------------------|--------------------------|
||------------------------------|--------------------------|
||------------------------------|--------------------------|
||o-0-0-0-0-0-0--0--0-0-0-0-0-0-|-0-0--0--0--0-0--0--0-0---|
||--0-0-0-0-0-0--0--0-0-0-0-0-0-|-0-0--0--0--0-0--0--0-0---|
|
|   Gtr II
|   PM-----------------------------------------|  PM PM----|
||------------------------------|--------------------------|
||o-----------------------------|--------------------------|
||------------------------------|--------------------------|
||------------------------------|--------------------------|
||o-0-0-0-0-0-0--0--0-0-0-0-0-0-|-0-0--0--0--0-0--0--0-0---|
||--0-0-0-0-0-0--0--0-0-0-0-0-0-|-0-0--0--0--0-0--0--0-0---|


                             1.                          2.
  D5                                          N.C.       D5
                                                        3/4
  PM---------------------------------------|             PM-------------------|
|---------------------------|-------------------------||----------------------|
|---------------------------|------------------------o||----------------------|
|---------------------------|-------------------------||----------------------|
|---------------------------|-------------------------||----------------------|
|-0-0-0-0-0-0---0-0-0-0-0-0-|-0-0--0--0--0-0---------o||-0-0--0--0--0-0-------|
|-0-0-0-0-0-0---0-0-0-0-0-0-|-0-0--0--0--0-0--6b6.5---||-0-0--0--0--0-0-------|
|
| PM---------------------------------------|             PM-------------------|
|---------------------------|-------------------------||----------------------|
|---------------------------|------------------------o||----------------------|
|---------------------------|-------------------------||----------------------|
|---------------------------|-------------------------||----------------------|
|-0-0-0-0-0-0---0-0-0-0-0-0-|-0-0--0--0--0-0---------o||-0-0--0--0--0-0-------|
|-0-0-0-0-0-0---0-0-0-0-0-0-|-0-0--0--0--0-0--3b3.5---||-0-0--0--0--0-0-------|


 "Looking in the mirror..."
                Q=150
  D5            N.C.
 4/4
|-----------||-----------------------------|-------------------------|
|-----------||o----------------------------|-------------------------|
|-----------||-----------------------------|-------------------------|
|-0------0--||-----------------------------|-------------------------|
|-0------0--||o-5-5-5-5-5-5--5--5--5-5-5-5-|-4-4-4-4-4-4-4-4-4-4-4-4-|
|-0------0--||-----------------------------|-------------------------|
|
|-----------||-----------------------------|-------------------------|
|-----------||o----------------------------|-------------------------|
|-----------||--7-7-7-7-7-7-10-10-10-9-9-9-|-6-6-6-6-6-6-9-9-9-7-7-7-|
|-0------0--||-----------------------------|-------------------------|
|-0------0--||o----------------------------|-------------------------|
|-0------0--||-----------------------------|-------------------------|


  N.C.
|-------------------------------------|--------------------------------------||
|-------------------------------------|-------------------------------------o||
|-------------------------------------|--------------------------------------||
|-------------------------------------|--------------------------------------||
|-10-10-10-10-10-10-10-10-10-10-10-10-|-13-13-13-13-13-13-12-12-12-10-10-10-o||
|-------------------------------------|--------------------------------------||
|
|-------------------------------------|--------------------------------------||
|-11-11-11-11-11-11-10-10-10--8--8--8-|-------------------------------------o||
|-------------------------------------|--9--9--9--9--9--9-10-10-10-12-12-12--||
|-------------------------------------|--------------------------------------||
|-------------------------------------|-------------------------------------o||
|-------------------------------------|--------------------------------------||


    N.C.
||---------------------------|-----------------------------||
||o--------------------------|----------------------------o||
||---------------------------|-----------------------------||
||---------------------------|----------------------7-7-7--||
||o-5-5-5--5-5-5-4-4-4-4-4-4-|-8-8-8-10-10-10-7-7-7-------o||
||---------------------------|-----------------------------||
|
||---------------------------|-----------------------------||
||o--------------------------|----------------------------o||
||--7-7-7-10-9-7-6-6-6-9-7-6-|----------------------6-6-6--||
||---------------------------|-7-7-7--8--8--8-5-5-5--------||
||o--------------------------|----------------------------o||
||---------------------------|-----------------------------||


    N.C.
    Gtr I
                                                                      3x
||--------------------------------------|-----------------------------||
||o-------------------------------------|----------------------------o||
||--------------------------------------|-----------------------------||
||--------------------------------------|----------------------7-7-7--||
||o--5--5--5--5--5--5--4--4--4--4--4--4-|-8-8-8-10-10-10-7-7-7-------o||
||--------------------------------------|-----------------------------||
|
|   Gtr II
|                                                                     3x
||--------------------------------------|-----------------------------||
||o-------------------------------------|----------------------------o||
||---7--7--7-10--9--7--6--6--6--9--7--6-|----------------------6-6-6--||
||--------------------------------------|-7-7-7--8--8--8-5-5-5--------||
||o-------------------------------------|----------------------------o||
||--------------------------------------|-----------------------------||
|
|   Gtr III
|                                                                     3x
||--------------------------------------|-----------------------------||
||o-------------------------------------|----------------------------o||
||--14-14-14-14-14-14-10-10-10-10-10-10-|-9-9-9--9--9--9-9-9-9-9-9-9--||
||---x--x--x--x--x--x--x--x--x--x--x--x-|-x-x-x--x--x--x-x-x-x-x-x-x--||
||o-12-12-12-12-12-12--8--8--8--8--8--8-|-7-7-7--7--7--7-7-7-7-7-7-7-o||
||--------------------------------------|-----------------------------||


  Bb5                                   C5                D5
|-------------------------------------|-------------------------------------||
|-------------------------------------|-------------------------------------||
|-10----10----10----10----10----10----|-12----12----12----14----14----14----||
|--8-----8-----8-----8-----8-----8----|-10----10----10----12----12----12----||
|--8-----8-----8-----8-----8-----8----|-10----10----10----12----12----12----||
|--8-----8-----8-----8-----8-----8----|-10----10----10----12----12----12----||
|
|-------------------------------------|-------------------------------------||
|-------------------------------------|-------------------------------------||
|-10-10-10-10-10-10-10-10-10-10-10-10-|-12-12-12-12-12-12-14-14-14-14-14-14-||
|--x--x--x--x--x--x--x--x--x--x--x--x-|--x--x--x--x--x--x--x--x--x--x--x--x-||
|--8--8--8--8--8--8--8--8--8--8--8--8-|-10-10-10-10-10-10-12-12-12-12-12-12-||
|-------------------------------------|-------------------------------------||


 Breakdown B
  A5E5F5G#E5D5   F5E5F5G#D5  A5E5F5G#E5D5   F5E5F5G#D5
 7/4
  Gtrs I, II
  PM--------|    PM--------------------|    PM----------|
|--------------------------|----------------------------|
|--------------------------|----------------------------|
|--------------------------|----------------------------|
|--------------------------|----------------------------|
|-7-2-3-6-2-0----3-2-3-6-0-|-7-2-3-6-2-0----3-2-3-6-0---|
|-7-2-3-6-2-0----3-2-3-6-0-|-7-2-3-6-2-0----3-2-3-6-0---|


  A5E5F5G#E5D5   E5D5E5D5   A5E5F5G#E5D5   F5E5F5G#D5
  PM--------|    PM----|    PM--------|    PM----------|
|-------------------------|----------------------------|
|-------------------------|----------------------------|
|-------------------------|----------------------------|
|-------------------------|----------------------------|
|-7-2-3-6-2-0----2-0-2-0--|-7-2-3-6-2-0----3-2-3-6-0---|
|-7-2-3-6-2-0----2-0-2-0--|-7-2-3-6-2-0----3-2-3-6-0---|


  A5E5F5G#E5D5     F5E5F5G#5
 4/4
 -----------|      PM-----------|
|---------------|---------------|
|---------------|---------------|
|---------------|---------------|
|---------------|--------6------|
|-7-2-3-6-2-0---|--3-2-3-6------|
|-7-2-3-6-2-0---|--3-2-3-6------|


    A5E5F5G#D5                        E5  G#5
    PM------------|     PM----|  PM|    PM
                                              4x
||--------------------|-----------------------||
||o-------------------|----------------------o||
||--------------------|-----------------------||
||--------------------|---------------2---6---||
||o-7-2-3-6-0-0-0-0---|-0-0-0-0--0-0--2-0-6--o||
||--7-2-3-6-0-0-0-0---|-0-0-0-0--0-0--2-0-6---||


 Speed it up
  Q=205
  D5                            D5
 7/4
  Gtr I
|-----------------------------|-------------------------------|
|-----------------------------|-------------------------------|
|-----------------------------|-------------------------------|
|-0---------------------------|-0---------------(0)-----------|
|-0---------------------------|-0---------------(0)-----------|
|-0---------------------------|-0---------------(0)-----------|
|
| Gtr II
|   PM    PM  PM  PM    PM  PM    PM    PM  PM   PM     PM  PM
|-----------------------------|-------------------------------|
|-----------------------------|-------------------------------|
|-----------------------------|-------------------------------|
|-----------3-------------3---|-----------3---------------3---|
|-5---4h5-------5---4h5-------|-5---4h5-------5-----4h5-------|
|---0-----0---0---0-----0---0-|---0-----0---0----0------0---0-|


  N.C.
    PM    PM  PM  PM    PM  PM    PM    PM  PM  PM    PM  PM
|-----------------------------|-----------------------------|
|-----------------------------|-----------------------------|
|-----------------------------|-----------------------------|
|-----------3-------------3---|-----------3-------------3---|
|-5---4h5-------5---4h5-------|-5---4h5-------5---4h5-------|
|---0-----0---0---0-----0---0-|---0-----0---0---0-----0---0-|
|
|   PM    PM  PM  PM    PM  PM    PM    PM  PM  PM    PM  PM
|-----------------------------|-----------------------------|
|-----------------------------|-----------------------------|
|-----------------------------|-----------------------------|
|-----------6-------------6---|-----------6-------------6---|
|-8---7h8-------8---7h8-------|-8---7h8-------8---7h8-------|
|---0-----0---0---0-----0---0-|---0-----0---0---0-----0---0-|


  N.C.
     PM      PM   PM   PM      PM   PM     PM      PM   PM   PM      PM   PM
|-------------------------------------|-------------------------------------|
|-------------------------------------|-------------------------------------|
|-------------------------------------|-------------------------------------|
|---------------6-----------------6---|---------------6-----------------6---|
|--8----7h=8---------8----7h=8--------|--8----7h=8---------8----7h=8--------|
|----0-------0----0----0-------0----0-|----0-------0----0----0-------0----0-|
|
|    PM      PM   PM   PM      PM   PM     PM      PM   PM   PM      PM   PM
|-------------------------------------|-------------------------------------|
|-------------------------------------|-------------------------------------|
|-------------------------------------|-------------------------------------|
|--------------10----------------10---|--------------10----------------10---|
|-12---11h12--------12---11h12--------|-12---11h12--------12---11h12--------|
|----0-------0----0----0-------0----0-|----0-------0----0----0-------0----0-|


    N.C.
       PM      PM   PM   PM      PM   PM
||--------------------------------------|
||o-------------------------------------|
||--------------------------------------|
||---------------10----------------10---|
||o-12---11h12--------12---11h12--------|
||-----0-------0----0----0-------0----0-|
|
|      PM      PM   PM   PM      PM   PM
||--------------------------------------|
||o-------------------------------------|
||--------------------------------------|
||---------------13----------------13---|
||o-15---14h15--------15---14h15--------|
||-----0-------0----0----0-------0----0-|


     PM      PM   PM   PM      PM   PM
|--------------------------------------||
|-------------------------------------o||
|--------------------------------------||
|--------------10----------------10----||
|-12---11h12--------12---11h12--------o||
|----0-------0----0----0-------0----0--||
|
|    PM      PM   PM   PM      PM   PM
|--------------------------------------||
|-------------------------------------o||
|--------------------------------------||
|--------------13----------------13----||
|-15---14h15--------15---14h15--------o||
|----0-------0----0----0-------0----0--||


    N.C.
       PM      PM   PM   PM      PM   PM
||--------------------------------------|
||o-------------------------------------|
||--------------------------------------|
||---------------13----------------13---|
||o-15---14h15--------15---14h15--------|
||-----0-------0----0----0-------0----0-|
|
|    PM-----------------------------------|
||----------------------------------------|
||o---------------------------------------|
||----------------------------------------|
||----------------------------------------|
||o--0----0--0----0----0----0--0----0-----|
||---1----1--1----1----1----1--1----1-----|


     PM      PM   PM   PM      PM   PM
|--------------------------------------||
|-------------------------------------o||
|--------------------------------------||
|--------------13----------------13----||
|-15---14h15--------15---14h15--------o||
|----0-------0----0----0-------0----0--||
|
|-----------------------------------------|
|-----------------------------------------|
|-------------------------------------o---|
|-----------------------------------------|
|-----------------------------------------|
|--0----0--0----0----0----0--0----0---o---|
|--1----1--1----1----1----1--1----1-------|


   "You've abandoned..."
    $                                                              To Coda
    N.C.              D5      Dm  C#m     N.C.
   4/4
    Gtrs I, II
        PM  PM--------------|   PM  PM----------------------------------------|
||------------------|-------------------|-----------------|-------------------|
||o-----------------|-------------------|-----------------|----------------o--|
||------------------|-------------------|-----------------|-------------------|
||--------3---------|---------3---2-----|-------3-------4-|---5h7---8p7-------|
||o-4h5-------------|-0-0-0---5---4-----|-4h5-------0-----|-------------5--o--|
||------0---0-0-0-0-|-0-0-0-0---0---0-0-|-----0---0---0---|-0-----0-----------|


    N.C.                 D5        Dm  C#m
         PM     PM       PM-----------------|   PM
||---------------------|--------------------|
||o--------------------|--------------------|
||---------------------|--------------------|
||--12p0---12p0---12p0-|-----------3---2----|
||o--------------------|-0-0-0-0-0-5-0-4----|
||-------0------0------|-0-0-0-0-0---0------|


                      1.                   2.
                                             D.S. al Coda
  N.C.                                         Dm  C#m F
       PM     PM                           PM|   PM  PM  PM
|--------------------|------------------||------------------|
|--------------------|-----------------o||------------------|
|--------------------|------------------||-------------2----|
|-12p0---12p0---12p0-|------------------||-----3---2---3----|
|--------------------|-7h8p7---4h7p4p0-o||-----5---4--------|
|------0------0------|-------8----------||-0-0---0---0---0--|


    &
    D5                             Dm  C#m
    Gtr I
         PM     PM       PM------------------|   PM
||---------------------|---------------------|
||o--------------------|---------------------|
||---------------------|---------------------|
||--12p0---12p0---12p0-|-----------3---2-----|
||o--------------------|-0-0-0-0-0-5-0-4-----|
||-------0------0------|-0-0-0-0-0---0-------|
|
|   Gtr II
|    PM--------------------------------------|
||---------------------|---------------------|
||o--------------------|---------------------|
||---------------------|---------------------|
||---------------------|---------------------|
||o--0----------0--0-0-|-0---0-------0---0---|
||---0----------0--0-0-|-0---0-------0---0---|


                      1.
  D5
       PM     PM
|--------------------|------------------||
|--------------------|-----------------o||
|--------------------|------------------||
|-12p0---12p0---12p0-|------------------||
|--------------------|-7h8p7---4h7p4p0-o||
|------0------0------|-------8----------||
|
|------------------------------------------|
|--------------------|---------------------|
|--------------------|-----------------o---|
|--------------------|---------------------|
|--------------------|---------------------|
|--0----------0--0-0-|-0-0-0-0-0-0-0-0-o---|
|--0----------0--0-0-|-0-0-0-0-0-0-0-0-----|


 Transition
  2.
  N.C.
                                                       2/4
  PM|   PM  PM  PM    PM  PM  PM  PM    PM  PM  PM  PM    PM  PM
|-----------------|-----------------|-----------------|----------|
|-----------------|-----------------|-----------------|----------|
|-----------------|---------6-------|-6---------------|----------|
|-----------------|-7---8-------7---|-----8---7-------|----------|
|-----5---7---8---|-----------------|-------------8---|-7---5----|
|-0-0---0---0---0-|---0---0---0---0-|---0---0---0---0-|---0---0--|
|
| PM|   PM  PM  PM    PM  PM  PM  PM    PM  PM  PM  PM    PM  PM
|-----------------|-----------------|-----------------|----------|
|-----------------|-----------------|-----------------|----------|
|-----------------|---------6-------|-6---------------|----------|
|-----------------|-7---8-------7---|-----8---7-------|----------|
|-----5---7---8---|-----------------|-------------8---|-7---5----|
|-0-0---0---0---0-|---0---0---0---0-|---0---0---0---0-|---0---0--|


                                 Q=145
                D.S.S. al Dbl. Coda
  N.C.
 4/4
|------------------|----------------||
|------------------|----------------||
|---------9h10p9-7-|-6h7p6----------||
|---7h8p7----------|-------8-5h7----||
|-5----------------|-------------7--||
|------------------|----------------||
|
|------------------|----------------||
|------------------|----------------||
|------------------|----------------||
|------------------|----------------||
|-5----------------|----------------||
|------------------|----------------||


    &&
    D5
    PM-----------------------------------------|  PM PM----|
||------------------------------|--------------------------|
||o-----------------------------|--------------------------|
||------------------------------|--------------------------|
||------------------------------|--------------------------|
||o-0-0-0-0-0-0--0--0-0-0-0-0-0-|-0-0--0--0--0-0--0--0-0---|
||--0-0-0-0-0-0--0--0-0-0-0-0-0-|-0-0--0--0--0-0--0--0-0---|
|
|   PM-----------------------------------------|  PM PM----|
||------------------------------|--------------------------|
||o-----------------------------|--------------------------|
||------------------------------|--------------------------|
||------------------------------|--------------------------|
||o-0-0-0-0-0-0--0--0-0-0-0-0-0-|-0-0--0--0--0-0--0--0-0---|
||--0-0-0-0-0-0--0--0-0-0-0-0-0-|-0-0--0--0--0-0--0--0-0---|


  D5                                          N.C.
  PM-----------------------------------------------------|
|---------------------------|----------------------------|
|---------------------------|------------------------o---|
|---------------------------|----------------------------|
|---------------------------|----------------------------|
|-0-0-0-0-0-0---0-0-0-0-0-0-|-0-0--0--0--0-0---------o---|
|-0-0-0-0-0-0---0-0-0-0-0-0-|-0-0--0--0--0-0--6b6.5------|
|
| PM-----------------------------------------------------|
|---------------------------|----------------------------|
|---------------------------|------------------------o---|
|---------------------------|----------------------------|
|---------------------------|----------------------------|
|-0-0-0-0-0-0---0-0-0-0-0-0-|-0-0--0--0--0-0---------o---|
|-0-0-0-0-0-0---0-0-0-0-0-0-|-0-0--0--0--0-0--3b3.5------|


 Intro Reprise
  Q=225
  N.C.
  Gtrs I, II
      PM  PM  PM        PM  PM  PM        PM  PM  PM        PM  PM
|-----------------|-----------------|-----------------|--------------|
|-----------------|-----------------|-----------------|--------------|
|-----------------|-----------------|-----------------|--------------|
|-----------------|-----------------|-----------------|--------------|
|-5h7---0---0---0h|=5h7---0---0---0h|=5h7---0---0---0h|=5h7---0------|
|-----0---0---0---|-----0---0---0---|-----0---0---0---|-----0---0----|


  N.C.
      PM  PM  PM      PM  PM  PM          PM  PM  PM    PM  PM
|-----------------|-----------------|-----------------|----------------|
|-----------------|-----------------|-----------------|----------------|
|-----------------|-----------------|-----------6-----|----------------|
|-----------------|-----7-----------|---------------7-|----------------|
|-5h7---0---0---7h|=8-------8---7---|-5h7---0---------|---7---7h8p7-4--|
|-----0---0---0---|---0---0---0---0-|-----0---0---0---|-0---0----------|


  N.C.
      PM  PM  PM      PM  PM  PM          PM  PM  PM    PM  PM
|-----------------|-----------------|-----------------|-----------------|
|-----------------|-----------------|-----------------|-----------------|
|-----------------|-----------------|-----------6---7-|---9---10p9p7----|
|-----------------|-----7-----------|-----------------|--------------7--|
|-5h7---0---0---7h|=8-------8---7---|-5h7---0---------|-----------------|
|-----0---0---0---|---0---0---0---0-|-----0---0---0---|-0---0-----------|


    N.C.
    Gtr I
         PM  PM  PM        PM   PM   PM
||--------------------|---------------------|
||o-------------------|---------------------|
||--------------------|---------------------|
||--------------------|-------7-------------|
||o-5h=7---0---0----7h|==8---------8----7---|
||-------0---0---0----|----0----0----0----0-|
|
|   Gtr II
|        PM  PM  PM        PM   PM   PM   PM
||--------------------|---------------------|
||o-------------------|---------------------|
||--------------------|---------------------|
||--------------------|------10-------------|
||o-8h10---8---8---10h|=12--------12---10---|
||-------0---0---0----|----0----0----0----0-|


       PM  PM   PM     PM  PM
|--------------------|------------------||
|--------------------|-----------------o||
|--------------------|------------------||
|-------------7------|------------------||
|-5h=7---0--------10-|---8---7h8p7-5---o||
|------0---0----0----|-0---0------------||
|
|      PM  PM   PM     PM  PM
|--------------------|------------------||
|--------------------|-----------------o||
|--------------------|------------------||
|------------10----8-|---7---5h7-5------||
|-8h10---8-----------|-------------8---o||
|------0---0----0----|-0---0------------||


 "I have little sympothy..."
  Q=210
  Bb5                                   F5
  TP                 TP  TP  TP   TP    TP                TP      TP
|-----------------|-------------------|-----------------|-----------------|
|-----------------|-------------------|-----------------|-----------------|
|-----------------|-------------------|-----------------|-----------------|
|-----------------|-10---8---7--------|-7---------------|-----------------|
|-8---------------|--------------10---|-----------------|-8-------7-------|
|-----------------|-------------------|-----------------|-----------------|
|
|-----------------|-------------------|-----------------|-----------------|
|-----------------|-------------------|-----------------|-----------------|
|-----------------|-------------------|-----------------|-----------------|
|-8-8-8-8-8-8-8-8-|--8-8-8-8-8-8--8-8-|-3-3-3-3-3-3-3-3-|-3-3-3-3-3-3-3-3-|
|-8-8-8-8-8-8-8-8-|--8-8-8-8-8-8--8-8-|-3-3-3-3-3-3-3-3-|-3-3-3-3-3-3-3-3-|
|-8-8-8-8-8-8-8-8-|--8-8-8-8-8-8--8-8-|-3-3-3-3-3-3-3-3-|-3-3-3-3-3-3-3-3-|


  A5
   TP                 TP
|------------------|------------------|
|------------------|------------------|
|------------------|------------------|
|------------------|------------------|
|------------------|-12---------------|
|-10---------------|------------------|
|
|------------------|------------------|
|------------------|------------------|
|------------------|------------------|
|--7-7-7-7-7-7-7-7-|--7-7-7-7-7-7-7-7-|
|--7-7-7-7-7-7-7-7-|--7-7-7-7-7-7-7-7-|
|--7-7-7-7-7-7-7-7-|--7-7-7-7-7-7-7-7-|


  D5
   TP                        TP          TP
|-------------------------|-------------------------|
|-------------------------|-------------------------|
|-------------------------|-15----------14----------|
|-12----------------------|-------------------------|
|-------------------------|-------------------------|
|-------------------------|-------------------------|
|
|-------------------------|-------------------------|
|-------------------------|-------------------------|
|-------------------------|-------------------------|
|-12-12-12-12-12-12-12-12-|-12-12-12-12-12-12-12-12-|
|-12-12-12-12-12-12-12-12-|-12-12-12-12-12-12-12-12-|
|-12-12-12-12-12-12-12-12-|-12-12-12-12-12-12-12-12-|


  Bb5                                    F5
   TP                 TP       TP         TP                 TP       TP
|------------------|-------------------|------------------|-------------------|
|------------------|-------------------|------------------|-------------------|
|-10---------------|-12-------14-------|------------------|-------------------|
|------------------|-------------------|-10---------------|-------------------|
|------------------|-------------------|------------------|-10-------12-------|
|------------------|-------------------|------------------|-------------------|
|
|------------------|-------------------|------------------|-------------------|
|------------------|-------------------|------------------|-------------------|
|------------------|-------------------|------------------|-------------------|
|--8-8-8-8-8-8-8-8-|--8-8-8-8--8-8-8-8-|--3-3-3-3-3-3-3-3-|--3-3-3-3--3-3-3-3-|
|--8-8-8-8-8-8-8-8-|--8-8-8-8--8-8-8-8-|--3-3-3-3-3-3-3-3-|--3-3-3-3--3-3-3-3-|
|--8-8-8-8-8-8-8-8-|--8-8-8-8--8-8-8-8-|--3-3-3-3-3-3-3-3-|--3-3-3-3--3-3-3-3-|


  A5
  TP                 TP       TP
|-----------------|-------------------||
|-----------------|-------------------||
|-9---------------|-10-------12-------||
|-----------------|-------------------||
|-----------------|-------------------||
|-----------------|-------------------||
|
|-----------------|-------------------||
|-----------------|-------------------||
|-----------------|-------------------||
|-7-7-7-7-7-7-7-7-|--7-7-7-7--7-7-7-7-||
|-7-7-7-7-7-7-7-7-|--7-7-7-7--7-7-7-7-||
|-7-7-7-7-7-7-7-7-|--7-7-7-7--7-7-7-7-||


   Outro - Breakdown C
    D5
   4/4                                   6/4
    Gtrs I, II
    PM------------------------------------------|  PM--------------------|
||-------------------|------------------|--------------------------------|
||o------------------|------------------|----------------------------o---|
||-------------------|------------------|--------------------------------|
||-------------------|------------------|--------------------------------|
||o-0-0-0-0-0-0-0----|-0-0-0-0-0-0-0----|-0-0-0-0--0-0-0-0-0-0-0-----o---|
||--0-0-0-0-0-0-0----|-0-0-0-0-0-0-0----|-0-0-0-0--0-0-0-0-0-0-0---------|


   4/4                                     6/4
    PM------------|     PM------------|     PM----|  PM---------------------|
||--------------------|-------------------|---------------------------------|
||o-------------------|-------------------|-----------------------------o---|
||--------------------|-------------------|---------------------------------|
||--------------------|-------------------|---------------------------------|
||o-0-0-0-0-0-0-0-0---|-0-0-0-0-0-0-0-0---|-0-0-0-0--0-0-0-0-0-0-0-0----o---|
||--0-0-0-0-0-0-0-0---|-0-0-0-0-0-0-0-0---|-0-0-0-0--0-0-0-0-0-0-0-0--------|


    D5
   4/4
    PM------------|     PM-----------------|
||--------------------|--------------------|
||o-------------------|--------------------|
||--------------------|-------------7------|
||--------------------|-------------x------|
||o-0-0-0-0-0-0-0-0---|-0-0-0-0-0-0-5------|
||--0-0-0-0-0-0-0-0---|-0-0-0-0-0-0--------|


 1.                              2.                    H.=150
                       G5 Bb5     D5                   G5 Bb5
 6/4
  PM----|  PM--------|            PM----|  PM------------------|
|-----------------------------||-------------------------------|
|----------------------------o||-------------------------------|
|-----------------------------||-------------------------------|
|----------------------5--8---||-----------------------5--8----|
|-0-0-0-0--0-0-0-0-0-0-5--8--o||--0-0-0-0--0-0-0-0-0-0-5--8----|
|-0-0-0-0--0-0-0-0-0-0-5--8---||--0-0-0-0--0-0-0-0-0-0-5--8----|


    Q=150
    D5                              F
   4/4
    Gtr I
    PM------------|     PM---------------------------|
||--------------------|------------------------------|
||o-------------------|------------------------------|
||--------------------|--------------7---(7)b7.5r=---|
||--------------------|--------------x---(x)---------|
||o-0-0-0-0-0-0-0-0---|-0-0-0-0-0-0--5---(5)b5.5r=---|
||--0-0-0-0-0-0-0-0---|-0-0-0-0-0-0------------------|
|
|   Gtr II
|   PM------------|     PM---------------------------|
||--------------------|------------------------------|
||o-------------------|------------------------------|
||--------------------|-------------10--(10)b10.5r---|
||--------------------|--------------x---(x)---------|
||o-0-0-0-0-0-0-0-0---|-0-0-0-0-0-0--8---(8)b8.5r=---|
||--0-0-0-0-0-0-0-0---|-0-0-0-0-0-0------------------|


  D5                   G5 Bb5
 6/4
  PM----|  PM---------------------|
|---------------------------------|
|-----------------------------o---|
|---------------------------------|
|----------------------5--8-------|
|-0-0-0-0--0-0-0-0-0-0-5--8---o---|
|-0-0-0-0--0-0-0-0-0-0-5--8-------|
|
| PM----|  PM---------------------|
|---------------------------------|
|-----------------------------o---|
|---------------------------------|
|----------------------5--8-------|
|-0-0-0-0--0-0-0-0-0-0-5--8---o---|
|-0-0-0-0--0-0-0-0-0-0-5--8-------|


  D5
 4/4
  Gtrs I, II
  PM---------------------------|
|------------------|-----------|
|------------------|-----------|
|------------------|-----------|
|-------------0-0--|-(0)-------|
|-0-0-0-0-0-0-0-0--|-(0)-------|
|-0-0-0-0-0-0-0-0--|-(0)-------|


BACK BURNER
As recorded by August Burns Red
(From the 2007 Album MESSENGERS)

Transcribed by Chris Allan


Words and Music by ABR
Arranged by ABR


Again, for those without power tab. Enjoy. Sorry about the length.


Gtr I (C G C F A D) - 'Untitled'
Gtr II (C G C F A D) - 'Untitled'

 Intro - Main riff
  Q=210
  $
  N.C.
 4/4
  Gtrs I, II
  PM--|   PM   PM  PM                      PM--|   PM   PM  PM  TP  TP TP
  S S E E E  E E E E   E  E E E E E E  E   S S E E E  E E E E   Q   Q  Q   Q
|--------------------|-------------------|--------------------|---------------|
|--------------------|--------------6h10-|--------------------|---------------|
|--------------------|------6h9-7h9------|--------------------|---------------|
|--------------------|-7h11--------------|--------------------|---------------|
|-------8---12---8---|-------------------|-------8---12---8---|--------7--11--|
|-0-0-0---0----0---0-|-------------------|-0-0-0---0----0---0-|-7--11---------|


  N.C.
  PM--|   PM   PM  PM
  S S E E E  E E E E   E  E E E E E E  E
|--------------------|-------------------|
|--------------------|--------------6h10-|
|--------------------|------6h9-7h9------|
|--------------------|-7h11--------------|
|-------8---12---8---|-------------------|
|-0-0-0---0----0---0-|-------------------|


                         D5
  PM--|   PM   PM  PM    PM|    PM  PM
  S S E E E  E E E E   E E E  E E E E  E
|--------------------|---------------------|
|--------------------|----------------10---|
|--------------------|------------9--------|
|--------------------|-7-----11------------|
|-------8---12---8---|---0-0----0---0------|
|-0-0-0---0----0---0-|---0-0----0---0------|


            To Coda
  D5
  Gtr I
  PM|   PM   PM  PM     PM|    PM   PM
  E E E E  E E E E    E E E  E E  E E  E
|------------------|------------------10-|
|------------------|-------------10------|
|--------------9---|--------10-----------|
|-----7---11-------|-12------------------|
|-0-0---0----0---0-|----0-0----0----0----|
|-0-0---0----0---0-|----0-0----0----0----|
|
| Gtr II
| PM|   PM   PM  PM     PM|    PM   PM
| E E E E  E E E E    E E E  E E  E E  E
|------------------|------------------10-|
|------------------|-------------10------|
|--------------9---|--------10-----------|
|-----7---11-------|-12------------------|
|-0-0---0----0---0-|----0-0----0----0----|
|-0-0---0----0---0-|----0-0----0----0----|


  PM|    PM   PM   PM    PM|    PM   PM
  E E  E E  E E  E E   E E E  E E  E E  E
|--------------------|------------------9-|
|---------------10---|------------10------|
|----------10--------|-9-----12-----------|
|-----12-------------|--------------------|
|-0-0----0----0----0-|---0-0----0----0----|
|-0-0----0----0----0-|---0-0----0----0----|
|
| PM|    PM   PM   PM    PM|    PM   PM
| E E  E E  E E  E E   E E E  E E  E E  E
|--------------------|--------------------|
|---------------10---|-----------------10-|
|----------10--------|-------------9------|
|-----12-------------|-7-----11-----------|
|-0-0----0----0----0-|---0-0----0----0----|
|-0-0----0----0----0-|---0-0----0----0----|


  D5
  PM|   PM   PM   PM     PM|    PM   PM     PM|    PM   PM   PM
  E E E E  E E  E E    E E E  E E  E E  E   E E  E E  E E  E E
|-------------------|-------------10---13-|---------------10---||
|--------------10---|--------10-----------|----------10--------||
|-----9---12--------|-10------------------|-----10-------------||
|-------------------|---------------------|--------------------||
|-0-0---0----0----0-|----0-0----0----0----|-0-0----0----0----0-||
|-0-0---0----0----0-|----0-0----0----0----|-0-0----0----0----0-||
|
| PM|   PM   PM   PM     PM|    PM   PM     PM|    PM   PM   PM
| E E E E  E E  E E    E E E  E E  E E  E   E E  E E  E E  E E
|-------------------|------------------10-|--------------------||
|-------------------|-------------10------|---------------10---||
|---------------9---|--------10-----------|----------10--------||
|-----7---11--------|-12------------------|-----12-------------||
|-0-0---0----0----0-|----0-0----0----0----|-0-0----0----0----0-||
|-0-0---0----0----0-|----0-0----0----0----|-0-0----0----0----0-||


 "Gather all your..."
  Q=155
  N.C.                   D5
 5/4
                          PM|        PM-------------|      PM|    PM|    PM
   W                      S S E      S  S  S S  S S  S E.  S S  S S S S  S E.
|-------------------------------||--------------------------------------------|
|-------------------------------||o-------------------------------------------|
|-------------------------------||--------------------------------------------|
|-------------------------------||--------------------------------------------|
|-------------------------0-0---||o--0--0--0-0--0-0--0-----0-0----0-0----0----|
|-------------------------0-0---||---0--0--0-0--0-0--0-----0-0----0-0----0----|
|
|  S  S  E  E  Q   E  Q   E   E      S  S  E    E    Q     E    Q        Q
|-------------------------------||--------------------------------------------|
|-10h11-10----------------------||o-10h11-10----------------------------------|
|-------------10----------------||------------------10------------------------|
|----------12-----12p11---------||-------------12---------12p==11-------------|
|------------------------12-----||o-------------------------------------12----|
|-------------------------------||--------------------------------------------|


  D5
   PM------|    PM|    PM       PM------|
   S  S  S S  S S  S S S E.     S S S S  S E.  4x
|----------------------------------------------||
|---------------------------------------------o||
|----------------------------------------------||
|----------------------------------------------||
|--0--0--0-0----0--0---0--------0-0-0-0--0----o||
|--0--0--0-0----0--0---0--------0-0-0-0--0-----||
|
|  S  S  E    E    Q         E  Q        Q     4x
|----------------------------------------------||
|-10h11-10------------------------------------o||
|-----------------10---------------------------||
|------------12-------------12p11--------------||
|---------------------------------------12----o||
|----------------------------------------------||


 6/4
  PM-------------------------------|
  E E S S S S S S S S S E. S S S S S  E.
|-----------------------------------------|
|-----------------------------------------|
|-----------------------------------------|
|-----------------------------------------|
|-0---0-0-0-0---0-0---0----0-0-0-0-0-12\--|
|-0---0-0-0-0---0-0---0----0-0-0-0-0-12\--|
|
| PM-------------------------------|
| E E S S S S S S S S S E. S S S S S  E.
|-----------------------------------------|
|-----------------------------------------|
|-----------------------------------------|
|-----------------------------------------|
|-0---0-0-0-0---0-0---0----0-0-0-0-0-12\--|
|-0---0-0-0-0---0-0---0----0-0-0-0-0-12\--|


   Breakdown A
    D5
   5/4
    Gtrs I, II
    PM----------|    PM|   PM|   PM     PM----|   PM|   PM   PM------|
    S S S S S S S E. S S S S S S S E.   S S S S S S S S S E. S S S S S E.
||------------------------------------|------------------------------------||
||o-----------------------------------|-----------------------------------o||
||------------------------------------|------------------------------------||
||------------------------------------|------------------------------------||
||o-0-0-0-0-0-0-0----0-0---0-0---0----|-0-0-0-0---0-0---0----0-0-0-0-0----o||
||--0-0-0-0-0-0-0----0-0---0-0---0----|-0-0-0-0---0-0---0----0-0-0-0-0-----||


  D5
  Gtr I
   PM-------------|      PM|    PM|    PM
   S  S  S S  S S  S E.  S S  S S S S  S E.
|-------------------------------------------|
|-------------------------------------------|
|-------------------------------------------|
|-------------------------------------------|
|--0--0--0-0--0-0--0-----0-0----0-0----0----|
|--0--0--0-0--0-0--0-----0-0----0-0----0----|
|
| Gtr II
|  S  S  E    E    Q     E    Q        Q
|-------------------------------------------|
|-10h11-10----------------------------------|
|-----------------10------------------------|
|------------12---------12p==11-------------|
|-------------------------------------12----|
|-------------------------------------------|


   PM------|    PM|    PM       PM------|
   S  S  S S  S S  S S S E.     S S S S  S E.
|----------------------------------------------|
|----------------------------------------------|
|----------------------------------------------|
|----------------------------------------------|
|--0--0--0-0----0--0---0--------0-0-0-0--0-----|
|--0--0--0-0----0--0---0--------0-0-0-0--0-----|
|
|  S  S  E    E    Q         E  Q        Q
|----------------------------------------------|
|-10h11-10-------------------------------------|
|-----------------10---------------------------|
|------------12-------------12p11--------------|
|---------------------------------------12-----|
|----------------------------------------------|


  D5
  PM------------|      PM|    PM|   PM
  S  S S S  S S  S E.  S S  S S S S S E.
|----------------------------------------|
|----------------------------------------|
|----------------------------------------|
|----------------------------------------|
|-0--0-0-0--0-0--0-----0-0----0-0---0----|
|-0--0-0-0--0-0--0-----0-0----0-0---0----|
|
| S  S E    E    Q     E    Q       Q
|----------------------------------------|
|----------------------------------------|
|-9h10p9--------------12---10-------9----|
|----------12p==11-----------------------|
|----------------------------------------|
|----------------------------------------|


  PM-----|    PM|    PM       PM------|
  S  S S S  S S  S S S E.     S S S S  S E.
|--------------------------------------------|
|--------------------------------------------|
|--------------------------------------------|
|--------------------------------------------|
|-0--0-0-0----0--0---0--------0-0-0-0--0-----|
|-0--0-0-0----0--0---0--------0-0-0-0--0-----|
|
| S  S E    E    Q         E  Q        Q
|--------------------------------------------|
|--------------------------------------------|
|-9h10p9-------------------------------------|
|----------12p==11--------12p11--------------|
|-------------------------------------12-----|
|--------------------------------------------|


 Transition
  Q=195
  Bbm                  A                D5
 3/4
  Gtrs I, II
  H.        +H.        H.        +H       Q
|---------|----------|---------|--------------|
|---------|----------|---------|--------------|
|-6-------|-(6)------|-6-------|-(6)----------|
|-8-------|-(8)------|-7-------|-(7)----------|
|-8-------|-(8)------|-7-------|-(7)----/12\--|
|-8-------|-(8)------|-7-------|-(7)----/12\--|


   "Still that empty feeling..."
    N.C.                                                  A5
    PM----|   PM|       PM        PM----|   PM----------|   PM|
    E S S E E E E   E E E E E E   E S S E E E E   E S S E E E E
||----------------|-------------|---------------|---------------|
||o---------------|-------------|---------------|---------------|
||----------------|-------------|---------------|---------------|
||----------------|-7-----------|---------------|---------------|
||o---------5-----|---5---5h7p0-|---------5-----|---------7-----|
||--0-0-0-0---0-0-|-----0-------|-0-0-0-0---0-0-|-7-7-7-7-7-7-7-|


                                             D.S. al Coda
  N.C.    Bb5                           C5
  PM----|   PM|                 PM----|   PM|
  E S S E E E E   E  E E Q.     E S S E E E E   E E E Q.    4x
|---------------|-------------|---------------|-------------||
|---------------|-------------|---------------|------------o||
|---------------|-------------|---------------|-------------||
|---------------|------7------|---------5-----|-7h8---------||
|---------8-----|-8h10---8----|-3-3-3-3-3-3-3-|-----5p4----o||
|-8-8-8-8-8-8-8-|-------------|---------------|-------------||


  Q=210
  &
    D5           N.C.
 4/4
    PM|    PM  PM
  E E E  E E E E  E    E  E  E E  E  E  E  E
|-------------------|------------------------||
|----------------10-|-11-10------------------||
|------------9------|-------10-9-------------||
|-7-----11----------|------------12-11-------||
|---0-0----0---0----|------------------12-10-||
|---0-0----0---0----|------------------------||


   "When did you become..."
    N.C.
      PM|   PM  PM    PM|   PM  PM  PM    PM  PM          PM  PM|   PM
    E E E E E E E E   E E E E E E E E   E E E E E E E E   E E E E E E E E
||------------------|-----------------|-----------------|------------------|
||o-----------------|-----------------|-----------------|------------------|
||------------------|-----------------|-----------------|------------------|
||--------7---------|-----------------|-----------------|------------------|
||o-8---------8---7-|-----5---7---8---|-4---4---5p0---1-|---7-----7---8p0--|
||----0-0---0---0---|-0-0---0---0---0-|---0---0-----0---|-0---0-0---0------|


  1.
  N.C.
  PM--|   PM   PM  PM
  S S E E E  E E E E   E  E E E E E E  E
|--------------------|-------------------|
|--------------------|--------------6h10-|
|--------------------|------6h9-7h9------|
|--------------------|-7h11--------------|
|-------8---12---8---|-------------------|
|-0-0-0---0----0---0-|-------------------|


  PM--|   PM   PM  PM  TP  TP TP
  S S E E E  E E E E   Q   Q  Q   Q
|--------------------|-----------------|
|--------------------|-----------------|
|--------------------|-----------------|
|--------------------|-----------------|
|-------8---12---8---|--------7--11----|
|-0-0-0---0----0---0-|-7--11-----------|


  N.C.
  PM--|   PM   PM  PM
  S S E E E  E E E E   E  E E E E E E  E
|--------------------|-------------------|
|--------------------|--------------6h10-|
|--------------------|------6h9-7h9------|
|--------------------|-7h11--------------|
|-------8---12---8---|-------------------|
|-0-0-0---0----0---0-|-------------------|


                         D5
  PM--|   PM   PM  PM    PM|    PM  PM
  S S E E E  E E E E   E E E  E E E E  E
|--------------------|---------------------|
|--------------------|----------------10---|
|--------------------|------------9--------|
|--------------------|-7-----11------------|
|-------8---12---8---|---0-0----0---0------|
|-0-0-0---0----0---0-|---0-0----0---0------|


  D5                                N.C.
  PM|   PM   PM  PM    PM|    PM  PM
  E E E E  E E E E   E E E  E E E E  E    E  E  E E  E  E  E  E
|------------------|-------------------|-------------------------||
|------------------|----------------10-|-11-10------------------o||
|--------------9---|------------9------|-------10-9--------------||
|-----7---11-------|-7-----11----------|------------12-11--------||
|-0-0---0----0---0-|---0-0----0---0----|------------------12-10-o||
|-0-0---0----0---0-|---0-0----0---0----|-------------------------||


  2.225
  Bb/D
 6/4
  PM---------------------------------------|
  Q  Q  E E E Q  Q  E   Q  Q  E E E Q  E E E
|---------------------|----------------------|
|---------------------|----------------------|
|---------------------|----------------------|
|---------------------|----------------------|
|-1--1--1-1-1-1--1--1-|-1--1--1-1-1-1--1-1-1-|
|-0--0--0-0-0-0--0--0-|-0--0--0-0-0-0--0-0-0-|


  D5                    D+7
                       8/4
  PM-----------------------------------|
  Q  Q  E E E Q  Q  E   Q  Q  E E E Q  Q  E H
|---------------------|--------------------------||
|---------------------|--------------------------||
|---------------------|--------------------------||
|---------------------|--------------------------||
|-0--0--0-0-0-0--0--0-|-4--4--4-4-4-4--4---------||
|-0--0--0-0-0-0--0--0-|-0--0--0-0-0-0--0---------||


   Breakdown B
    D5
   6/4
    PM---------------------------------------|
    Q  Q  E E E Q  Q  E   Q  Q  E E E Q  E E E
||----------------------|-----------------------|
||o---------------------|-----------------------|
||----------------------|-----------------------|
||----------------------|-----------------------|
||o-0--0--0-0-0-0--0--0-|-0--0--0-0-0-0--0-0-0--|
||--0--0--0-0-0-0--0--0-|-0--0--0-0-0-0--0-0-0--|


  D5
  PM-----------------------------------|
  Q  Q  E E E Q  Q  E   Q  Q  E E E Q  Q  E
|---------------------|----------------------||
|---------------------|---------------------o||
|---------------------|----------------------||
|---------------------|----------------------||
|-0--0--0-0-0-0--0--0-|-0--0--0-0-0-0--0----o||
|-0--0--0-0-0-0--0--0-|-0--0--0-0-0-0--0-----||


    D5
    Gtr I
     PM-----------------------------------------------|
     Q   Q   E E E Q   Q   E    Q   Q   E E E Q   E E E
||---------------------------|--------------------------|
||o--------------------------|--------------------------|
||---------------------------|--------------------------|
||---------------------------|--------------------------|
||o--0---0---0-0-0-0---0---0-|--0---0---0-0-0-0---0-0-0-|
||---0---0---0-0-0-0---0---0-|--0---0---0-0-0-0---0-0-0-|
|
|   Gtr II
|    E E E E E E E E E E E E    E E E E E E E E E E E E
||---------------------------|--------------------------|
||o-11p7---------------------|-11p7---------------------|
||-------8p7-8p7-------------|------8p7-8p7-------------|
||---------------8p7p0h7h8p7-|--------------8p7p0h7h8p7-|
||o--------------------------|--------------------------|
||---------------------------|--------------------------|


  D5
   PM-------------------------------------------|
   Q   Q   E E E Q   Q   E    Q   Q   E E E Q   Q   E
|--------------------------|---------------------------||
|--------------------------|--------------------------o||
|--------------------------|---------------------------||
|--------------------------|---------------------------||
|--0---0---0-0-0-0---0---0-|--0---0---0-0-0-0---0-----o||
|--0---0---0-0-0-0---0---0-|--0---0---0-0-0-0---0------||
|
|  E E E E E E E E E E E E    E E E E E E E E E E E E
|--------------------------|---------------------------||
|-11p7---------------------|-11p7---------------------o||
|------8p7-8p7-------------|------8p7-8p7--------------||
|--------------8p7p0h7h8p7-|--------------8p7p0h7h8p===||
|--------------------------|--------------------------o||
|--------------------------|---------------------------||


 Transition
  Q=205
  D5    N.C.
 4/4
  Gtrs I, II
                                        TP    TP     TP
  Q  Q  E E  E E    E E E E +Q    Q     H     H      H     Q  Q
|----------------|--------------------|------------|-------------||
|----------------|-11p7---------------|------------|-------------||
|----------------|------8p7-(7)--[7]--|------------|-------------||
|-----------10p8-|--------------------|------------|-------------||
|-0--0--8p7------|--------------------|------------|-7----11-----||
|-0--0-----------|--------------------|-7----11----|-------------||


   "Lucky for you..."
    N.C.
    PM|   PM       PM|     PM
                                     |--3--|
    E E E E S  S E E E   E E S  S E  E  E  E  Q
||---------------------|-------------------------|
||o--------------------|-------------------------|
||---------------------|------------10h14p10-----|
||---------------------|---------------------12--|
||o-----8---8h12p0-----|-8---8h12p0--------------|
||--0-0---0--------0-0-|---0---------------------|


  N.C.                 A5G#G5F#BbA5G#G5
  PM|   PM       PM------------------|
  E E E E S  S E E E   E E E E E E E E
|--------------------|-----------------|
|--------------------|-----------------|
|--------------------|-----------------|
|--------------------|-----------------|
|-----8---8h12p0-----|-7-6-5-4-8-7-6-5-|
|-0-0---0--------0-0-|-7-6-5-4-8-7-6-5-|


  N.C.
  PM|   PM       PM|     PM
                                   |--3--|
  E E E E S  S E E E   E E S  S E  E  E  E  Q
|--------------------|-------------------------|
|--------------------|-------------------------|
|--------------------|------------10h14p10-----|
|--------------------|---------------------12--|
|-----8---8h12p0-----|-8---8h12p0--------------|
|-0-0---0--------0-0-|---0---------------------|


                      1.
  N.C.
  PM|   PM       PM|   ~~~~~~~~~~~~
  E E E E S  S E E E   Q.   Q.   Q
|--------------------|---------------||
|--------------------|--------------o||
|--------------------|---------------||
|--------------------|---------------||
|-----8---8h12p0-----|-5----5----5--o||
|-0-0---0--------0-0-|---------------||


  2.
  A5G#G5F#BbA5G#G5  C5 B5BbA5C#5C5 B5Bb5
  PM---------------------------------|
  E E E E E E E E    E E E E  E  E E E
|-----------------|--------------------|
|-----------------|--------------------|
|-----------------|--------------------|
|-----------------|--------------------|
|-7-6-5-4-8-7-6-5-|-10-9-8-7-11-10-9-8-|
|-7-6-5-4-8-7-6-5-|-10-9-8-7-11-10-9-8-|


  Q=195
  N.C.
   Q.    Q.   Q    Q.   Q.   E +E    Q.   Q.   Q
|----------------|-----------------|--------------||
|----------------|-----------------|--------------||
|----------------|-----------------|--------------||
|----------------|-----------------|--------------||
|----------------|-----------------|--------------||
|-12----12----8--|-7----7----3-(3)S|=7----7----2--||


   Outro/Breakdown C
    Q=235
    D5
    PM---|        PM----------------|
    E Q  E H      E Q  Q  Q  E   Q  Q  H
||--------------|--------------|------------|
||o-------------|--------------|------------|
||--------------|--------------|------------|
||--------------|--------------|------------|
||o-0-0--0------|-0-0--0--0--0-|-0--0-------|
||--0-0--0------|-0-0--0--0--0-|-0--0-------|


                                2/4
  PM-----------------------------|
  E Q  Q  E E E   Q  Q  E Q  E   +E  Q.
|---------------|--------------|------------||
|---------------|--------------|-----------o||
|---------------|--------------|------------||
|---------------|--------------|------------||
|-0-0--0--0-0-0-|-0--0--0-0--0-|-(0)-------o||
|-0-0--0--0-0-0-|-0--0--0-0--0-|-(0)--------||


  D5                           N.C.
 4/4
  PM|                          PM---|
  E Q  E +H       +W           E Q  E H      W
|---------------|------------|-------------|------|
|---------------|------------|-------------|------|
|---------------|------------|-------------|------|
|---------------|------------|-------------|------|
|-0-0--0-(0)----|-(0)--------|-0-0--0------|------|
|-0-0--0-(0)----|-(0)--------|-1-1--1------|------|


    N.C.
    PM---|          PM----------------|
    E Q  E +H       E Q  Q  Q  E   Q  Q  +H
||----------------|--------------|--------------|
||o---------------|--------------|--------------|
||----------------|--------------|--------------|
||----------------|--------------|--------------|
||o-0-0--0-(0)----|-0-0--0--0--0-|-0--0--(0)----|
||--1-1--1-(1)----|-1-1--1--1--1-|-1--1--(1)----|


                                2/4
  PM-----------------------------|
  E Q  Q  E E E   Q  Q  E Q  E   +H
|---------------|--------------|---------||
|---------------|--------------|--------o||
|---------------|--------------|---------||
|---------------|--------------|---------||
|-0-0--0--0-0-0-|-0--0--0-0--0-|-(0)----o||
|-1-1--1--1-1-1-|-1--1--1-1--1-|-(1)-----||


    D5
   4/4
    PM---|        PM----------------|
    E Q  E H      E Q  Q  Q  E   Q  Q  H
||--------------|--------------|------------|
||o-------------|--------------|------------|
||--------------|--------------|------------|
||--------------|--------------|------------|
||o-0-0--0------|-0-0--0--0--0-|-0--0-------|
||--0-0--0------|-0-0--0--0--0-|-0--0-------|


                                2/4
  PM-----------------------------|
  E Q  Q  E E E   Q  Q  E Q  E   +E  Q.
|---------------|--------------|------------||
|---------------|--------------|-----------o||
|---------------|--------------|------------||
|---------------|--------------|------------||
|-0-0--0--0-0-0-|-0--0--0-0--0-|-(0)-------o||
|-0-0--0--0-0-0-|-0--0--0-0--0-|-(0)--------||


  D5
 4/4
  PM|
  E Q  E +H       +W           +W           +W
|---------------|------------|------------|--------*|
|---------------|------------|------------|--------*|
|---------------|------------|------------|--------*|
|---------------|------------|------------|--------*|
|-0-0--0-(0)----|-(0)--------|-(0)--------|-(0)----*|
|-0-0--0-(0)----|-(0)--------|-(0)--------|-(0)----*|

----------------------------------------------------------------------------
		     The Blinding Light - August Burns Red
----------------------------------------------------------------------------
this song is a powertab so here you go
http://www.ultimate-guitar.com/tabs/a/august_burns_red/blinding_light_power_tab.htm

COMPOSURE
As recorded by August Burns Red
(From the 2007 Album MESSENGERS)

Transcribed by Chris Allan
For those without powertab, here you go.
Words and Music by ABR

 Intro
  Q=193
  D5                                                                C5
 4/4
  Gtr I
          PM|   PM            PM|   PM          PM|   PM             PM|   PM
  E E E E E E E E    E  E E E E E E E   E E E E E E E E    E  E E E  E E E E
|-----------------|-------------------|-----------------|--------------------|
|-----------------|-------------------|-----------------|--------------------|
|-------------7---|---------------7---|-------------7---|----------------7---|
|-7h8p0-----------|--7h=8p0-----------|-7h8p0-----------|--7h=8p0------------|
|-------7---------|---------7---------|-------7---------|---------7----------|
|---------0-0---0-|-----------0-0---0-|---------0-0---0-|------------0-0---0-|
|
| Gtr II
| W                 +W                  W                 +H         H
|-----------------|-------------------|-----------------|--------------------|
|-----------------|-------------------|-----------------|--------------------|
|-----------------|-------------------|-----------------|--------------------|
|-0---------------|-(0)---------------|-0---------------|-(0)-------10-------|
|-0---------------|-(0)---------------|-0---------------|-(0)-------10-------|
|-0---------------|-(0)---------------|-0---------------|-(0)-------10-------|


  Bb5
          PM|    PM            PM|    PM
  E E E E E E  E E    E  E E E E E  E E
|------------------|--------------------|
|------------------|--------------------|
|------------------|--------------------|
|------------------|--------------------|
|-7h8p0-------10---|--7h=8p0-------10---|
|-------8-8-8----8-|---------8-8-8----8-|
|
| W                  +W
|------------------|--------------------|
|------------------|--------------------|
|------------------|--------------------|
|-8----------------|-(8)----------------|
|-8----------------|-(8)----------------|
|-8----------------|-(8)----------------|


                               G5
          PM|    PM            PM|    PM
  E E E E E E  E E    E  E E E E E  E E
|------------------|--------------------|
|------------------|--------------------|
|------------------|--------------------|
|------------------|--------------------|
|-7h8p0-------10---|--7h=8p0-------10---|
|-------8-8-8----8-|---------8-8-8----8-|
|
| W                  +H        H
|------------------|--------------------|
|------------------|--------------------|
|------------------|--------------------|
|-8----------------|-(8)-------5--------|
|-8----------------|-(8)-------5--------|
|-8----------------|-(8)-------5--------|


  D5                                                                 C5
          PM|   PM            PM|    PM          PM|   PM             PM|    PM
  E E E E E E E E    E  E E E E E  E E   E E E E E E E E    E  E E E  E E  E E
|-----------------|--------------------|-----------------|---------------------|
|-----------------|--------------------|-----------------|---------------------|
|-------------7---|---------------10---|-------------7---|----------------10---|
|-7h8p0-----------|--7h=8p0------------|-7h8p0-----------|--7h=8p0-------------|
|-------7---------|---------7----------|-------7---------|---------7-----------|
|---------0-0---0-|-----------0-0----0-|---------0-0---0-|------------0-0----0-|
|
| W                 +W                   W                 +H         H
|-----------------|--------------------|-----------------|---------------------|
|-----------------|--------------------|-----------------|---------------------|
|-----------------|--------------------|-----------------|---------------------|
|-0---------------|-(0)----------------|-0---------------|-(0)-------10--------|
|-0---------------|-(0)----------------|-0---------------|-(0)-------10--------|
|-0---------------|-(0)----------------|-0---------------|-(0)-------10--------|


  Bb5
          PM|    PM            PM|    PM
  E E E E E E  E E    E  E E E E E  E E
|------------------|--------------------|
|------------------|--------------------|
|------------------|--------------------|
|------------------|---------------10---|
|-7h8p0-------10---|--7h=8p0------------|
|-------8-8-8----8-|---------8-8-8----8-|
|
| W                  +W
|------------------|--------------------|
|------------------|--------------------|
|------------------|--------------------|
|-8----------------|-(8)----------------|
|-8----------------|-(8)----------------|
|-8----------------|-(8)----------------|


                     C5
          PM|    PM           PM--|
  E E E E E E  E E    E E E E E E   E  E
|------------------|---------------------|
|------------------|---------------------|
|------------------|---------------------|
|------------------|---------------------|
|-7h8p0-------10---|--7h8p0--------------|
|-------8-8-8----8-|--------8-8-8---8----|
|
| W                   H.           +E  E
|------------------|---------------------|
|------------------|---------------------|
|------------------|---------------------|
|-8----------------|-10-----------(10)---|
|-8----------------|-10-----------(10)---|
|-8----------------|-10-----------(10)---|


    N.C.
               PM|    PM             PM|    PM
     E  E E  E E E  E E    E  E E  E E E  E E
||----------------------|---------------------|
||o---------------------|---------------------|
||------------------7---|-----------------7---|
||---7h=8p0-------------|--7h=8p0-------------|
||o----------7----------|----------7----------|
||-------------0-0----0-|------------0-0----0-|
|
|              PM|    PM             PM|    PM
|    E  E E  E E E  E E    E  E E  E E E  E E
||----------------------|---------------------|
||o----------------10---|----------------10---|
||----------------------|---------------------|
||--10h12---------------|-10h12---------------|
||o-------8h10----------|-------8h10----------|
||-------------0-0----0-|------------0-0----0-|


             PM|    PM             PM|    PM
   E  E E  E E E  E E    E  E E  E E E  E E
|---------------------|----------------------|
|---------------------|----------------------|
|-----------------7---|-----------------7----|
|--7h=8p0-------------|--7h=8p0--------------|
|----------7----------|----------7-----------|
|------------0-0----0-|------------0-0----0--|
|
|            PM|    PM             PM|    PM
|  E  E E  E E E  E E    E  E E  E E E  E E
|---------------------|----------------------|
|----------------10---|----------------10----|
|---------------------|----------------------|
|-10h12---------------|-10h12----------------|
|-------8h10----------|-------8h10-----------|
|------------0-0----0-|------------0-0----0--|


  N.C.
           PM|    PM           PM|    PM
  E E E  E E E  E E   E E E  E E E  E E
|-------------------|-------------------|
|-------------------|-------------------|
|-------------------|-------------------|
|-------------------|-------------------|
|-7h8p0--------10---|-7h8p0--------10---|
|--------8-8-8----8-|--------8-8-8----8-|
|
|          PM|    PM           PM|    PM
| E E E  E E E  E E   E E E  E E E  E E
|-------------------|-------------------|
|-------------------|-------------------|
|-------------------|-------------------|
|-5h7-----------8---|-5h7-----------8---|
|-----8h10----------|-----8h10----------|
|----------8-8----8-|----------8-8----8-|


           PM|    PM           PM|    PM
  E E E  E E E  E E   E E E  E E E  E E
|-------------------|--------------------||
|-------------------|-------------------o||
|-------------------|--------------------||
|-------------------|--------------------||
|-7h8p0--------10---|-7h8p0--------10---o||
|--------8-8-8----8-|--------8-8-8----8--||
|
|          PM|    PM           PM|    PM
| E E E  E E E  E E   E E E  E E E  E E
|-------------------|--------------------||
|-------------------|-------------------o||
|-------------------|--------------------||
|-5h7-----------8---|-5h7-----------8----||
|-----8h10----------|-----8h10----------o||
|----------8-8----8-|----------8-8----8--||


   Tempo Change
    Q=155
    N.C.
    PM--|       PM----------------|       PM--------|
    S S E S S E E S S S S E   S S E S S E E S S S S E
||--------------------------|-------------------------|
||o-------------------------|-------------------------|
||--------------------------|-------------------------|
||--------------------------|-------------------------|
||o-------7h8p7---5-5-5-5---|-------7h8p7-------------|
||--0-0-0-------0---------7-|-0-0-0-------0-8-8-8-8-7-|
|
|   PM--|       PM----------------|       PM--------|
|   S S E S S E E S S S S E   S S E S S E E S S S S E
||--------------------------|-------------------------|
||o-------------------------|-------------------------|
||--------------------------|-------------------------|
||--------------------------|-------------------------|
||o-------7h8p7---5-5-5-5---|-------7h8p7-------------|
||--0-0-0-------0---------7-|-0-0-0-------0-8-8-8-8-7-|


  N.C.
        PM--------------------|
  S S E E  S  S S S S S S S S S   S S S S S  S S S  S  S  S S  S  S  S S
|-------------------------------|----------------------------------------|
|-------------------------------|----------------------------------------|
|---------10-10-9-9-7-7-9-9-7-7-|----------------------------------------|
|-------------------------------|-7h8p7p0-8h10p8p0-10h12p10p0-12h14p12p0-|
|-7h8p7-------------------------|----------------------------------------|
|-------0-----------------------|----------------------------------------|
|
|       PM--------------------|
| S S E E  S  S S S S S S S S S   S S S S S  S S S  S  S  S S  S  S  S S
|-------------------------------|----------------------------------------|
|-------------------------------|----------------------------------------|
|---------10-10-9-9-7-7-9-9-7-7-|----------------------------------------|
|-------------------------------|-7h8p7p0-8h10p8p0-10h12p10p0-12h14p12p0-|
|-7h8p7-------------------------|----------------------------------------|
|-------0-----------------------|----------------------------------------|


  1.                             2.
  N.C.
  PM--|       PM----------------------|          PM--------|
  S S E S S E E S S S S E         S S E  S  S  E E S S S S E
|--------------------------||-||-----------------------------|
|-------------------------o||-||o----------------------------|
|--------------------------||-||-----------------------------|
|--------------------------||-||-----------------------------|
|-------7h8p7---5-5-5-5---o||-||o--------7h=8p=7---5-5-5-5---|
|-0-0-0-------0---------7--||-||--0-0-0----------0---------7-|
|
| PM--|       PM----------------------|          PM--------|
| S S E S S E E S S S S E         S S E  S  S  E E S S S S E
|--------------------------||-||-----------------------------|
|-------------------------o||-||o----------------------------|
|--------------------------||-||-----------------------------|
|--------------------------||-||-----------------------------|
|-------7h8p7---5-5-5-5---o||-||o-------10h12p10---8-8-8-8---|
|-0-0-0-------0---------7--||-||--0-0-0----------0---------7-|


  N.C.
  PM--|          PM--------|            PM---------------------------|
  S S E  S  S  E E S S S S E    S  S  E E  S  S  S  S  S  S  S  S  S  S
|----------------------------|------------------------------------------|
|----------------------------|------------------------------------------|
|----------------------------|------------10-10--9--9--7--7--9--9--7--7-|
|----------------------------|------------------------------------------|
|--------7h=8p=7-------------|--7h=8p=7---------------------------------|
|-0-0-0----------0-8-8-8-8-7-|----------0-------------------------------|
|
| PM--|          PM--------|            PM---------------------------|
| S S E  S  S  E E S S S S E    S  S  E E  S  S  S  S  S  S  S  S  S  S
|----------------------------|------------------------------------------|
|----------------------------|------------------------------------------|
|----------------------------|------------14-14-12-12-10-10-12-12-10-10-|
|----------------------------|------------------------------------------|
|-------10h12p10-------------|-10h12p10---------------------------------|
|-0-0-0----------0-8-8-8-8-7-|----------0-------------------------------|


  N.C.
   S  S  S S  S  S  S S  S  S  S S  S  S  S S
|----------------------------------------------||
|---------------------------------------------o||
|----------------------------------------------||
|--7h=8p=7p0--8h10p=8p0-10h12p10p0-12h14p12p0--||
|---------------------------------------------o||
|----------------------------------------------||
|
|  S  S  S S  S  S  S S  S  S  S S  S  S  S S
|----------------------------------------------||
|---------------------------------------------o||
|----------------------------------------------||
|-10h12p10p0-12h14p12p0-14h15p14p0-15h17p15p0--||
|---------------------------------------------o||
|----------------------------------------------||


   Breakdown A
    D5
    Gtrs I, II
    PM-------------------------------------------------|   PM----|
    S S S S S S S S S S S S S S S S   S S S E. S S S S S S S S S S
||----------------------------------|-------------------------------|
||o---------------------------------|-------------------------------|
||----------------------------------|-------------------------------|
||----------------------------------|-------------------------------|
||o-0-0-0-0-0---0-0-0-0-0---0---0-0-|-0-0-0----0-0-0-0-0---0-0-0-0--|
||--0-0-0-0-0---0-0-0-0-0---0---0-0-|-0-0-0----0-0-0-0-0---0-0-0-0--|


  1.                       2.
  D5
 3/4
  PM-------------------------------------|
  S S S S S S S S S E.     S S S S S S S S Q    +H.
|-----------------------||--------------------|--------|
|----------------------o||--------------------|--------|
|-----------------------||--------------------|--------|
|-----------------------||--------------------|--------|
|-0---0---0-0-0-0-0----o||-0---0---0-0-0-0-0--|-(0)----|
|-0---0---0-0-0-0-0-----||-0---0---0-0-0-0-0--|-(0)----|


    D5
   4/4
    PM-------------------------------------------------|   PM----|
    S S S S S S S S S S S S S S S S   S S S E. S S S S S S S S S S
||----------------------------------|------------------------------|
||o---------------------------------|------------------------------|
||----------------------------------|------------------------------|
||----------------------------------|------------------------------|
||o-0-0-0-0-0---0-0-0-0-0---0---0-0-|-0-0-0----0-0-0-0-0---0-0-0-0-|
||--0-0-0-0-0---0-0-0-0-0---0---0-0-|-0-0-0----0-0-0-0-0---0-0-0-0-|


  1.,2.                    3.
  D5
 3/4                      2/4
  PM--------------------------------------|
  S S S S S S S S S E.  3x  S S S S S S S S
|-----------------------||------------------||
|----------------------o||------------------||
|-----------------------||------------------||
|-----------------------||------------------||
|-0---0---0-0-0-0-0----o||--0---0---0-0-0-0-||
|-0---0---0-0-0-0-0-----||--0---0---0-0-0-0-||


   Bridge
    Q=165
    Dm                         N.C.
   4/4
    Gtr I
    Q  Q  E E E E   +E  E E. S S  S E  E  E
||--------------5-|-(5)-5-5----8h10p8-------|
||o-6--6--6-6-6-6-|-(6)-6-6-----------10h11-|
||--7--7--7-7-7-7-|-(7)-7-7-----------------|
||--0--0--0-0-0-0-|-(0)-0-0-----------------|
||o---------------|-------------------------|
||----------------|-------------------------|
|
|   Gtr II
|   Q  Q  E E E E   +E  E E. S S  S E  E  E
||--------------5-|-(5)-5-5----8h10p8-------|
||o-6--6--6-6-6-6-|-(6)-6-6-----------10h11-|
||--7--7--7-7-7-7-|-(7)-7-7-----------------|
||--0--0--0-0-0-0-|-(0)-0-0-----------------|
||o---------------|-------------------------|
||----------------|-------------------------|


  F5/Bb            Bb/G           N.C.
   Q   Q   E  E  E E   +E  E E. S E E Q
|--------------------|--------------------||
|--------------------|-------------------o||
|--------------------|--------------------||
|-10--10--10-10-10-8-|-(8)-8-8----8p7-----||
|--8---8---8--8--8-5-|-(5)-5-5--------8--o||
|--8---8---8--8--8-5-|-(5)-5-5------------||
|
|  Q   Q   E  E  E E   +E  E E. S E E Q
|--------------------|--------------------||
|--------------------|-------------------o||
|--------------------|--------------------||
|-10--10--10-10-10-8-|-(8)-8-8----8p7-----||
|--8---8---8--8--8-5-|-(5)-5-5--------8--o||
|--8---8---8--8--8-5-|-(5)-5-5------------||


    Dm                                       N.C.
     Q   E  E  E  E  E  E    +E   E  E   E    S  S  E  E  E
||------------------------|---------------------------------|
||o-----------------------|---------------------------------|
||---------------------14-|-(14)-14-14--14---14h15p14-------|
||--12--12-12-15-15-15----|---------------------------15h17-|
||o-----------------------|---------------------------------|
||------------------------|---------------------------------|
|
|    Q   Q     E  E  E  E    +E   E  E.    S  S  S  E  E  E
||----------------------5-|--(5)--5--5--------8h10p=8-------|
||o--6---6-----6--6--6--6-|--(6)--6--6----------------10h11-|
||---7---7-----7--7--7--7-|--(7)--7--7----------------------|
||---0---0-----0--0--0--0-|--(0)--0--0----------------------|
||o-----------------------|---------------------------------|
||------------------------|---------------------------------|


  1.,2.,3.
  F5/Bb              Bb/G                  N.C.
   Q   E  E  Q     E  E    +E   E  E   E    E  +E      +Q    4x
|--------------------17-|-(17)-17-17--17---17-(17)b18r(17)---||
|-----------15----15----|-----------------------------------o||
|-17--17-17-------------|------------------------------------||
|-----------------------|------------------------------------||
|-----------------------|-----------------------------------o||
|-----------------------|------------------------------------||
|
|  Q   Q     E  E  E  E    +E   E  E.    S  E   E       Q    4x
|-----------------------|------------------------------------||
|-----------------------|-----------------------------------o||
|-----------------------|------------------------------------||
|-10--10----10-10-10--8-|--(8)--8--8--------8p==7------------||
|--8---8-----8--8--8--5-|--(5)--5--5--------------------8---o||
|--8---8-----8--8--8--5-|--(5)--5--5-------------------------||


  4.
  F5/Bb              Bb/G
   Q   E  E  Q     E  E
|--------------------17b18==|
|-----------15----15--------|
|-17--17-17-----------------|
|---------------------------|
|---------------------------|
|---------------------------|
|
|  Q   Q     E  E  E  E
|---------------------------|
|---------------------------|
|---------------------------|
|-10--10----10-10-10--8-----|
|--8---8-----8--8--8--5-----|
|--8---8-----8--8--8--5-----|


   +Q     E  E  E  E  E   E    +Q     E  E  E  E  E  E
|-(17)---17-17-17-17-17r-17-|-(17)---17-17-17-17-17-15-|
|---------------------------|--------------------------|
|---------------------------|--------------------------|
|---------------------------|--------------------------|
|---------------------------|--------------------------|
|---------------------------|--------------------------|
|
|  +E  E  E  E  E  E  E   E     E  E  E  E  E  E  E  E
|---------------------------|--------------------------|
|---------------------------|--------------------------|
|---------------------------|--------------------------|
|--(8)-8--8--8--8--8--8---8-|---8--8--8--8--8--8--8--8-|
|--(5)-5--5--5--5--5--5---5-|---5--5--5--5--5--5--5--5-|
|--(5)-5--5--5--5--5--5---5-|---5--5--5--5--5--5--5--5-|


                               Q=155
  Ab/F   F5                      N.C.
   +Q     E  E  E  E  E   E    E E E  E E E E E
|-(15)---15-15-15-15-15--15--|------------------||
|----------------------------|------------6-6-6-||
|--------------------(9)-(9)-|-9-9-9--9-9-9-9-9-||
|----------------------------|------------------||
|----------------------------|------------------||
|----------------------------|------------------||
|
|   E  E  E  E  E  E  E   E    E E H.
|----------------------------|------------------||
|----------------------------|------------------||
|----------------------------|------------------||
|---8--8--5--5--5--5--5---5--|-5----------------||
|---5--5--5--5--5--5--5---5--|-5----------------||
|---5--5--5--5--5--5--5---5--|-5----------------||


   Breakdown B
    D5
    Gtrs I, II
    PM------------------------|     PM----|    PM----------|
    S S S S E S S S S S S S S E   S S S S S E. S S S S S S S S
||------------------------------|------------------------------|
||o-----------------------------|------------------------------|
||------------------------------|------------------------------|
||------------------------------|------------------------------|
||o-0-0-0-0---0-0-0-0-0-0-0-0---|---0-0---0----0-0-0-0---0-0---|
||--0-0-0-0---0-0-0-0-0-0-0-0---|---0-0---0----0-0-0-0---0-0---|
|
|   Gtr III
|   W                             W
||------------------------------|------------------------------|
||o-----------------------------|------------------------------|
||------------------------------|------------------------------|
||------------------------------|------------------------------|
||o-----------------------------|------------------------------|
||------------------------------|------------------------------|


  D5
  PM---------------------------|       PM----|      PM----------|
  S  S S S E S S S S S S  S  S  E    S S S S S E.   S S S S S S S S
|----------------------------------|---------------------------------||
|----------------------------------|--------------------------------o||
|----------------------------------|---------------------------------||
|----------------------------------|---------------------------------||
|-0--0-0-0---0-0-0-0-0-0--0--0-----|---0-0---0------0-0-0-0---0-0---o||
|-0--0-0-0---0-0-0-0-0-0--0--0-----|---0-0---0------0-0-0-0---0-0----||
|
| H.                      E     E    E   E   E    E E   E   E   E
|----------------------------------|---------------------------------||
|----------------------------------|--------------------6---6---6---o||
|------------------------(9)---(9)-|-9---9---9----9-9---9---9---9----||
|----------------------------------|---------------------------------||
|----------------------------------|--------------------------------o||
|----------------------------------|---------------------------------||


   Another Bridge
    Q=165
    D5          N.C.
    PM--------|
    S S S E S E E E E E   E E E  E E E S S S S
||----------------------|----------------------|
||o---------------------|----------------------|
||----------------------|-------10-7-----------|
||----------------------|-7-8-8------8-7h8p7p0-|
||o-0-0-0-0-0-0-7-8-8p0-|----------------------|
||--0-0-0-0-0-0---------|----------------------|
|
|   PM--------|
|   S S S E S E E E E E   E E E  E E E S S S S
||----------------------|----------------------|
||o---------------------|----------------------|
||----------------------|-------10-7-----------|
||----------------------|-7-8-8------8-7h8p7p0-|
||o-0-0-0-0-0-0-7-8-8p0-|----------------------|
||--0-0-0-0-0-0---------|----------------------|


  D5          N.C.
  PM--------|
  S S S E S E E E E E   E E E E E  E E  E
|---------------------|--------------------||
|---------------------|-------------------o||
|---------------------|-------7------------||
|---------------------|-7-8-8--------------||
|-0-0-0-0-0-0-7-8-8p0-|---------8h10------o||
|-0-0-0-0-0-0---------|--------------8h10--||
|
| PM--------|
| S S S E S E E E E E   E E E E E  E E  E
|---------------------|--------------------||
|---------------------|-------------------o||
|---------------------|-------7------------||
|---------------------|-7-8-8--------------||
|-0-0-0-0-0-0-7-8-8p0-|---------8h10------o||
|-0-0-0-0-0-0---------|--------------8h10--||


    D5
    Gtrs I, II
    PM--------------------------|         PM------|     PM------------|
    S S S S +E  S S S S S S S S +E    +S  S S +S  S +E. S S S S +S  S S +S
||----------------------------------|---------------------------------------|
||o---------------------------------|---------------------------------------|
||----------------------------------|---------------------------------------|
||----------------------------------|---------------------------------------|
||o-0-0-0-0-(0)-0-0-0-0-0-0-0-0-(0)-|-(0)-0-0-(0)-0-(0)-0-0-0-0-(0)-0-0-(0)-|
||--0-0-0-0-(0)-0-0-0-0-0-0-0-0-(0)-|-(0)-0-0-(0)-0-(0)-0-0-0-0-(0)-0-0-(0)-|
|
|   Gtr III
|   W                                  W
||----------------------------------|---------------------------------------|
||o---------------------------------|---------------------------------------|
||----------------------------------|---------------------------------------|
||----------------------------------|---------------------------------------|
||o---------------------------------|---------------------------------------|
||----------------------------------|---------------------------------------|


  1.
  D5
  PM-----------------------------|
  S  S S S +E  S S S S S S  S  S +E    +W
|------------------------------------|--------------------||
|------------------------------------|-------------------o||
|------------------------------------|--------------------||
|------------------------------------|--------------------||
|-0--0-0-0-(0)-0-0-0-0-0-0--0--0-(0)-|-(0)---------------o||
|-0--0-0-0-(0)-0-0-0-0-0-0--0--0-(0)-|-(0)----------------||
|
| H.                        E     E     E  E E E E E E E
|------------------------------------|--------------------||
|------------------------------------|-------------6-6-6-o||
|--------------------------(9)---(9)-|--9--9-9-9-9-9-9-9--||
|------------------------------------|--------------------||
|------------------------------------|-------------------o||
|------------------------------------|--------------------||


  2.
  D5                                Bb5  C5      D5
  Gtrs I, II
  PM--------------------------|
  S S S S +E  S S S S S S S S +E    H     H      H    E Q.
|---------------------------------|------------|--------------||
|---------------------------------|------------|--------------||
|---------------------------------|------------|--------------||
|---------------------------------|-8----10----|-0----0-------||
|-0-0-0-0-(0)-0-0-0-0-0-0-0-0-(0)-|-8----10----|-0----0-------||
|-0-0-0-0-(0)-0-0-0-0-0-0-0-0-(0)-|-8----10----|-0----0-------||


   Speed It Up
    Q=180
    D5            N.C.
    Gtr I
    PM----------|       PM
    S S E E S S E  E  E E    E  E  E  E  E  E  S  S  S S
||------------------------|------------------------------|
||o-----------------------|------------------------------|
||------------------------|----------10--7---------------|
||------------------------|--7--8--8--------8--7h=8p=7p0-|
||o-0-0-0-0-0-0-0--7h=8---|------------------------------|
||--0-0-0-0-0-0-0-------0-|------------------------------|
|
|   Gtr II
|   PM----------|       PM
|   S S E E S S E  E  E E    E  E  E  E  E  E  S  S  S S
||------------------------|------------------------------|
||o-----------------------|------------------------------|
||------------------------|----------14-10---------------|
||------------------------|-10-12-12-------12-10h12p10p0-|
||o-0-0-0-0-0-0-0-10h12---|------------------------------|
||--0-0-0-0-0-0-0-------0-|------------------------------|


  D5            N.C.
  PM----------|       PM
  S S E E S S E  E  E E    E  E  E  E  E  E  E  E
|-----------------------|--------------------------||
|-----------------------|-------------------------o||
|-----------------------|-----------7--------------||
|-----------------------|--7--8--8-----------------||
|-0-0-0-0-0-0-0--7h=8---|--------------8h10-------o||
|-0-0-0-0-0-0-0-------0-|--------------------8h10--||
|
| PM----------|       PM
| S S E E S S E  E  E E    E  E  E  E  E  E  E  E
|-----------------------|--------------------------||
|-----------------------|-------------------------o||
|-----------------------|----------10--------------||
|-----------------------|-10-12-12-----------------||
|-0-0-0-0-0-0-0-10h12---|-------------12h13-------o||
|-0-0-0-0-0-0-0-------0-|-------------------12h14--||


    N.C.
     S  +S   E    E    E    E    E    S  S  S  S
||-----------------------------------------------|
||o----------------------------------------------|
||--------------------17---14--------------------|
||--12-(12)s15---15-------------15---14h15p14p12-|
||o----------------------------------------------|
||-----------------------------------------------|
|
|    PM-------------------------------------------
|    S   S   S S  S S  S S  S S  S S  S  S  S  S
||-----------------------------------------------|
||o----------------------------------------------|
||-----------------------------------------------|
||-----------------------------------------------|
||o----------------------------------------------|
||---0---0---0-0--0-0--0-0--3-3--3-3--3--3--3--3-|


   E    E    E    E    E    E    E    E
|------------------------------------------|
|------------------------------------------|
|---------------------14---15---14---12----|
|------12---12---15------------------------|
|-13---------------------------------------|
|------------------------------------------|
|
|---------------------------------------|
|  S S  S S  S S  S S  S S  S S  S S  S S
|------------------------------------------|
|------------------------------------------|
|------------------------------------------|
|------------------------------------------|
|------------------------------------------|
|--8-8--8-8--8-8--8-8--8-8--8-8--8-8--8-8--|


  N.C.
   S  +S   E    E    E    E    E    S  S  S  S
|----------------------------------------------|
|----------------------------------------------|
|-------------------17---14--------------------|
|-12-(12)s15---15-------------15---14h15p14p12-|
|----------------------------------------------|
|----------------------------------------------|
|
|  PM-------------------------------------------
|  S   S   S S  S S  S S  S S  S S  S  S  S  S
|----------------------------------------------|
|----------------------------------------------|
|----------------------------------------------|
|----------------------------------------------|
|----------------------------------------------|
|--0---0---0-0--0-0--0-0--3-3--3-3--3--3--3--3-|


   E    E    E    E    E    E    E    E
|------------------------------------------||
|-----------------------------------------o||
|---------------------14---15---14---12----||
|------12---12---15------------------------||
|-13--------------------------------------o||
|------------------------------------------||
|
|---------------------------------------|
|  S S  S S  S S  S S  S S  S S  S S  S S
|------------------------------------------||
|-----------------------------------------o||
|------------------------------------------||
|------------------------------------------||
|-----------------------------------------o||
|--8-8--8-8--8-8--8-8--5-5--5-5--5-5--5-5--||


 Tempo Change Again
  Q=155
  N.C.
  PM--|          PM----------------|          PM--------|
  S S E  S  S  E E S S S S E   S S E  S  S  E E S S S S E
|----------------------------|----------------------------|
|----------------------------|----------------------------|
|----------------------------|----------------------------|
|----------------------------|----------------------------|
|--------7h=8p=7-------------|--------7h=8p=7-------------|
|-0-0-0----------0-0-0-0-0-0-|-0-0-0----------0-0-0-0-0-0-|
|
| PM--|          PM----------------|          PM--------|
| S S E  S  S  E E S S S S E   S S E  S  S  E E S S S S E
|----------------------------|----------------------------|
|----------------------------|----------------------------|
|----------------------------|----------------------------|
|----------------------------|----------------------------|
|-------10h12p10-------------|-------10h12p10-------------|
|-0-0-0----------0-0-0-0-0-0-|-0-0-0----------0-0-0-0-0-0-|


  N.C.
  PM--|          PM--------|
  S S E  S  S  E E S S S S E    S  S  S S  S  S  S S  S  S  S S  S  S  S S
|----------------------------|---------------------------------------------|
|----------------------------|---------------------------------------------|
|----------------------------|---------------------------------------------|
|----------------------------|--7h=8p=7p0--8h10p=8p0-10h12p10p0-12h14p12p0-|
|--------7h=8p=7-------------|---------------------------------------------|
|-0-0-0----------0-0-0-0-0-0-|---------------------------------------------|
|
| PM--|          PM--------|
| S S E  S  S  E E S S S S E    S  S  S S  S  S  S S  S  S  S S  S  S  S S
|----------------------------|---------------------------------------------|
|----------------------------|---------------------------------------------|
|----------------------------|---------------------------------------------|
|----------------------------|-10h12p10p0-12h14p12p0-14h15p14p0-15h17p15p0-|
|-------10h12p10-------------|---------------------------------------------|
|-0-0-0----------0-0-0-0-0-0-|---------------------------------------------|


 Breakdown C
  Q=160
  D5
  Gtrs I, II
  PM-------------|      PM------------|
  S S S S Q  E E Q    E S E S E E. E. E
|-------------------|-------------------|
|-------------------|-------------------|
|-------------------|-------------------|
|-------------------|-------------------|
|-0-0-0------0-0----|---0-0-0-0-0--0--0-|
|-0-0-0------0-0----|---0-0-0-0-0--0--0-|


    D5
    PM------------------------------------------|
  E S S S S Q  S S S S S S   S S S S Q  S S S S Q
|--------------------------|-----------------------|
|--------------------------|-----------------------|
|--------------------------|-----------------------|
|--------------------------|-----------------------|
|---0-0-0------0-0-0-0-0-0-|-0-0-0------0-0-0------|
|---0-0-0------0-0-0-0-0-0-|-0-0-0------0-0-0------|


    D5
    PM------------|     PM-------------------|
  E S E S E E. E. E   E S S S S Q  S S S S S S
|-------------------|--------------------------|
|-------------------|--------------------------|
|-------------------|--------------------------|
|-------------------|--------------------------|
|---0-0-0-0-0--0--0-|---0-0-0------0-0-0-0-0-0-|
|---0-0-0-0-0--0--0-|---0-0-0------0-0-0-0-0-0-|


  D5
  Gtrs I, II
   PM--------------------------|
   S   S   S S  Q     S S  S S  Q
|------------------------------------------|
|------------------------------------------|
|------------------------------------------|
|------------------------------------------|
|--0---0---0----------0-0--0---------------|
|--0---0---0----------0-0--0---------------|
|
| Gtr III
|  S  +S   E    E  E  E    E    S  S  S  S
|------------------------------------------|
|------------------------------------------|
|-----------------17-14--------------------|
|-12-(12)s15---15---------15---14h15p14p12-|
|------------------------------------------|
|------------------------------------------|


      PM-----------------------|             PM---------------------------|
   E  S E    S  E  E.    E.     E    E       S S  S S  Q     S S  S  S  S  S
|---------------------------------|------------------------------------------|
|---------------------------------|------------------------------------------|
|---------------------------------|------------------------------------------|
|---------------------------------|------------------------------------------|
|-----0-0----0--0--0-----0------0-|----------0-0--0----------0-0--0--0--0--0-|
|-----0-0----0--0--0-----0------0-|----------0-0--0----------0-0--0--0--0--0-|
|
|  E  E    E    E  E   E     E  E    S  +S   E    E    E  E  E    S  S  S  S
|---------------------------------|------------------------------------------|
|---------------------------------|------------------------------------------|
|-----------------14--15----14-12-|-------------------17-14------------------|
|----12---12---15-----------------|-12-(12)s15---15---------15---14h15p14p12-|
|-13------------------------------|------------------------------------------|
|---------------------------------|------------------------------------------|


  D5
   PM-----------------------|                PM--------------------------|
   S S  S S  Q     S S  S S  Q       E       S E    S  E  E.    E.        E
|---------------------------------|--------------------------------------------|
|---------------------------------|--------------------------------------------|
|---------------------------------|--------------------------------------------|
|---------------------------------|--------------------------------------------|
|--0-0--0----------0-0--0---------|----------0-0----0--0--0-----0---------0----|
|--0-0--0----------0-0--0---------|----------0-0----0--0--0-----0---------0----|
|
|  E    E    E  E  E    E    E  E    S  +S   E    E    E  E   E     S  S  S  S
|---------------------------------|--------------------------------------------|
|---------------------------------|--------------------------------------------|
|-----------------14---15---14-12-|-------------------17-14--------------------|
|------12---12-15-----------------|-12-(12)s15---15----------15----14h15p14p12-|
|-13------------------------------|--------------------------------------------|
|---------------------------------|--------------------------------------------|


     D5
      PM-----------------------------
   E  S S  S S  Q     S S  S S  S S
|-----------------------------------|
|-----------------------------------|
|-----------------------------------|
|-----------------------------------|
|-----0-0--0----------0-0--0-0--0-0-|
|-----0-0--0----------0-0--0-0--0-0-|
|
|  E  E    E    E  E  E    E    E
|-----------------------------------|
|-----------------------------------|
|-----------------14h15p==14---12---|
|----12---12---15-------------------|
|-13--------------------------------|
|-----------------------------------|


 ------------------------------|                 PM-----------------------|
   S   S   S S  Q     S S  S S  Q             E  S E    S  E  E.    E.     E
|------------------------------------------|----------------------------------|
|------------------------------------------|----------------------------------|
|------------------------------------------|----------------------------------|
|------------------------------------------|----------------------------------|
|--0---0---0----------0-0--0---------------|-----0-0----0--0--0-----0------0--|
|--0---0---0----------0-0--0---------------|-----0-0----0--0--0-----0------0--|
|
|  S  +S   E    E  E  E    E    S  S  S  S    E  E    E    E  E   E     E  E
|------------------------------------------|----------------------------------|
|------------------------------------------|----------------------------------|
|-----------------17-14--------------------|-----------------14--15----14-12--|
|-12-(12)s15---15---------15---14h15p14p12-|----12---12---15------------------|
|------------------------------------------|-13-------------------------------|
|------------------------------------------|----------------------------------|


   Outro
    D5                 F5                         Bb5
    Gtrs I, II
     PM--------------------------|                 PM-----------------------|
     S   S   S S  Q     S S  S S  Q             E  S E    S  E  E.    E.     E
||-------------------------------------------|---------------------------------|
||o------------------------------------------|---------------------------------|
||-------------------------------------------|---------------------------------|
||-------------------------------------------|---------------------------------|
||o--0---0---0----------3-3--3---------------|-----8-8----8--8--8-----8------8-|
||---0---0---0----------3-3--3---------------|-----8-8----8--8--8-----8------8-|
|
|   Gtr III
|    S  +S   E    E  E  E    E    S  S  S  S    E  E    E    E  E   E     E  E
||-------------------------------------------|---------------------------------|
||o------------------------------------------|---------------------------------|
||------------------17-14--------------------|-----------------14--15----14-12-|
||--12-(12)s15---15---------15---14h15p14p12-|----12---12---15-----------------|
||o------------------------------------------|-13------------------------------|
||-------------------------------------------|---------------------------------|
|
|   Gtr IV
|    S  +S   E    E  E  E    E    S  S  S  S    E  E    E    E  E   E     E  E
||------------------12-----------------------|---------------------------------|
||o--------------------13--------------------|-----------------13--15----13-11-|
||--10-(10)s14---14---------14---12h14p12p10-|----10---10---14-----------------|
||-------------------------------------------|-12------------------------------|
||o------------------------------------------|---------------------------------|
||-------------------------------------------|---------------------------------|


          D5              F5                 Bb5
           PM----------------------------------------------------------|
   E       S S  S S  Q     S S  S  S  S  S    S S  S S  Q     S S  S S  Q
|------------------------------------------|---------------------------------|
|------------------------------------------|---------------------------------|
|------------------------------------------|---------------------------------|
|------------------------------------------|---------------------------------|
|----------0-0--0----------3-3--3--3--3--3-|--8-8--8----------8-8--8---------|
|----------0-0--0----------3-3--3--3--3--3-|--8-8--8----------8-8--8---------|
|
|  S  +S   E    E    E  E  E    S  S  S  S    E    E    E  E  E    E    E  E
|------------------------------------------|---------------------------------|
|------------------------------------------|---------------------------------|
|-------------------17-14------------------|-----------------14---15---14-12-|
|-12-(12)s15---15---------15---14h15p14p12-|------12---12-15-----------------|
|------------------------------------------|-13------------------------------|
|------------------------------------------|---------------------------------|
|
|  S  +S   E    E    E  E  E    S  S  S  S    E    E    E  E  E    E    E  E
|-------------------12---------------------|---------------------------------|
|----------------------13------------------|-----------------13---15---13-11-|
|-10-(10)s14---14---------14---12h14p12p10-|------10---10-14-----------------|
|------------------------------------------|-12------------------------------|
|------------------------------------------|---------------------------------|
|------------------------------------------|---------------------------------|


  1.,2.
          D5           F5
           PM--------------------------|
   E       S E    S  E  E.    E.        E
|--------------------------------------------|
|--------------------------------------------|
|--------------------------------------------|
|--------------------------------------------|
|----------0-0----0--0--3-----3---------3----|
|----------0-0----0--0--3-----3---------3----|
|
|  S  +S   E    E    E  E   E     S  S  S  S
|--------------------------------------------|
|--------------------------------------------|
|-------------------17-14--------------------|
|-12-(12)s15---15----------15----14h15p14p12-|
|--------------------------------------------|
|--------------------------------------------|
|
|  S  +S   E    E    E  E   E     S  S  S  S
|-------------------12-----------------------|
|----------------------13--------------------|
|-10-(10)s14---14----------14----12h14p12p10-|
|--------------------------------------------|
|--------------------------------------------|
|--------------------------------------------|


     Bb5
      PM--------------------------|
   E  S S  S S  Q     S S  S S  S S   3x
|-------------------------------------||
|------------------------------------o||
|-------------------------------------||
|-------------------------------------||
|-----8-8--8----------8-8--8-8--8-8--o||
|-----8-8--8----------8-8--8-8--8-8---||
|
|  E  E    E    E  E  E    E    E     3x
|-------------------------------------||
|------------------------------------o||
|-----------------14-15---14---12-----||
|----12---12---15---------------------||
|-13---------------------------------o||
|-------------------------------------||
|
|  E  E    E    E  E  E    E    E     3x
|-------------------------------------||
|-----------------13-15---13---11----o||
|----10---10---14---------------------||
|-12----------------------------------||
|------------------------------------o||
|-------------------------------------||


  3.
  D5
  Gtrs I, II
  PM--|      PM--|            PM---------|
  S S E +Q   S S E +Q     +E  S E S E Q  Q    W          +W
|-----------------------|-------------------|----------|--------*|
|-----------------------|-------------------|----------|--------*|
|-----------------------|-------------------|----------|--------*|
|-----------------------|-------------------|----------|--------*|
|-0-0-0-(0)--0-0-0-(0)--|-(0)-0-0-0-0-0--0--|-0--------|-(0)----*|
|-0-0-0-(0)--0-0-0-(0)--|-(0)-0-0-0-0-0--0--|-0--------|-(0)----*|

VITAL SIGNS
As recorded by August Burns Red
(From the 2007 Album MESSENGERS)

Transcribed by Chris Allan

For those without powertab, here you go. Enjoy this one, it's fun to play.
TP = Trill pick.


Words and Music by ABR
Arranged by ABR

 Intro
  Q=170
  D5  N.C.
 4/4
  Gtr I
  PM
|------------------------|-----------------------------|
|------------------------|-----------------------------|
|------------------------|-----------------------------|
|------------------------|-----------------------------|
|-0----------------------|-----------------------------|
|-0----------------------|-----------------------------|
|
| Gtr II
|------------------------|-----------------------------|
|------------------------|----------15p14--------------|
|---9-10-7---10-9-(9)s12-|----14p12-------15-14-(14)s9-|
|-7--------8-------------|-11--------------------------|
|------------------------|-----------------------------|
|------------------------|-----------------------------|


    N.C.
    TP       TP               TP          TP
||-------------------------|-----------------------------|
||o------------------------|-----------------------------|
||-------------------------|-----------------------------|
||-------------------------|--7--------------------------|
||o-0--------8-------------|-------------10--------------|
||-------------------------|-----------------------------|
|
||-------------------------|-----------------------------|
||o------------------------|----------15p14--------------|
||----9-10-7---10-9-(9)s12-|----14p12-------15-14-(14)s9-|
||--7--------8-------------|-11--------------------------|
||o------------------------|-----------------------------|
||-------------------------|-----------------------------|


  TP   TP       TP          TP    TP    TP    TP
|------------------------|-------------------------------||
|------------------------|------------------------------o||
|------------------------|-------------------------------||
|------------------------|-------------------------------||
|-0----8--------7--------|--4-----5-----1-----4---------o||
|------------------------|-------------------------------||
|
|------------------------|-------------------------------||
|------------------------|----------15p14---------------o||
|---9-10-7---10-9-(9)s12-|----14p12-------15-14-(14)s9---||
|-7--------8-------------|-11----------------------------||
|------------------------|------------------------------o||
|------------------------|-------------------------------||


   "I've collapsed it's lungs..."
    D5
    Gtrs I, II
    PM-----------------------------------------------------------------|
||-------------------------------|-------------------------------------|
||o------------------------------|-------------------------------------|
||-------------------------------|-------------------------------------|
||-------------------------------|-------------------------------------|
||o-0-0-0-0------0----0--------0-|-----0-0--0-----0-0--0-0------0--0---|
||--0-0-0-0------0----0--------0-|-----0-0--0-----0-0--0-0------0--0---|
|
|   Gtr III
||-------------------------------|-----------------------------------|
||o------------------------------|------------15p14------------------|
||------9---10-7---10---9-(9)s12-|----14p==12---------15---14-(14)s9-|
||--7------------8---------------|-11--------------------------------|
||o------------------------------|-----------------------------------|
||-------------------------------|-----------------------------------|


                                           F5 D5 E5
       PM-----------------|              PM------|
                                                               4x
|----------------------------|---------------------------------||
|----------------------------|--------------------------------o||
|----------------------------|---------------------------------||
|----------------------------|---------------------------------||
|------0---0-0--0-0-0--0---0-|-----------0--3--0--2-----------o||
|------0---0-0--0-0-0--0---0-|-----------0--3--0--2------------||
|
|                                                              4x
|----------------------------|---------------------------------||
|----------------------------|----------15p14-----------------o||
|---9-10-7-----10---9-(9)s12-|----14p12-------15-14-(14)s9-----||
|-7--------8-----------------|-11------------------------------||
|----------------------------|--------------------------------o||
|----------------------------|---------------------------------||


   "I've taken the breath..."
    Q=160
    N.C.    D5  N.C.    D5    N.C.
                             2/4
    Gtrs I, II
            PM|         PM|
||--------------------------|---------------------|
||o-------------------------|---------------------|
||--------------------------|---------------------|
||--------------------------|---------------------|
||o-4h5p4p0-0-0-5h8p5p0-0-0-|-8h12p8p0-10h13p10p0-|
||----------0-0---------0-0-|---------------------|


                           1.,2.
  N.C.    D5  N.C.    D5    N.C.                D5    N.C.
 4/4
          PM|         PM|                       PM--|
                                                               3x
|-------------------------|------------------------------------||
|-------------------------|-----------------------------------o||
|-------------------------|---------------------------6-(6)s9--||
|-------------------------|------------------------------------||
|-4h5p4p0-0-0-5h8p5p0-0-0-|-8h12p8p0-10h13p10p0-0-0-0---------o||
|---------0-0---------0-0-|---------------------0-0-0----------||


  3.
  N.C.                D5       N.C.    D5  N.C.    D5    N.C.
                                                        2/4
                      PM--|            PM|         PM|
|----------------------------|-------------------------|---------------------|
|----------------------------|-------------------------|---------------------|
|----------------------------|-------------------------|---------------------|
|----------------------------|-------------------------|---------------------|
|-8h12p8p0-10h13p10p0-0-0-0--|-4h5p4p0-0-0-5h8p5p0-0-0-|-8h12p8p0-10h13p10p0-|
|---------------------0-0-0--|---------0-0---------0-0-|---------------------|


                                                  H.=H
  N.C.    D5  N.C.    D5    N.C.                  G#G5F#F5G5F#G#E5
 4/4                       2/4                   4/4
          PM|         PM|                         PM-----------------|
|-------------------------|---------------------|--------------------|
|-------------------------|---------------------|--------------------|
|-------------------------|---------------------|--------------------|
|-------------------------|---------------------|--------------------|
|-4h5p4p0-0-0-5h8p5p0-0-0-|-8h12p8p0-10h13p10p0-|-6-5-4-3-5-4-6-2----|
|---------0-0---------0-0-|---------------------|-6-5-4-3-5-4-6-2----|


 "Preaching to the deaf..."
  Q=120
  D5          N.C.              D5        N.C.
  PM--------|                   PM--------------------|
|-----------------------------|-----------------------|
|-----------------------------|-----------------------|
|-----------------------------|-----------------------|
|-------------8-8-5-5-7-7-4-4-|-----------------------|
|-0-0-0-0-0-0-----------------|-0-0-0-0-0-0-0-0-0-0---|
|-0-0-0-0-0-0-----------------|-0-0-0-0-0-1-1-1-1-1---|


  N.C.
                                     PM----------------------|
|----------------------------------|-------------------------|
|----------------------------------|-------------------------|
|----------------------------------|-------------------------|
|-7h10p7p0-6h9p6p0-5h8p5p0-4h7p4p0-|-------------------------|
|----------------------------------|-4-4-4-4-4-4-4-4-4-4-4---|
|----------------------------------|-0-0-0-0-0-0-0-0-0-0-0---|


  D5          N.C.              D5        N.C.
  PM--------|                   PM--------------------|
|-----------------------------|-----------------------|
|-----------------------------|-----------------------|
|-----------------------------|-----------------------|
|-------------8-8-5-5-7-7-4-4-|-----------------------|
|-0-0-0-0-0-0-----------------|-0-0-0-0-0-0-0-0-0-0---|
|-0-0-0-0-0-0-----------------|-0-0-0-0-0-1-1-1-1-1---|


  N.C.
                            ~~~   PM----------------------|
|-------------------------------|-------------------------|
|-------------------------------|-------------------------|
|--------------------------[2]--|-------------------------|
|-7h10p7p0-6h9p6p0-5h8p5p0------|-------------------------|
|-------------------------------|-4-4-4-4-4-4-4-4-4-4-4---|
|-------------------------------|-0-0-0-0-0-0-0-0-0-0-0---|


  D5          N.C.              D5        N.C.
  PM--------|                   PM--------------------|
|-----------------------------|-----------------------|
|-----------------------------|-----------------------|
|-----------------------------|-----------------------|
|-------------8-8-5-5-7-7-4-4-|-----------------------|
|-0-0-0-0-0-0-----------------|-0-0-0-0-0-0-0-0-0-0---|
|-0-0-0-0-0-0-----------------|-0-0-0-0-0-1-1-1-1-1---|


  N.C.
  PM----------------------------------------------------------|
|-----------------------|-------------------------------------|
|-----------------------|-------------------------------------|
|-----------------------|-------------------------------------|
|-----------------------|-7h10p7p0-6h9p6p0-5h8p5p0-4h7p4p0----|
|-4-4-4-4-4-4-4-4-4-4-4-|-------------------------------------|
|-0-0-0-0-0-0-0-0-0-0-0-|-------------------------------------|


 Crazy transition
  Q=215
  N.C.
 3/4
|--------|-------------|------5--|-----|
|--------|-------------|-5-------|-----|
|--------|---------6-7-|---------|-----|
|-0------|-----7-8-----|---------|-----|
|--------|-5-8---------|---------|-----|
|--------|-------------|---------|-----|


  N.C.
 4/4
|-17------------------------------|-----------------------|
|----18-15-(15)s14----14s15-14----|-----------------------|
|------------------15----------14-|-----------------------|
|---------------------------------|-12h15p14p12-----------|
|---------------------------------|-------------13h15p12--|
|---------------------------------|-----------------------|


   "Welcome to my dying..."
    N.C.
    PM|    PM   PM   PM     PM   PM   PM   PM
||---------------------|-----------17--------|
||o--------------------|----------------18---|
||---------------------|-14---15-------------|
||-----------12---15---|---------------------|
||o-----12-------------|---------------------|
||--0-0----0----0----0-|----0----0----0----0-|


|-17------------------------------|-------------------------||
|----18-15-(15)s14----14s15-14----|------------------------o||
|------------------15----------14-|-------------------------||
|---------------------------------|-12h15p14p12-------------||
|---------------------------------|-------------13h15p12---o||
|---------------------------------|-------------------------||


    A5D5      N.C.
      PM----|
||--------------------|------------------|
||o-------------------|------------------|
||--------------------|------------------|
||------------6h7p6---|-10p9-7h9p7-------|
||o-7-0-0-0-0-------8-|------------8p7p0-|
||--7-0-0-0-0---------|------------------|


  A5D5      N.C.
    PM----|
|-------------------|--------------------||
|-------------------|-------------------o||
|-------------------|-10p9-7h9p7---------||
|-----------6h7p6---|------------8p7p0---||
|-7-0-0-0-0-------8-|-------------------o||
|-7-0-0-0-0---------|--------------------||


    N.C.
    PM|    PM   PM   PM     PM   PM   PM   PM
||---------------------|-----------17--------|
||o--------------------|----------------18---|
||---------------------|-14---15-------------|
||-----------12---15---|---------------------|
||o-----12-------------|---------------------|
||--0-0----0----0----0-|----0----0----0----0-|


|-17------------------------------|-------------------------||
|----18-15-(15)s14----14s15-14----|------------------------o||
|------------------15----------14-|-------------------------||
|---------------------------------|-12h15p14p12-------------||
|---------------------------------|-------------13h15p12---o||
|---------------------------------|-------------------------||


  Q=210
  N.C.
  PM--------------------------------------|
|-------------------|---------------------|
|-------------------|---------------------|
|-9-10-9-7----------|-9-10-9-7------------|
|----------8-10-7-8-|----------8-10-7-8---|
|-------------------|---------------------|
|-------------------|---------------------|


|-------------------|-------------------|
|-------------------|-------------------|
|-9-10-9-7----------|-9-10-9-7----------|
|----------8-10-7-8-|----------8-10-7-8-|
|-------------------|-------------------|
|-------------------|-------------------|


                                            Q=150
  N.C.
                                           2/4
  Gtr I
|---------------------|-------------------|-----||
|-8h=9p8--------------|-8h=9p8------------|-----||
|--------10-9h10p9----|--------10-9h10p9--|-----||
|------------------11-|-------------------|-----||
|---------------------|-------------------|-----||
|---------------------|-------------------|-----||
|
| Gtr II
|---------------------|-------------------|-----||
|---------------------|-------------------|-----||
|-9-10-9--7-----------|-9-10-9--7---------|-----||
|-----------8-10-7--8-|-----------8-10-7--|-----||
|---------------------|-------------------|-----||
|---------------------|-------------------|-----||


 Interlude
  D5                                    Bb5               A5
 4/4
|-----------------|-------------------|-----------------|------------------|
|-----------------|-------------------|-----------------|------------------|
|-----------------|-------------------|-----------------|------------------|
|---------7-7-----|-----------7-7-----|-----------------|------------------|
|-5-5-8-8-----8-8-|--5--5-8-8-----8-8-|-----5-5-8-8-5-5-|-----5-5-8-8-5-5--|
|-----------------|-------------------|-8-8-------------|-7-7--------------|
|
|-----------------|-------------------|-----------------|------------------|
|-----------------|-------------------|-----------------|------------------|
|-----------------|-------------------|-----------------|------------------|
|-0---------------|-(0)---------------|-8---------------|-7----------------|
|-0---------------|-(0)---------------|-8---------------|-7----------------|
|-0---------------|-(0)---------------|-8---------------|-7----------------|


  D5                 D5                 Bb5               A5
|------------------|------------------|-----------------|-----------------|
|------------------|------------------|-----------------|-----------------|
|------------------|------------------|-----------------|-----------------|
|----------7-7-----|----------7-7-----|-----------------|-----------------|
|-5-5-8-8------8-8-|-5-5-8-8------8-8-|-----5-5-8-8-5-5-|-----5-5-8-8-5-5-|
|------------------|------------------|-8-8-------------|-7-7-------------|
|
|------------------|------------------|-----------------|-----------------|
|------------------|------------------|-----------------|-----------------|
|---------10-------|---------10-------|---------7-------|---------6-------|
|-0--------x-------|-0--------x-------|-8-------x-------|-7-------x-------|
|-0--------8-------|-0--------8-------|-8-------5-------|-7-------4-------|
|-0----------------|-0----------------|-8---------------|-7---------------|


    N.C.
||------------------|-----------------|-----------------|-------------------||
||o-----------------|-----------------|-----------------|------------------o||
||------------------|-----------------|-----------------|-------------------||
||----------7-7-----|---------7-7-----|-----------------|-------------------||
||o-5-5-8-8-----8-8-|-5-5-8-8-----8-8-|-----5-5-8-8-5-5-|-----5-5-8-8-5-5--o||
||------------------|-----------------|-8-8-------------|-7-7---------------||
|
||------------------|-----------------|-----------------|-------------------||
||o-----------------|-----------------|-----------------|------------------o||
||----------9-9-----|---------9-9-----|---------7-7-----|---------7-7-------||
||------7-7-----7-7-|-----7-7-----7-7-|-----7-7-----7-7-|-----7-7-----7-7---||
||o-8-8-------------|-8-8-------------|-----------------|------------------o||
||------------------|-----------------|-8-8-------------|-7-7---------------||


    N.C.
||-------------------|--------------------|
||o------------------|--------------------|
||-------------------|--------------------|
||-----------7-7-----|------------7-7-----|
||o--5-5-8-8-----8-8-|---5--5-8-8-----8-8-|
||-------------------|--------------------|
|
||-------------------|--------------------|
||o------------------|--------------------|
||-----------9-9-----|------------9-9-----|
||-------7-7-----7-7-|--------7-7-----7-7-|
||o--8-8-------------|---8--8-------------|
||-------------------|--------------------|
|
|   Gtr III
|    TP                  TP
||-------------------|--------------------|
||o------------------|--------------------|
||--14---------------|-(14)---------------|
||---x---------------|--(x)---------------|
||o-12---------------|-(12)---------------|
||-------------------|--------------------|


  1.
|------------------|---------------------||
|------------------|--------------------o||
|------------------|---------------------||
|------------------|---------------------||
|------5-5-8-8-5-5-|------5-5-8-8--5-5--o||
|--8-8-------------|--7-7----------------||
|
|------------------|---------------------||
|------------------|--------------------o||
|----------7-7-----|----------7-7--------||
|------7-7-----7-7-|------7-7------7-7---||
|------------------|--------------------o||
|--8-8-------------|--7-7----------------||
|
|  TP                 TP           TP
|------------------|---------------------||
|------------------|--------------------o||
|-12---------------|-15-----------17-----||
|--x---------------|--x------------x-----||
|-10---------------|-13-----------15----o||
|------------------|---------------------||


  2.
  N.C.
|-----------------|----------------||
|-----------------|----------------||
|-----------------|----------------||
|-----------------|----------------||
|-----5-5-8-8-5-5-|-----5-5-8-8-8--||
|-8-8-------------|-7-7------------||
|
|-----------------|----------------||
|-----------------|----------------||
|---------7-7-----|---------7-7-7--||
|-----7-7-----7-7-|-----7-7--------||
|-----------------|----------------||
|-8-8-------------|-7-7------------||


    Q=160
    N.C.    D5  N.C.    D5    N.C.
                             2/4
    Gtrs I, II
            PM|         PM|
||--------------------------|---------------------|
||o-------------------------|---------------------|
||--------------------------|---------------------|
||--------------------------|---------------------|
||o-4h5p4p0-0-0-5h8p5p0-0-0-|-8h12p8p0-10h13p10p0-|
||----------0-0---------0-0-|---------------------|


                           1.,2.
  N.C.    D5  N.C.    D5    N.C.                D5    N.C.
 4/4
          PM|         PM|                       PM--|
                                                               3x
|-------------------------|------------------------------------||
|-------------------------|-----------------------------------o||
|-------------------------|---------------------------6-(6)s9--||
|-------------------------|------------------------------------||
|-4h5p4p0-0-0-5h8p5p0-0-0-|-8h12p8p0-10h13p10p0-0-0-0---------o||
|---------0-0---------0-0-|---------------------0-0-0----------||


  3.
  N.C.                D5       N.C.    D5  N.C.    D5    N.C.
                                                        2/4
                      PM--|            PM|         PM|
|----------------------------|-------------------------|---------------------|
|----------------------------|-------------------------|---------------------|
|----------------------------|-------------------------|---------------------|
|----------------------------|-------------------------|---------------------|
|-8h12p8p0-10h13p10p0-0-0-0--|-4h5p4p0-0-0-5h8p5p0-0-0-|-8h12p8p0-10h13p10p0-|
|---------------------0-0-0--|---------0-0---------0-0-|---------------------|


                                                  H.=H
  N.C.    D5  N.C.    D5    N.C.                  G#G5F#F5G5F#G#E5
 4/4                       2/4                   4/4
          PM|         PM|                         PM-----------------|
|-------------------------|---------------------|--------------------|
|-------------------------|---------------------|--------------------|
|-------------------------|---------------------|--------------------|
|-------------------------|---------------------|--------------------|
|-4h5p4p0-0-0-5h8p5p0-0-0-|-8h12p8p0-10h13p10p0-|-6-5-4-3-5-4-6-2----|
|---------0-0---------0-0-|---------------------|-6-5-4-3-5-4-6-2----|


   Outro
    Q=120
    D5          N.C.              D5        N.C.
    PM--------|                   PM---------------------|
||------------------------------|------------------------|
||o-----------------------------|------------------------|
||------------------------------|------------------------|
||--------------8-8-5-5-7-7-4-4-|------------------------|
||o-0-0-0-0-0-0-----------------|-0-0-0-0-0-0-0-0-0-0----|
||--0-0-0-0-0-0-----------------|-0-0-0-0-0-1-1-1-1-1----|


  1.
  N.C.
                                     PM------------------------|
|----------------------------------|---------------------------|
|----------------------------------|-----------------------o---|
|----------------------------------|---------------------------|
|-7h10p7p0-6h9p6p0-5h8p5p0-4h7p4p0-|---------------------------|
|----------------------------------|-4-4-4-4-4-4-4-4-4-4-4-o---|
|----------------------------------|-0-0-0-0-0-0-0-0-0-0-0-----|


  2.
  N.C.                            D5
                            ~~~   PM
|-------------------------------|--------*|
|-------------------------------|--------*|
|--------------------------[2]--|--------*|
|-7h10p7p0-6h9p6p0-5h8p5p0------|--------*|
|-------------------------------|-0------*|
|-------------------------------|-0------*|


THE ELEVENTH HOUR
As recorded by August Burns Red
(From the 2007 Album MESSENGERS)

Transcribed by Chris Allan

Here you go guys, for those without powertab. Really sorry about the length, nothing I
really do about it though. If you don't have it I strongly suggest you download powertab,
make your life and learning ABR that much easier :)


Words and Music by ABR
Arranged by ABR

 Intro
  Q=205
  N.C.
 4/4
  Gtrs I, II

    D5 N.C.  D5      N.C.  D5    N.C.   D5 N.C.  D5      N.C.
    PM       PM-|          PM-|   ~~~   PM       PM-|
||-----------------|------------------|----------------|--------------------|
||o----------------|------------------|----------------|-5h6p5--------------|
||-----------------|------------------|----------------|-------7-------9----|
||-----------------|-------------[4]--|----------------|---------0h7h8---8--|
||o-0--7h8p7-0--0--|-2h3p2-0--0-------|-0--4h5p4-0--0--|--------------------|
||--0--------0--0--|-------0--0-------|-0--------0--0--|--------------------|


  D5 N.C.   D5      N.C.   D5 N.C.              D5
  PM        PM-|           PM                   PM
|-----------------|--------------------------||--------|
|-----------------|-------------------------o||--------|
|-----------------|--------------------------||--------|
|-----------------|--------------------------||--------|
|-0--8h12p8-0--0--|-7h10p7-0--8h12p8-7h10p7-o||-0------|
|-0---------0--0--|--------0-----------------||-0------|


    D5 N.C.  D5      N.C.  D5    N.C.   D5 N.C.  D5      N.C.
    PM       PM-|          PM-|   ~~~   PM       PM-|
||-----------------|------------------|----------------|--------------------|
||o----------------|------------------|----------------|-5h6p5--------------|
||-----------------|------------------|----------------|-------7-------9----|
||-----------------|-------------[4]--|----------------|---------0h7h8---8--|
||o-0--7h8p7-0--0--|-2h3p2-0--0-------|-0--4h5p4-0--0--|--------------------|
||--0--------0--0--|-------0--0-------|-0--------0--0--|--------------------|


                    1.                          2.
  D5 N.C.   D5      N.C.   D5 N.C.              N.C.     D5 N.C.
  PM        PM-|           PM                            PM
|-----------------|--------------------------||-------------------------------|
|-----------------|-------------------------o||-------------------------------|
|-----------------|--------------------------||-------------------------------|
|-----------------|--------------------------||-------------------------------|
|-0--8h12p8-0--0--|-7h10p7-0--8h12p8-7h10p7-o||-10h13p10-0--12h15p12-13h17p13-|
|-0---------0--0--|--------0-----------------||----------0--------------------|


  D5
|----------|--------|
|----------|--------|
|----------|--------|
|-0--------|-(0)----|
|-0--------|-(0)----|
|-0--------|-(0)----|


  D5
                                          7/8
  PM---------------|          PM-----------------------|     PM
|--------------|-----------|-------------|-------------|
|--------------|-----------|-------------|-------------|
|--------------|-----------|-------------|-------------|
|--------------|-----------|-------------|-------------|
|-0-0--0--0-0--|-0-0-------|--0-0--0--0--|-0-----0-----|
|-0-0--0--0-0--|-0-0-------|--0-0--0--0--|-0-----0-----|


 "Here the strongest fall..."
  D5
 4/4
  Gtr I
  PM|   PM  PM|     PM|                  PM|   PM  PM    PM
|-----------------|------------------|-----------------|---------------|
|-----------------|------------------|-----------------|---------------|
|-----------------|-----7-10p9-------|-----------------|---------------|
|-----7---7-----6-|------------8p7---|-----------------|---------11----|
|-----------------|----------------8-|-5-----4---1---0-|---8-7-8-------|
|-0-0---0---0-0---|-0-0--------------|---0-0---0---0---|-0-------------|
|
| Gtr II
| PM------------------|                  PM------------------------------|        PM
|-----------------|------------------|-----------------|-----------------|
|-----------------|------------------|-----------------|-----------------|
|-----------------|------------------|-----------------|-----------------|
|-----------------|------------------|-----------------|-----------------|
|-0-0---0---0-0---|-0-0--------------|---0-0---0---0---|-0--------0------|
|-0-0---0---0-0---|-0-0--------------|---0-0---0---0---|-0--------0------|


    Gtrs I, II
    PM|   PM  PM|     PM|
||------------------|------------------|
||o-----------------|------------------|
||------------------|-----7-10p9-------|
||------7---7-----6-|------------8p7---|
||o-----------------|----------------8-|
||--0-0---0---0-0---|-0-0--------------|


    PM|   PM  PM    PM
|-----------------|---------------------||
|-----------------|--------------------o||
|-----------------|---------------------||
|-----------------|---------11----------||
|-5-----4---1---0-|---8-7-8----0-8-----o||
|---0-0---0---0---|-0--------------11---||


    D5                           Bb5
    Gtr I
    PM|   PM  PM|      PM-|
||------------------|--------------------|
||o-----------------|--------------------|
||------------------|-------7-10p9-------|
||------7---7-----6-|--------------8p7---|
||o-----------------|------------------8-|
||--0-0---0---0-0---|--0--0--------------|
|
|   Gtr II
||------------------|--------------------|
||o-----------------|--------------------|
||------------------|--------------------|
||--0---------------|-(0)--------8-------|
||o-0---------------|-(0)--------8-------|
||--0---------------|-(0)--------8-------|


  A5
    PM|   PM  PM     PM
|-----------------|----------------------|
|-----------------|----------------------|
|-----------------|----------------------|
|-----------------|-----------11---------|
|-5-----4---1---0-|-----8-7-8----0-8-----|
|---0-0---0---0---|--0---------------11--|
|
|-----------------|----------------------|
|-----------------|----------------------|
|-----------------|----------------------|
|-7---------------|-(7)------------------|
|-7---------------|-(7)------------------|
|-7---------------|-(7)------------------|


  D5                           C5
  PM|   PM  PM|      PM-|
|-----------------|---------------------|
|-----------------|---------------------|
|-----------------|-------7-10p=9-------|
|-----7---7-----6-|---------------8p7---|
|-----------------|-------------------8-|
|-0-0---0---0-0---|--0--0---------------|
|
|-----------------|---------------------|
|-----------------|---------------------|
|-----------------|---------------------|
|-0---------------|-(0)--------10-------|
|-0---------------|-(0)--------10-------|
|-0---------------|-(0)--------10-------|


 1.
  Bb5               A5
    PM|   PM  PM    PM
|-----------------|--------------------||
|-----------------|-------------------o||
|-----------------|--------------------||
|-----------------|---------11---------||
|-5-----4---1---0-|---8-7-8----0-8----o||
|---0-0---0---0---|-0--------------11--||
|
|-----------------|--------------------||
|-----------------|-------------------o||
|-----------------|--------------------||
|-8---------------|-7------------------||
|-8---------------|-7-----------------o||
|-8---------------|-7------------------||


  2.
  Bb5               C5
    PM|   PM  PM     PM
|-----------------|--------------------||
|-----------------|--------------------||
|-----------------|--------------------||
|-----------------|----------11--------||
|-5-----4---1---0-|----8-7-8----0-8----||
|---0-0---0---0---|--0--------------11-||
|
|-----------------|--------------------||
|-----------------|--------------------||
|-----------------|--------------------||
|-8---------------|-10-----------------||
|-8---------------|-10-----------------||
|-8---------------|-10-----------------||


 "But the masses buy..."
  Q=200
  N.C.
  Gtr I
  TP   TP TP   TP   TP TP   TP   TP TP   TP TP TP TP
|------------|------------|------------|-------------|
|------------|------------|------------|-------------|
|------------|------------|------------|-------------|
|------------|------------|------------|----3--2-----|
|-5----0--1--|-5----0--1--|-5----0--1--|-5--------4--|
|------------|------------|------------|-------------|
|
| Gtr II
| TP   TP TP   TP   TP TP   TP   TP TP   TP TP TP TP
|------------|------------|------------|-------------|
|------------|------------|------------|-------------|
|------------|------------|------------|-------------|
|------------|------------|------------|----3--2-----|
|-5----0--1--|-5----0--1--|-5----0--1--|-5--------4--|
|------------|------------|------------|-------------|


  N.C.
  TP   TP TP   TP   TP TP   TP   TP TP   TP TP TP TP
|------------|------------|------------|-------------|
|------------|------------|------------|-------------|
|------------|------------|------------|-------------|
|------------|------------|------------|----6--5-----|
|-8----4--5--|-8----4--5--|-8----4--5--|-8--------7--|
|------------|------------|------------|-------------|
|
| TP   TP TP   TP   TP TP   TP   TP TP   TP TP TP TP
|------------|------------|------------|-------------|
|------------|------------|------------|-------------|
|------------|------------|------------|-------------|
|------------|------------|------------|----3--2-----|
|-5----0--1--|-5----0--1--|-5----0--1--|-5--------4--|
|------------|------------|------------|-------------|


    N.C.
    Gtr III
||------------------|-5---5-----------|-----------------|-5---5-------------||
||o---------------5-|-------6-5-------|---------------5-|-------6-5--------o||
||--------------6---|---7-------7-6---|-------------6---|---7-------7-6-----||
||--7-----5-8-7-----|---------------8-|-7-----5-8-7-----|---------------8---||
||o---5-8-----------|-----------------|---5-8-----------|------------------o||
||------------------|-----------------|-----------------|-------------------||
|
|   Gtr I
|   TP      TP  TP    TP      TP  TP    TP      TP  TP    TP  TP  TP  TP
||------------------|-----------------|-----------------|-------------------||
||o-----------------|-----------------|-----------------|------------------o||
||------------------|-----------------|-----------------|-------------------||
||------------------|-----------------|-----------------|-----6---5---------||
||o-8-------4---5---|-8-------4---5---|-8-------4---5---|-8-----------7----o||
||------------------|-----------------|-----------------|-------------------||
|
|   Gtr II
|   TP      TP  TP    TP      TP  TP    TP      TP  TP    TP  TP  TP  TP
||------------------|-----------------|-----------------|-------------------||
||o-----------------|-----------------|-----------------|------------------o||
||------------------|-----------------|-----------------|-------------------||
||------------------|-----------------|-----------------|-----3---2---------||
||o-5-------0---1---|-5-------0---1---|-5-------0---1---|-5-----------4----o||
||------------------|-----------------|-----------------|-------------------||


  Q=160
  N.C.
 2/4
  Gtrs I, II
|-------------|-------------||
|-------------|-------------||
|-------------|-------------||
|-7-7-7-5-5-5-|-------------||
|-------------|-8-8-8-4-4-4-||
|-------------|-------------||


   Sickest Breakdown EVER
     D5
   4/4
     PM------------|      PM----|    PM--------|
||----------------------|----------------------|
||o---------------------|----------------------|
||----------------------|----------------------|
||----------------------|----------------------|
||o--0-0-0-0-0-0-0-0----|-0-0-0-0----0-0-0-0---|
||---0-0-0-0-0-0-0-0----|-0-0-0-0----0-0-0-0---|


    D5
    PM  PM--------------|    PM----|     PM|     PM----|
                                                           3x
|-------------------|------------------|-------------------||
|-------------------|------------------|------------------o||
|-------------------|------------------|-------------------||
|-------------------|------------------|-------------------||
|---0---0-0-0-0-0-0-|-0-0----0-0-0-0---|-0-0-----0-0-0-0--o||
|---0---0-0-0-0-0-0-|-0-0----0-0-0-0---|-0-0-----0-0-0-0---||


 "We got news for you..."
  D5
  Gtr I
|---------------------|-------------------|
|---------------------|-------------------|
|---------------------|-------------------|
|-0-------------------|-0-----------------|
|-0-------------------|-0-----------------|
|-0-------------------|-0-----------------|
|
| Gtr II
|                               PM
|---------------------|-------------------|
|---------------------|-------------------|
|---9-----10-7h10-----|-------------------|
|-----7-8---------8p0-|-------------------|
|---------------------|---7h8p0---3p0-1p0-|
|-0-------------------|-0-------0---------|


                                  PM------------|
|---------------------|-------------------------|
|---------------------|-------------------------|
|---------------------|-------------------------|
|-0-------------------|-0-----------------------|
|-0-------------------|-0---------0-0-0-0-0-0---|
|-0-------------------|-0---------0-0-0-0-0-0---|
|
|                               PM--------------|
|---------------------|-------------------------|
|---------------------|-------------------------|
|---9-----10-7h10-----|-------------------------|
|-----7-8---------8p0-|-------------------------|
|---------------------|---7h8p0---0-0-0-0-0-0---|
|-0-------------------|-0-------0-0-0-0-0-0-0---|


    D5
    PM----|      PM-----------|         PM------------|
||--------------------------|-------------------------|
||o-------------------------|-------------------------|
||--------------------------|-------------------------|
||--------------------------|-------------------------|
||o-0-0-0-0------0--0-0-0-0-|-0---------0-0-0-0-0-----|
||--0-0-0-0------0--0-0-0-0-|-0---------0-0-0-0-0-----|
|
|                                     PM
||--------------------------|-----------------------|
||o-------------------------|-----------------------|
||----9-------10-7h10-------|-----------------------|
||--------7-8---------8p0---|-----------------------|
||o-------------------------|---7h8p0---3p==0---1p0-|
||--0-----------------------|-0-------0-------------|


    PM--|      PM-----------|         PM----------------|
|-------------------------|-----------------------------|
|-------------------------|-------------------------o---|
|-------------------------|-----------------------------|
|-------------------------|-----------------------------|
|---0-0-0------0--0-0-0-0-|-0---------0-0-0-0-0-0---o---|
|---0-0-0------0--0-0-0-0-|-0---------0-0-0-0-0-0-------|
|
|                                   PM------------------|
|-------------------------|-----------------------------|
|-------------------------|-------------------------o---|
|---9-------10-7h10-------|-----------------------------|
|-------7-8---------8p0---|-----------------------------|
|-------------------------|---7h8p0---0-0-0-0-0-0---o---|
|-0-----------------------|-0-------0-0-0-0-0-0-0-------|


    D5
    Gtr I
    PM----|      PM-----------|             PM------------|
||--------------------------|-----------------------------|
||o-------------------------|-----------------------------|
||--------------------------|-----------------------------|
||--------------------------|-----------------------------|
||o-0-0-0-0------0--0-0-0-0-|--0------------0-0-0-0-0-----|
||--0-0-0-0------0--0-0-0-0-|--0------------0-0-0-0-0-----|
|
|   Gtr II
|                                         PM
||--------------------------|---------------------------|
||o-------------------------|---------------------------|
||----9-------10-7h10-------|---------------------------|
||--------7-8---------8p0---|---------------------------|
||o-------------------------|-----7h8p=0----3p==0---1p0-|
||--0-----------------------|--0----------0-------------|
|
|   Gtr III
||--------------------------|---------------------------|
||o-------------------------|---------------------------|
||--7-7---7-7-10-7----9-7---|---------------------------|
||--------------------------|-11-11---11-11-7---7---7-7-|
||o-------------------------|---------------------------|
||--------------------------|---------------------------|


    PM--|      PM-----------|             PM----------------|
|-------------------------|---------------------------------|
|-------------------------|-----------------------------o---|
|-------------------------|---------------------------------|
|-------------------------|---------------------------------|
|---0-0-0------0--0-0-0-0-|--0------------0-0-0-0-0-0---o---|
|---0-0-0------0--0-0-0-0-|--0------------0-0-0-0-0-0-------|
|
|                                       PM------------------|
|-------------------------|---------------------------------|
|-------------------------|-----------------------------o---|
|---9-------10-7h10-------|---------------------------------|
|-------7-8---------8p0---|---------------------------------|
|-------------------------|-----7h8p=0----0-0-0-0-0-0---o---|
|-0-----------------------|--0----------0-0-0-0-0-0-0-------|
|
|-------------------------|------------------------------||
|-------------------------|-----------------------------o||
|-7-7---7-7-10-7----9-7---|------------------------------||
|-------------------------|-11-11---11-11-7---7-7---7----||
|-------------------------|-----------------------------o||
|-------------------------|------------------------------||


   "Keep telling yourself..."
    N.C.
   7/4
    Gtr I
||--------------------------------------------|
||o-------------------------------------------|
||---7--7--7--7-10--7--9--7-------------------|
||--------------------------11-11-11-11--7--7-|
||o-------------------------------------------|
||--------------------------------------------|
|
|   Gtr II
||--13----12-------------13----12-------------|
||o----15----14-------15----15----14-------15-|
||--------------14-15----------------14-15----|
||--------------------------------------------|
||o-------------------------------------------|
||--------------------------------------------|


|--------------------------------------------||
|-------------------------------------------o||
|--7--7--7--7-10--7--9--7--------------------||
|-------------------------11-11-11-11--7--7--||
|-------------------------------------------o||
|--------------------------------------------||
|
|-13----12-------------13----12--------------||
|----15----14-------15----15----14-------15-o||
|-------------14-15----------------14-15-----||
|--------------------------------------------||
|-------------------------------------------o||
|--------------------------------------------||


    D5
     PM--------------|      PM--|         PM--------------|
||--------------------------------------------------------|
||o-------------------------------------------------------|
||--------------------------------------------------------|
||--------------------------------------------------------|
||o--0-----0-----0-0--0-----0-0--0--------0-0--0-0--0-0---|
||---0-----0-----0-0--0-----0-0--0--------0-0--0-0--0-0---|
|
||--13----12---------------13------12-------------------|
||o----15----14---------15------15----14-----------15---|
||--------------14---15------------------14---15--------|
||------------------------------------------------------|
||o-----------------------------------------------------|
||------------------------------------------------------|


 ------------------|      PM--|         PM-----------------|
|----------------------------------------------------------|
|------------------------------------------------------o---|
|----------------------------------------------------------|
|----------------------------------------------------------|
|--0-----0-----0-0--0-----0-0--0--------0-0--0-0--0-0--o---|
|--0-----0-----0-0--0-----0-0--0--------0-0--0-0--0-0------|
|
|-13----12---------------13------12---------------------||
|----15----14---------15------15----14-----------15----o||
|-------------14---15------------------14---15----------||
|-------------------------------------------------------||
|------------------------------------------------------o||
|-------------------------------------------------------||


    D5
    Gtrs I, II
    PM--------|  PM--|   PM----------------------|  PM--|   PM---------------|
||-----------------------------------|---------------------------------------|
||o----------------------------------|-----------------------------------o---|
||-----------------------------------|---------------------------------------|
||-----------------------------------|---------------------------------------|
||o-0--0--0-0-0--0-0-0---0-0-0-0-0-0-|-0--0--0-0-0--0-0-0---0-0-0-0-0-0--o---|
||--0--0--0-0-0--0-0-0---0-0-0-0-0-0-|-0--0--0-0-0--0-0-0---0-0-0-0-0-0------|


    D5
    Gtr I
||---------------------------------------------|
||o--------------------------------------------|
||--7-7-7-7-10---7-9-7-------------------------|
||-----------------------11-11-11-11---7---7---|
||o--------------------------------------------|
||---------------------------------------------|
|
|   Gtr II
|   PM-----------|   PM--|         PM------------|
||-----------------------------------------------|
||o----------------------------------------------|
||-----------------------------------------------|
||-----------------------------------------------|
||o-0---0----0-0-0---0-0--0--------0-0-0-0-0-0---|
||--0---0----0-0-0---0-0--0--------0-0-0-0-0-0---|


|----------------------------------------------||
|---------------------------------------------o||
|-7-7-7-7-10---7-9-7---------------------------||
|----------------------11-11-11-11---7---7-----||
|---------------------------------------------o||
|----------------------------------------------||
|
|--------------|   PM--|         PM---------------|
|-------------------------------------------------|
|---------------------------------------------o---|
|-------------------------------------------------|
|-------------------------------------------------|
|-0---0----0-0-0---0-0--0--------0-0-0-0-0-0--o---|
|-0---0----0-0-0---0-0--0--------0-0-0-0-0-0------|


  Q=205
  D5           N.C.
 4/4
             PM
|----------|-------------------||
|----------|-------------------||
|----------|-------------------||
|-0--------|---------11--------||
|-0--------|---8-7-8----0-8----||
|-0--------|-0--------------11-||
|
|----------|-------------------||
|----------|-------------------||
|----------|-------------------||
|-0--------|-0-----------------||
|-0--------|-0-----------------||
|-0--------|-0-----------------||


   Intro Revisited
    N.C.
    Gtrs I, II
    PM|   PM  PM|     PM|
||------------------|------------------|
||o-----------------|------------------|
||------------------|-----7-10p9-------|
||------7---7-----6-|------------8p7---|
||o-----------------|----------------8-|
||--0-0---0---0-0---|-0-0--------------|


    PM|   PM  PM    PM
                                        4x
|-----------------|---------------------||
|-----------------|--------------------o||
|-----------------|---------------------||
|-----------------|---------11----------||
|-5-----4---1---0-|---8-7-8----0-8-----o||
|---0-0---0---0---|-0--------------11---||


|---------|-x\----||
|---------|-x\----||
|---------|-x\----||
|---------|-------||
|---------|-------||
|---------|-------||


   "No matter what, ..."
    Q=200
    D5 N.C.  D5      N.C.  D5        D5 N.C.  D5      N.C.  D5
    PM       PM-|          PM-|      PM       PM-|          PM-|
||-----------------|---------------|----------------|-----------------||
||o----------------|---------------|----------------|----------------o||
||-----------------|---------------|----------------|-----------------||
||-----------------|---------------|----------------|-----------------||
||o-0--7h8p7-0--0--|-2h3p2-0--0----|-0--7h8p7-0--0--|-2h3p2-0--0-----o||
||--0--------0--0--|-------0--0----|-0--------0--0--|-------0--0------||


   Outro Breakdown
    D5
    PM PM----|  PM   PM----|  PM       PM----|  PM   PM----------------|
||-----------------|---------------|---------------|-------------------|
||o----------------|---------------|---------------|-------------------|
||-----------------|---------------|---------------|-------------------|
||-----------------|---------------|---------------|-------------------|
||o-0--0-0-0-0--0--|-0-0-0-0--0----|---0-0-0-0--0--|-0-0-0-0-0-0-0-0---|
||--0--0-0-0-0--0--|-0-0-0-0--0----|---0-0-0-0--0--|-0-0-0-0-0-0-0-0---|


  D5
  PM PM----|        PM--------------|  PM
|---------------|-------------------|
|---------------|---------------o---|
|---------------|-------------------|
|---------------|-------------------|
|-0--0-0-0-0----|---0-0-0-0--0--o---|
|-0--0-0-0-0----|---0-0-0-0--0------|


    D5 N.C.  D5      N.C.  D5    N.C.   D5 N.C.  D5      N.C.
    Gtr I
    PM       PM-|          PM-|   ~~~   PM      PM-|
||-----------------|------------------|----------------|--------------------|
||o----------------|------------------|----------------|--------------------|
||-----------------|------------------|----------------|--------------------|
||-----------------|-------------[4]--|----------------|-2h3p2-0-------2----|
||o-0--7h8p7-0--0--|-2h3p2-0--0-------|-0--4h5p4-0--0--|-----------0h1---1--|
||--0--------0--0--|-------0--0-------|-0--------0--0--|---------0----------|
|
|   Gtr II
|   PM       PM-|          PM-|   ~~~   PM       PM-|
||-----------------|------------------|----------------|--------------------|
||o----------------|------------------|----------------|-5h6p5--------------|
||-----------------|------------------|----------------|-------7-------9----|
||-----------------|-------------[4]--|----------------|---------0h7h8---8--|
||o-0--7h8p7-0--0--|-2h3p2-0--0-------|-0--4h5p4-0--0--|--------------------|
||--0--------0--0--|-------0--0-------|-0--------0--0--|--------------------|


                    1.
  D5 N.C.   D5      N.C.   D5 N.C.
  PM        PM-|           PM
|-----------------|--------------------------||
|-----------------|-------------------------o||
|-----------------|--------------------------||
|-----------------|--------------------------||
|-0--8h12p8-0--0--|-7h10p7-0--8h12p8-7h10p7-o||
|-0---------0--0--|--------0-----------------||
|
| PM        PM-|           PM
|-----------------|--------------------------||
|-----------------|-------------------------o||
|-----------------|--------------------------||
|-----------------|--------------------------||
|-0--8h12p8-0--0--|-7h10p7-0--8h12p8-7h10p7-o||
|-0---------0--0--|--------0-----------------||


  2.
  N.C.     D5 N.C.                D5
         PM                     PM
|-------------------------------|--------*|
|-------------------------------|--------*|
|-------------------------------|--------*|
|-------------------------------|--------*|
|-10h13p10-0--12h15p12-13h17p13-|-0------*|
|----------0--------------------|-0------*|
|
|          PM                     PM
|-------------------------------|--------*|
|-------------------------------|--------*|
|-------------------------------|--------*|
|-------------------------------|--------*|
|-10h13p10-0--12h15p12-13h17p13-|-0------*|
|----------0--------------------|-0------*|

----------------------------------------------------------------------------
                            August Burns Red
                              The Balance                   Drop C
----------------------------------------------------------------------------

Intro -0:22

Gtr1 [listen to the song to know where to come in]**
|---------------------------------------------------------------------------|
|---------------------------------------------------------------------------|
|---------------------------------------------------------------------------|
|---------------------------------------------------------------------------|
|-12-----------------------------------------8------------------------------|
|-12-----------------------------------------8------------------------------|

Gtr2
|------5-------5---|-----------------|-------------------|
|----6---6---6---6-|-----------------|-------------------|
|--7-------7-------|-----------------|----------7---10h9-|
|------------------|-8h7-----0h8h7---|---8h7h10---8------|
|------------------|-----7h8-------8-|-------------------|
|------------------|-----------------|-8-----------------|

---------------------|
---------------------|
-----------7---10/14-|
----8h7h10---8-------|   X4
---------------------|
--8------------------|


0:22-0:44
|----------------------|-----------------|---------------------|
|----------------------|-----------------|---------------------|
|----------------------|-----------------|---------------------|
|----------------------|-----------------|---------------------|
|-8-0-5/7--0-0-0-0-0-0-|-8-0-5/7-0-3-0-0-|-8-0-5/7-0-0-0-0-0-0-|
|-8-0-5/7--0-0-0-0-0-0-|-8-0-5/7-0-3-0-0-|-8-0-5/7-0-0-0-0-0-0-|

------------------------|
------------------------|
-10----9/4-2----7-------|
------------------------|    X2
-8--0--7/4-0--0-5--0--0-|
----0---------0----0--0-|


|----------------------|------------------|----------------------|
|----------------------|------------------|----------------------|
|----------------------|------------------|----------------------|
|----------------------|------------------|----------------------|
|-10-0-7/8-0-0-0-0-0-0-|-10-0-7/8-0-5-0-0-|-10-0-7/8-0-0-0-0-0-0-|
|-10-0-7/8-0-0-0-0-0-0-|-10-0-7/8-0-5-0-0-|-10-0-7/8-0-0-0-0-0-0-|

------------------------|
------------------------|
-10----9/4-2-----7------|
------------------------|    X2
-8--0--7/4-0--0--5--0-0-|
----0---------0-----0-0-|


0:46-0:57
|-----------------------|-----------------------|-------------------------|
|-----------------------|-----------------------|-------------------------|
|-----------------------|-----------------------|-------------------------|
|-----------7h0---------|-8-----------------7h0-|-------------7h0---------|
|-0-0-0-8h7-----0--10h8-|---7-0-10h8h12h8h7-----|-0-0-0-0-8h7-----0-10h8--|
|-0-0-0---------0-------|-----0-----------------|-0-0-0-0---------0-------|

|-----------------------|
|-----------------------|
|-----------------------|
|-8-----------------7h0-|
|---7-0-10h8h12h8h7-----|
|-----0-----------------|

|---------------------|----------------------|----------------------|
|---------------------|----------------------|----------------------|
|---------------------|----------------------|----------------------|
|---------------------|------------------7h0-|----------------------|
|-0-0-0-0---0-0-0-0-0-|-0-0-0-0-0-10h8h7-----|-0-0-0-0---0-0-0-0-0--|
|-0-0-0-0---0-0-0-0-0-|-0-0-0-0-0------------|-0-0-0-0---0-0-0-0-0--|

-------------------|
-------------------|
-------------------|
-------------------|
-0-0-0-0-0-8h7h5h7-|
-0-0-0-0-0---------|

THEN THE BREAKDOWN, LISTEN TO THE SONG TO GET RYTHEM AND TIMING RIGHT...
BREAKDOWN:
0:58-1:10

FILL:
|-----------------------|
|-----------------------|
|-----------------------|
|-12------------------7-|
|-12------------------7-|
|-12------------------7-|


1:13-1:32
|-----------------------|-------------------|------------------------|
|-----------------------|----------10h6-----|------------------------|
|------------------10h7-|---------------7---|------------------------|
|----------------8------|---10h8----------8-|-------7h0--------------|
|-0-0-0-0-0-0-0---------|-0------0----------|-0-0-0--------0-0-0-0-0-|
|-0-0-0-0-0-0-0---------|-0------0----------|-0-0-0-----8--0-0-0-0-0-|
                                       4TH TIME END ON THIS
|-------------------|                 |--------------------|
|-------------------|                 |--------------------|
|-------10----------|                 |-------10-----------|
|---7h0-------------| X4              |---7h0--------------|
|-0---------0-0h7h8-|                 |-0--------10----8---|
|-0---------0-------|                 |-0--------10----8---|

1:33-1:41
|-----------------|----------------|-----------------|-------------------|
|-----------------|----------------|-----------------|-------------------|
|-----------------|----------------|-----------------|-------------------|
|---10---8--------|----------------|---10---8--------|-14---14---15h12---|
|------------12---|-8---8---10h8-8-|------------12---|-------------------|
|-8----8---8----8-|---8---8------8-|-8----8---8----8-|----0----0-------0-|


|---------------|----------------|---------------|--------------|
|---------------|----------------|---------------|--------------|
|---------------|----------------|---------------|--------------|
|-------7h0-----|---------7------|-------7h0-----|---------7----|
|---7h0-------7h|h0---7h0--------|---7h0-------7h|h0---7h0----8-|
|-0---------0---|---0--------0-0-|-0---------0---|---0--------8-|

1:42-1:51
|-----------------|-----------------|----------------|-------------------|
|-----------------|-----------------|----------------|-------------------|
|-----------------|-----------------|----------------|-------------------|
|---10---8--------|-----------------|--10---8--------|-14---14---15/19---|
|------------12---|-8---8---10h8--8-|-----------12---|-------------------|
|-8----8---8----8-|---8---8-------8-|-8---8---8----8-|----0----0-------0-|

|---------------|-----------------|---------------|-----------|
|---------------|-----------------|---------------|-----------|
|---------------|-----------------|---------------|-----------|
|-------7h0-----|---------7-------|-------7h0-----|---------7-|
|---7h0-------7h|h0---7h0---------|---7h0-------7h|h0---7h0---|
|-0---------0---|---0--------0--0-|-0---------0---|---0-------|

1:52-2:10
|------------------|-------------------------|--------------------------|
|------------------|-------------------------|--------------------------|
|-7-7-7-7/9-9-9-9/-|-10-10-10-10-10-10-10-10/|-14-14-14-14-14-14-14-14\-|
|------------------|-------------------------|--------------------------|
|-5-5-5-5/7-7-7-7/-|-8--8--8--8--8--8--8--8/-|-12-12-12-12-12-12-12-12\-|
|------------------|-------------------------|--------------------------|

|--------------------|---------------------------|-------------------------|
|--------------------|---------------------------|-------------------------|
|-7--7-7-7-7-7--7-7/-|-12--12-12-12/14-14-14-14/-|-15-15-15-15-15-15-15-15-|
|--------------------|---------------------------|-------------------------|
|-5--5-5-5-5-5--5-5/-|-10--10-10-10/12-12-12-12/-|-13-13-13-13-13-13-13-13-|
|--------------------|---------------------------|-------------------------|

|--------------------------|-------------------------|
|-13-13-13-13/15-15-15-15/-|-17-17-17-17-17-17-17-17-|
|--------------------------|-------------------------|   X2
|-10-10-10-10/12-12-12-12/-|-14-14-14-14-14-14-14-14-|
|--------------------------|-------------------------|
|--------------------------|-------------------------|

2:11-2:21
|---------------------|-----------------|---------------------|
|---------------------|-----------------|---------------------|
|---------------------|-----------------|---------------------|
|---------------------|-----------------|---------------------|
|-8-0-5/7-0-0-0-0-0-0-|-8-0-5/7-0-3-0-0-|-8-0-5/7-0-0-0-0-0-0-|
|-8-0-5/7-0-0-0-0-0-0-|-8-0-5/7-0-3-0-0-|-8-0-5/7-0-0-0-0-0-0-|


|---------------------|
|---------------------|
|-10---9/4-2----7-----|
|---------------------|
|-8--0-7/4-0--0-5-0-0-|
|----0--------0---0-0-|


|-----------------------|--------------------|--------------------------|
|-----------------------|--------------------|--------------------------|
|-10---7/9--------------|-10---7/9---14------|-10---7/9-----------------|
|-----------------------|--------------------|--------------------------|
|-8--0-5/7--0-0-0-0-0-0-|-8--0-5/7-0-12--0-0-|-8--0-5/7--0-0-0-0-0-0----|
|----0------0-0-0-0-0-0-|----0-----0-----0-0-|----0------0-0-0-0-0-0----|

|----------------|
|----------------|
|-10---7/9-----5-|
|----------------|
|-8--0-5/7--0--3-|
|----0------0----|

2:21-2;32
|-----5-------5---|-----------------|-------------------|
|---6---6---6---6-|-----------------|-------------------|
|-7-------7-------|-----------------|----------7---10h9-|
|-----------------|-8h7-----0h8h7---|---8h7h10---8------|
|-----------------|-----7h8-------8-|-------------------|
|-----------------|-----------------|-8-----------------|

|--------------------|
|--------------------|
|----------7---10/14-|
|---8h7h10---8-------|   X2
|--------------------|
|-8------------------|

HAVNT FIGURED OUT SOLO YET


THEN THE BREAKDOWN LISTEN TO THE SONG TO FIGURE OUT RYTHEM AND TIMING
BREAKDOWN:
2:44-2:49

2:50-3:03
|----------------------|----------------------|------------------------|
|----------------------|----------------------|------------------------|
|----------------------|----------------------|------------------------|
|-----------7h0--------|-8----------------(7)-|-------------7h0--------|
|-0-0-0-8h7-----0-10h8-|---7--0-10h8h12h8h7---|-0-0-0-0-8h7-----0-10h8-|
|-0-0-0---------0------|------0---------------|-0-0-0-0---------0------|

|-----------------------|
|-----------------------|
|-----------------------|
|-8-----------------7h0-|
|---7-0-10h8h12h8h7-----|
|-----0-----------------|


|-----------------------|--------------------|--------------------------|
|-----------------------|--------------------|--------------------------|
|-----------------------|--------------------|--------------------------|
|-----------------------|----------------7h0-|--------------------------|
|-0-0-0-0-----0-0-0-0-0-|-0-0-0-0-10h8h7-----|-0-0-0-0----0-0-0-0-0-----|
|-0-0-0-0-----0-0-0-0-0-|-0-0-0-0------------|-0-0-0-0----0-0-0-0-0-----|

|-----------------|
|-----------------|
|-----------------|
|-----------------|
|-0-0-0-0-8h7h5h7-|
|-0-0-0-0---------|


THEN THE FINAL BREAKDOWN,
     LISTEN TO THE SONG TO FIGURE OUR RYTHEM AND TIMING


BLACK SHEEP
As recorded by August Burns Red
(From the 2007 Album MESSENGERS)

Transcribed by Chris Allan

As always, for those without powertab, here you go. This one\'s long, sorry. TP stands
trill pick, if you can\'t figure it out. That\'s how powertab exports it. Enjoy,
is probably next.


Words and Music by ABR
Arranged by ABR

 Intro
  Q=180
  N.C.
 4/4
  Gtrs I, II
  TP TPTPTP TPTP  TP TPTPTP TPTP   TP TPTP TP TPTP  TP TPTPTP TPTP
|---------------|---------------|-----------------|---------------|
|---------------|---------------|-----------------|---------------|
|---------------|---------------|-----------------|---------------|
|-5--0-4-5--0-4-|-5--0-5-8--0-8-|-12--0-8-12--0-8-|-7--0-5-4--0-4-|
|---------------|---------------|-----------------|---------------|
|---------------|---------------|-----------------|---------------|


  N.C.
                                                   2/4
  TP TPTPTP TPTP  TP TPTP TP TPTP   TP TPTPTP TPTP  TP TPTP
|---------------|----------------|----------------|---------||
|---------------|----------------|----------------|---------||
|---------------|----------------|----------------|---------||
|-5--0-4-5--0-5-|-8--0-8-12--0-8-|-12--0-8-7--0-5-|-4--0-4--||
|---------------|----------------|----------------|---------||
|---------------|----------------|----------------|---------||


   \"You\'ve fallen captive...\"
    Q=165
    G5
   4/4
    PM-----------|      PM--|   PM-------------|
||--------------------|------------------------|
||o-------------------|------------------------|
||--------------------|------------------------|
||--------------------|------------------------|
||o-5-5-5-5--5-5-5----|-5-5-5---5-5-5-5-5-5----|
||--5-5-5-5--5-5-5----|-5-5-5---5-5-5-5-5-5----|


                      1.                          2.
  G5
  PM-----------|   PM----|    PM--------------------|    PM------------|
|--------------------|-------------------------||----------------------|
|--------------------|------------------------o||----------------------|
|--------------------|-------------------------||----------------------|
|--------------------|-------------------------||----------------------|
|-5-5-5-5--5-5-5---5-|-5-5----5-5-5-5-5-5-5-5-o||-5-5----5-5-5-5-5-----|
|-5-5-5-5--5-5-5---5-|-5-5----5-5-5-5-5-5-5-5--||-5-5----5-5-5-5-5-----|


  G5
  Gtr I
  PM------------|        PM--|     PM--------------|
|----------------------|---------------------------|
|----------------------|---------------------------|
|----------------------|---------------------------|
|----------------------|---------------------------|
|-5-5-5-5---5-5-5------|-5-5-5-----5-5-5-5-5-5-----|
|-5-5-5-5---5-5-5------|-5-5-5-----5-5-5-5-5-5-----|
|
| Gtr II
| TP      TPTPTP   TPTP  TP    TPTPTP      TP  TP
|----------------------|-------------------------|
|----------------------|-------------------------|
|----------------------|-------------------------|
|-5-------0-4-5----0-4-|-5-----0-5-8-------0---8-|
|----------------------|-------------------------|
|----------------------|-------------------------|


  G5
   PM-------------|    PM----|      PM----------------|
|------------------------|----------------------------|
|------------------------|----------------------------|
|------------------------|----------------------------|
|------------------------|----------------------------|
|--5-5-5-5---5--5-5----5-|-5-5------5-5-5-5-5-5-5-5---|
|--5-5-5-5---5--5-5----5-|-5-5------5-5-5-5-5-5-5-5---|
|
|  TP      TPTP TP   TPTP  TP   TPTPTP      TP  TP
|------------------------|--------------------------|
|------------------------|--------------------------|
|------------------------|--------------------------|
|-12-------0-8-12----0-8-|-7----0-5-4-------0---4---|
|------------------------|--------------------------|
|------------------------|--------------------------|


  G5
  PM------------|        PM--|      PM--------------|
|----------------------|----------------------------|
|----------------------|----------------------------|
|----------------------|----------------------------|
|----------------------|----------------------------|
|-5-5-5-5---5-5-5------|-5-5-5------5-5-5-5-5-5-----|
|-5-5-5-5---5-5-5------|-5-5-5------5-5-5-5-5-5-----|
|
| TP      TPTPTP   TPTP  TP    TPTP TP      TP  TP
|----------------------|--------------------------|
|----------------------|--------------------------|
|----------------------|--------------------------|
|-5-------0-4-5----0-5-|-8-----0-8-12-------0---8-|
|----------------------|--------------------------|
|----------------------|--------------------------|


  G5
   PM------------|    PM----|      PM------------|
|-----------------------|------------------------|
|-----------------------|------------------------|
|-----------------------|------------------------|
|-----------------------|------------------------|
|--5-5-5-5---5-5-5----5-|-5-5------5-5-5-5-5-----|
|--5-5-5-5---5-5-5----5-|-5-5------5-5-5-5-5-----|
|
|  TP      TPTPTP   TPTP  TP   TPTPTP      TPTP
|-----------------------|---------------------||
|-----------------------|---------------------||
|-----------------------|---------------------||
|-12-------0-8-7----0-5-|-4----0-4-5-------5--||
|-----------------------|---------------------||
|-----------------------|---------------------||


   \"What\'s done is done...\"
    Q=210
    N.C.
    Gtrs I, II
            PM  PM|     PM  PM    PM  PM          PM  PM|     PM  PM    PM PM
||--------------------|-----------------|-------------------|-----------------|
||o-------------------|-----------------|-------------------|-----------------|
||--------------------|-----------------|-------------------|-----------------|
||--5h6p5-----------5-|---4---------8---|-5h6p5-----------5-|---4---------8---|
||o-------6---5-------|-------5s9-------|-------6---5-------|-------5s9-------|
||----------0---0-0---|-0---0-----0---0-|---------0---0-0---|-0---0-----0---0-|


                                       1.
  N.C.
          PM  PM|     PM  PM    PM  PM          PM  PM|     PM  PM--------------|
|-------------------|-----------------|-------------------|---------------------|
|-------------------|-----------------|-------------------|-----------------o---|
|-------------------|-----------------|-------------------|---------------------|
|-5h6p5-----------5-|---4---------8---|-5h6p5-------------|---------------------|
|-------6---5-------|-------5s9-------|-------6---5-----1-|---0-----4-4-4---o---|
|---------0---0-0---|-0---0-----0---0-|---------0---0-0---|-0---0-0-4-4-4-------|


  2.
  N.C.
    PM--|   PM--|     PM------------|
|-----------------|-----------------|
|-----------------|---------7-------|
|-----------------|-7---------------|
|-7-------8-------|-----------------|
|-----------------|-----------------|
|---0-0-0---0-0-0-|---0-0-0---------|


   \"Neither one will ever...\"
    N.C.
    PM--|   PM  PM--|       PM  PM--|     PM--|
||----------------------|---------------------|
||o---------------------|---------------------|
||----------------------|---------------7-----|
||--------8---7---------|-7---5---------------|
||o---------------------|---------------------|
||--5-5-5---5---5-5-5-5-|---5---5-5-5-5---5---|


 -----|   PM  PM--|       PM  PM-------------|
|---------------------|----------------------|
|---------------------|----------------------|
|---------------------|---------------7------|
|-------8---7---------|-7---5----------------|
|---------------------|----------------------|
|-5-5-5---5---5-5-5-5-|---5---5-5-5-5---5----|


                                           1.
  N.C.
  PM--|   PM  PM--|       PM  PM--|     PM          PM  PM------|
|---------------------|-------------------|---------------------|
|---------------------|-------------------|---------------------|
|---------------------|-------------------|---------------------|
|-------5---4---------|---------------5---|-4h5p4---------------|
|---------------------|-6---5-------------|-------6---5-----1---|
|-0-0-0---0---0-0-0-0-|---0---0-0-0-0---0-|---------0---0-0-----|


                      2.
          F#5         N.C.
  PM  PM------------------------------------------------|
|------------------||---------------|-------------------|
|-----------------o||---------------|-----7---(7)\\-----|
|------------------||---------------|-7-----------------|
|------------------||-------7---8---|-------------------|
|---0-----4-4-4-4-o||---------------|-------------------|
|-0---0-0-4-4-4-4--||-0-0-0---------|-------------------|


  Q=220
  Bb/G              D5             Bb/G       D5    D/F#          D5
  Gtr I
                     PM--------|               PM--------------------|
|-----------------|--------------|----------------|------------------|
|-----------------|--------------|----------------|------------------|
|-----------------|--------------|----------------|------------------|
|-8-8-8-8-8-8-8-8-|--------------|-8--8-8-8-8-----|---7---7-7-7-7----|
|-5-5-5-5-5-5-5-5-|--0-------0-0-|-5--5-5-5-5--0--|---5---5-5-5-5-0--|
|-5-5-5-5-5-5-5-5-|--0-------0-0-|-5--5-5-5-5--0--|---4---4-4-4-4-0--|
|
| Gtr II
|-----------------|--------------|----------------|-------------------|
|-----------------|--------------|----------------|-------------------|
|-7---------------|-(7)------7-8-|-7------8---12--|-(12)------8-------|
|-----------------|--------------|----------------|-------------------|
|-----------------|--------------|----------------|-------------------|
|-----------------|--------------|----------------|-------------------|


  Bb/G              D5             N.C.
                    PM----------------------------------------|
|-----------------|--------------|-------------|--------------|
|-----------------|--------------|-------------|--------------|
|-----------------|--------------|-------------|--------------|
|-8-8-8-8-8-8-8-8-|--------------|----1--------|-1-----4------|
|-5-5-5-5-5-5-5-5-|-0--------0-0-|-5-----0--5--|----0---------|
|-5-5-5-5-5-5-5-5-|-0--------0-0-|-------------|--------------|
|
|-----------------|--------------|-5--6-----5--|-6-----6----|
|-----4---6-------|----4--6------|-------------|------------|
|-7-----------7---|-7--------7---|-------7-----|----7-------|
|-----------------|--------------|-------------|------------|
|-----------------|--------------|-------------|------------|
|-----------------|--------------|-------------|------------|


  Bb/G              D5             Bb/G       D5    D/F#           D5
                     PM--------|               PM---------------------|
|-----------------|--------------|----------------|-------------------|
|-----------------|--------------|----------------|-------------------|
|-----------------|--------------|----------------|-------------------|
|-8-8-8-8-8-8-8-8-|--------------|-8--8-8-8-8-----|---7---7-7--7-7----|
|-5-5-5-5-5-5-5-5-|--0-------0-0-|-5--5-5-5-5--0--|---5---5-5--5-5-0--|
|-5-5-5-5-5-5-5-5-|--0-------0-0-|-5--5-5-5-5--0--|---4---4-4--4-4-0--|
|
|-----------------|--------------|----------------|--------------------|
|-----------------|--------------|------------11--|-(11)------10-------|
|-7---------------|-(7)------7h8p|=7------8-------|--------------------|
|-----------------|--------------|----------------|--------------------|
|-----------------|--------------|----------------|--------------------|
|-----------------|--------------|----------------|--------------------|


  Bb/G              D5             N.C.
                     PM-----------------------------------------|
|-----------------|--------------|--------------|---------------|
|-----------------|--------------|--------------|---------------|
|-----------------|--------------|--------------|---------------|
|-8-8-8-8-8-8-8-8-|--------------|-----1--------|--1-----4------|
|-5-5-5-5-5-5-5-5-|--0-------0-0-|--5-----0--5--|-----0---------|
|-5-5-5-5-5-5-5-5-|--0-------0-0-|--------------|---------------|
|
|-----------------|--------------|--------------|-------------|
|-6---------------|-(6)----------|-10-----------|-11----------|
|-----------------|--------------|--------------|-------------|
|-----------------|--------------|--------------|-------------|
|-----------------|--------------|--------------|-------------|
|-----------------|--------------|--------------|-------------|


  Bb/G               D5                  Bb/G         D5    D/F#           D5
                       PM-----------|                  PM---------------------|
|------------------|-------------------|------------------|-------------------|
|------------------|-------------------|------------------|-------------------|
|------------------|-------------------|------------------|-------------------|
|--8-8-8-8-8-8-8-8-|-------------------|--8--8-8--8-8-----|---7---7-7--7-7----|
|--5-5-5-5-5-5-5-5-|---0----------0--0-|--5--5-5--5-5--0--|---5---5-5--5-5-0--|
|--5-5-5-5-5-5-5-5-|---0----------0--0-|--5--5-5--5-5--0--|---4---4-4--4-4-0--|
|
|------------------|-------------------|--------------15--|-(15)---------------|
|-15---------------|-(15)----15--15h16-|-15------16-------|-----------16-------|
|------------------|-------------------|------------------|--------------------|
|------------------|-------------------|------------------|--------------------|
|------------------|-------------------|------------------|--------------------|
|------------------|-------------------|------------------|--------------------|
|
| Gtr III
|------------------|-------------------|------------------|--------------------|
|------------------|-------------------|------------------|--------------------|
|--7---------------|--(7)---------7--8-|--7-------8---12--|-(12)-------8-------|
|------------------|-------------------|------------------|--------------------|
|------------------|-------------------|------------------|--------------------|
|------------------|-------------------|------------------|--------------------|


  Bb/G               D5                N.C.
                       PM-------------------------------------------------|
|------------------|-----------------|-----------------|------------------|
|------------------|-----------------|-----------------|------------------|
|------------------|-----------------|-----------------|------------------|
|--8-8-8-8-8-8-8-8-|-----------------|-------1---------|---1-------4------|
|--5-5-5-5-5-5-5-5-|---0---------0-0-|---5------0---5--|-------0----------|
|--5-5-5-5-5-5-5-5-|---0---------0-0-|-----------------|------------------|
|
|------------------|-----------------|-----------------|----------------|
|-15---------------|-(15)------------|-----------------|----------------|
|------------------|-----------------|-(14)--------14--|-(14)-----15----|
|------------------|-----------------|-----------------|----------------|
|------------------|-----------------|-----------------|----------------|
|------------------|-----------------|-----------------|----------------|
|
|------------------|-----------------|---5---6------5--|---6-------6----|
|------4---6-------|-------4--6------|-----------------|----------------|
|--7-----------7---|---7---------7---|----------7------|-------7--------|
|------------------|-----------------|-----------------|----------------|
|------------------|-----------------|-----------------|----------------|
|------------------|-----------------|-----------------|----------------|


  Bb/G               D5                  Bb/G         D5    D/F#           D5
                       PM-----------|                  PM---------------------|
|------------------|-------------------|------------------|-------------------|
|------------------|-------------------|------------------|-------------------|
|------------------|-------------------|------------------|-------------------|
|--8-8-8-8-8-8-8-8-|-------------------|--8--8-8--8-8-----|---7---7-7--7-7----|
|--5-5-5-5-5-5-5-5-|---0----------0--0-|--5--5-5--5-5--0--|---5---5-5--5-5-0--|
|--5-5-5-5-5-5-5-5-|---0----------0--0-|--5--5-5--5-5--0--|---4---4-4--4-4-0--|
|
|------------------|-------------------|--------------18--|-(18)------17-------|
|-15---------------|-(15)----15--15h16-|-15------16-------|--------------------|
|------------------|-------------------|------------------|--------------------|
|------------------|-------------------|------------------|--------------------|
|------------------|-------------------|------------------|--------------------|
|------------------|-------------------|------------------|--------------------|
|
|------------------|-------------------|------------------|--------------------|
|------------------|-------------------|--------------11--|-(11)------10-------|
|--7---------------|--(7)---------7h=8p|==7-------8-------|--------------------|
|------------------|-------------------|------------------|--------------------|
|------------------|-------------------|------------------|--------------------|
|------------------|-------------------|------------------|--------------------|


                                                    H.=H
  Bb/G               D5              N.C.
                       PM------------------------------------------|
|------------------|---------------|--------------|----------------|
|------------------|---------------|--------------|----------------|
|------------------|---------------|--------------|----------------|
|--8-8-8-8-8-8-8-8-|---------------|-----1--------|--1-----4-------|
|--5-5-5-5-5-5-5-5-|---0-------0-0-|--5-----0--5--|-----0----------|
|--5-5-5-5-5-5-5-5-|---0-------0-0-|--------------|----------------|
|
|------------------|---------------|-17-----------|-22----------||
|-18---------------|-(18)----------|--------------|-------------||
|------------------|---------------|--------------|-------------||
|------------------|---------------|--------------|-------------||
|------------------|---------------|--------------|-------------||
|------------------|---------------|--------------|-------------||
|
|------------------|---------------|--------------|-------------||
|--6---------------|--(6)----------|-10-----------|-11----------||
|------------------|---------------|--------------|-------------||
|------------------|---------------|--------------|-------------||
|------------------|---------------|--------------|-------------||
|------------------|---------------|--------------|-------------||


   \"Too late to wake...\"
    Q=185
    F#G5       G5F#5
    Gtrs I, II
    PM----------------------|
||--------------------------|
||o-------------------------|
||--------------------------|
||--------------------------|
||o-4-5-5-5-5--5-4-4-4-4----|
||--4-5-5-5-5--5-4-4-4-4----|


 1.,2.,3.                        4.
  F#G5       G5  A5  F#5 G5      F#G5       D5
 -----------------------------------------------------|
                              4x
|-----------------------------||------------------------|
|----------------------------o||------------------------|
|-----------------------------||------------------------|
|-----------------------------||------------------------|
|-4-5-5-5-5--5-5-7-7-4-4-5-5-o||-4-5-5-5-5--0-0-0-0-0-0-|
|-4-5-5-5-5--5-5-7-7-4-4-5-5--||-4-5-5-5-5--0-0-0-0-0-0-|


    D5
   4/4                     5/4
    PM---------------------------------------------------|
                                                            3x
||------------------------|---------------------------------||
||o-----------------------|--------------------------------o||
||------------------------|---------------------------------||
||------------------------|---------------------------------||
||o-0-0-0-0-0--0-0-0-0-0--|-0-0-0-0-0--0-0-0-0-0-0-0-0-0---o||
||--0-0-0-0-0--0-0-0-0-0--|-0-0-0-0-0--0-0-0-0-0-0-0-0-0----||


  D5
 4/4
  PM---------------------------------------------------|
|-----------------------|------------------------------|
|-----------------------|------------------------------|
|-----------------------|------------------------------|
|-----------------------|------------------------------|
|-0-0-0-0-0--0-0-0-0-0--|-0-0-0-0-0--0-0-0-0-0-0-0-0---|
|-0-0-0-0-0--0-0-0-0-0--|-0-0-0-0-0--0-0-0-0-0-0-0-0---|


  Q=165
  D5
 3/4
|--------|--------||
|--------|--------||
|--------|--------||
|-0------|-(0)----||
|-0------|-(0)----||
|-0------|-(0)----||


 Interlude
  Gm                            Bbm
  Gtr IV
|--------------|--------------|--------------|--------------|
|--------------|--------------|--------------|--------------|
|--------------|--------------|--------------|--------------|
|--8-----8-----|--8-----8-----|-11----11-----|-11----11-----|
|--x---x-x-x-x-|--x---x-x-x-x-|--x--x--x-x-x-|--x--x--x-x-x-|
|--5---5-5-5-5-|--5---5-5-5-5-|--8--8--8-8-8-|--8--8--8-8-8-|
|
| Gtrs I, II
|                 >
|--------------|--------------|--------------|--------------|
|--------------|--------------|--------------|--------------|
|--------------|--------------|--------------|--------------|
|-(0)----------|-(0)----------|--------------|--------------|
|-(0)----------|-(0)----------|--------------|--------------|
|-(0)----------|-(0)----------|--------------|--------------|


  F#sus2  F#m     F#sus2  F#m     D
|---------------|---------------|------------|------------|
|---------------|---------------|------------|------------|
|---------------|---------------|------------|------------|
|-6h=7----7---7-|-6h=7----7---7-|-4----4-----|-4----4-----|
|-x-(x)-x-x-x-x-|-x-(x)-x-x-x-x-|-x--x-x-x-x-|-x--x-x-x-x-|
|-4-(4)-4-4-4-4-|-4-(4)-4-4-4-4-|-0--0-0-0-0-|-0--0-0-0-0-|
|
|---------------|---------------|------------|------------|
|---------------|---------------|------------|------------|
|---------------|---------------|------------|------------|
|---------------|---------------|------------|------------|
|---------------|---------------|------------|------------|
|---------------|---------------|------------|------------|


  Gm                        Bbm
|------------|------------|--------------|--------------|
|------------|------------|--------------|--------------|
|------------|------------|--------------|--------------|
|-8----8-----|-8----8-----|-11----11-----|-11----11-----|
|-x--x-x-x-x-|-x--x-x-x-x-|--x--x--x-x-x-|--x--x--x-x-x-|
|-5--5-5-5-5-|-5--5-5-5-5-|--8--8--8-8-8-|--8--8--8-8-8-|
|
| Gtr II
|------------|------------|--------------|--------------|
|------------|------------|--------------|--------------|
|------------|------------|--------------|--------------|
|-8----------|-8----------|-11-----------|-11-----------|
|------------|------------|--------------|--------------|
|------------|------------|--------------|--------------|


  F#sus2  F#m     F#sus2  F#m     D
|---------------|---------------|------------|------------|
|---------------|---------------|------------|------------|
|---------------|---------------|------------|------------|
|-6h=7----7---7-|-6h=7----7---7-|-4----4-----|-4----4-----|
|-x-(x)-x-x-x-x-|-x-(x)-x-x-x-x-|-x--x-x-x-x-|-x--x-x-x-x-|
|-4-(4)-4-4-4-4-|-4-(4)-4-4-4-4-|-0--0-0-0-0-|-0--0-0-0-0-|
|
|---------------|---------------|------------|------------|
|---------------|---------------|------------|------------|
|---------------|---------------|------------|------------|
|-7-------------|-7-------------|-7----------|-7----------|
|---------------|---------------|------------|------------|
|---------------|---------------|------------|------------|


    Bb/G
    Gtr I
||--------------------|----------15-------|
||o-------15h16p15----|-------15----15----|
||-----15----------15-|----15----------15-|
||--17----------------|-17----------------|
||o-------------------|-------------------|
||--------------------|-------------------|
|
|   Gtr V
||--------------------|-------------------|
||o-------------------|-------------------|
||--------------------|-------------------|
||---8----------------|--8----------------|
||o--5----------------|--5----------------|
||---5----------------|--5----------------|


  C#/Bb
|----------15-------|-------------------|
|-------15----15----|-------15h16p15----|
|----15----------15-|----15----------15-|
|-17----------------|-17----------------|
|-------------------|-------------------|
|-------------------|-------------------|
|
|-------------------|-------------------|
|-------------------|-------------------|
|-------------------|-------------------|
|-11----------------|-11----------------|
|--8----------------|--8----------------|
|--8----------------|--8----------------|


  A/F#
|-------------------|----------14-------|
|-------14h15p14----|-------14----14----|
|----14----------14-|----14----------14-|
|-16----------------|-16----------------|
|-------------------|-------------------|
|-------------------|-------------------|
|
|-------------------|-------------------|
|-------------------|-------------------|
|-------------------|-------------------|
|--7----------------|--7----------------|
|--4----------------|--4----------------|
|--4----------------|--4----------------|


  D
|-------------------|----------14--------||
|-------14h15p14----|-------14----14----o||
|----14----------14-|----14----------14--||
|-16----------------|-16-----------------||
|-------------------|-------------------o||
|-------------------|--------------------||
|
|-------------------|--------------------||
|-------------------|-------------------o||
|-------------------|--------------------||
|--4----------------|--4-----------------||
|--0----------------|--0----------------o||
|--0----------------|--0-----------------||


    Bb/G
||--------------------|----------15-------|
||o-------15h16p15----|-------15----15----|
||-----15----------15-|----15----------15-|
||--17----------------|-17----------------|
||o-------------------|-------------------|
||--------------------|-------------------|
|
|   Gtr II
||--------15h17p15----|-------15h18p15----|
||o----15----------15-|----15----------15-|
||--15----------------|-15----------------|
||--------------------|-------------------|
||o-------------------|-------------------|
||--------------------|-------------------|
|
|   Gtr V
||--------------------|-------------------|
||o-------------------|-------------------|
||--------------------|-------------------|
||---8----------------|--8----------------|
||o--5----------------|--5----------------|
||---5----------------|--5----------------|


  C#/Bb
|----------15-------|-------------------|
|-------15----15----|-------15h16p15----|
|----15----------15-|----15----------15-|
|-17----------------|-17----------------|
|-------------------|-------------------|
|-------------------|-------------------|
|
|-------15h18p15----|-------15h17p15----|
|----15----------15-|----15----------15-|
|-15----------------|-15----------------|
|-------------------|-------------------|
|-------------------|-------------------|
|-------------------|-------------------|
|
|-------------------|-------------------|
|-------------------|-------------------|
|-------------------|-------------------|
|-11----------------|-11----------------|
|--8----------------|--8----------------|
|--8----------------|--8----------------|


  A/F#
|-------------------|----------14-------|
|-------14h15p14----|-------14----14----|
|----14----------14-|----14----------14-|
|-16----------------|-16----------------|
|-------------------|-------------------|
|-------------------|-------------------|
|
|-------12h14p12----|-------12h17p12----|
|----14----------14-|----14----------14-|
|-14----------------|-14----------------|
|-------------------|-------------------|
|-------------------|-------------------|
|-------------------|-------------------|
|
|-------------------|-------------------|
|-------------------|-------------------|
|-------------------|-------------------|
|--7----------------|--7----------------|
|--4----------------|--4----------------|
|--4----------------|--4----------------|


  D
|-------------------|----------14--------||
|-------14h15p14----|-------14----14----o||
|----14----------14-|----14----------14--||
|-16----------------|-16-----------------||
|-------------------|-------------------o||
|-------------------|--------------------||
|
|-------12h14p12----|-------12h17p12-----||
|----14----------14-|----14----------14-o||
|-14----------------|-14-----------------||
|-------------------|--------------------||
|-------------------|-------------------o||
|-------------------|--------------------||
|
|-------------------|--------------------||
|-------------------|-------------------o||
|-------------------|--------------------||
|--4----------------|--4-----------------||
|--0----------------|--0----------------o||
|--0----------------|--0-----------------||


 Reprise
  Q=210
  G5
 4/4
  Gtr I
  PM--|   PM  PM--|       PM  PM--|     PM--|
|---------------------|---------------------|
|---------------------|---------------------|
|---------------------|---------------7-----|
|-------8---7---------|-7---5---------------|
|---------------------|---------------------|
|-5-5-5---5---5-5-5-5-|---5---5-5-5-5---5---|
|
| Gtr II
|---------------------|-------------------|
|---------------------|-------------------|
|---------------------|-------------------|
|-5-----5---5---------|-5---5---------5---|
|-5-----5---5---------|-5---5---------5---|
|-5-----5---5---------|-5---5---------5---|


 -----|   PM  PM--|       PM  PM-------------|     PM
|---------------------|----------------------|
|---------------------|----------------------|
|---------------------|---------------7------|
|-------8---7---------|-7---5----------------|
|---------------------|----------------------|
|-5-5-5---5---5-5-5-5-|---5---5-5-5-5---5----|
|
|---------------------|--------------------|
|---------------------|--------------------|
|---------------------|--------------------|
|-5-------------------|-5------------------|
|-5-------------------|-5------------------|
|-5-------------------|-5------------------|


  D5
  PM--|   PM  PM--|       PM  PM------------|     PM
|---------------------|---------------------|
|---------------------|---------------------|
|---------------------|---------------------|
|-------5---4---------|---------------5-----|
|---------------------|-6---5---------------|
|-0-0-0---0---0-0-0-0-|---0---0-0-0-0---0---|
|
|---------------------|-------------------|
|---------------------|-------------------|
|---------------------|-------------------|
|-0-----0---0---------|-0---0---------0---|
|-0-----0---0---------|-0---0---------0---|
|-0-----0---0---------|-0---0---------0---|


  N.C.
          PM  PM|     PM  PM-------------|
|-------------------|--------------------|
|-------------------|--------------------|
|-------------------|--------------------|
|-4h5p4-------------|--------------------|
|-------6---5-----1-|---0-----4-4-4------|
|---------0---0-0---|-0---0-0-4-4-4------|
|
|         PM  PM|     PM  PM-------------|
|-------------------|--------------------|
|-------------------|--------------------|
|-------------------|--------------------|
|-4h5p4-------------|--------------------|
|-------6---5-----1-|---0-----4-4-4------|
|---------0---0-0---|-0---0-0-4-4-4------|


  N.C.
  Gtrs I, II
  PM--|   PM  PM--|       PM  PM--|     PM--|
|---------------------|---------------------|
|---------------------|---------------------|
|---------------------|---------------7-----|
|-------8---7---------|-7---5---------------|
|---------------------|---------------------|
|-5-5-5---5---5-5-5-5-|---5---5-5-5-5---5---|


 -----|   PM  PM--|       PM  PM------------|     PM
|---------------------|---------------------|
|---------------------|---------------------|
|---------------------|---------------7-----|
|-------8---7---------|-7---5---------------|
|---------------------|---------------------|
|-5-5-5---5---5-5-5-5-|---5---5-5-5-5---5---|


  N.C.
  PM--|   PM  PM--|       PM  PM--|     PM    PM--|   PM--|     PM------------|
|---------------------|-------------------|-----------------|-----------------|
|---------------------|-------------------|-----------------|---------7-------|
|---------------------|-------------------|-----------------|-7---------------|
|-------5---4---------|-----4---------5---|-7-------8-------|-----------------|
|---------------------|-6-----------------|-----------------|-----------------|
|-0-0-0---0---0-0-0-0-|---0---0-0-0-0---0-|---0-0-0---0-0-0-|---0-0-0---------|


   Outro
    Q=170
    G5
    Gtr I
    PM------------|        PM--|     PM--------------|
||-----------------------|---------------------------|
||o----------------------|---------------------------|
||-----------------------|---------------------------|
||-----------------------|---------------------------|
||o-5-5-5-5---5-5-5------|-5-5-5-----5-5-5-5-5-5-----|
||--5-5-5-5---5-5-5------|-5-5-5-----5-5-5-5-5-5-----|
|
|   Gtr II
|   TP      TPTPTP   TPTP  TP    TPTPTP      TP  TP
||-----------------------|-------------------------|
||o----------------------|-------------------------|
||-----------------------|-------------------------|
||--5-------0-4-5----0-4-|-5-----0-5-8-------0---8-|
||o----------------------|-------------------------|
||-----------------------|-------------------------|


                           1.                           2.
  G5
   PM-------------|    PM----|      PM--------------------|      PM-------------|
|------------------------|---------------------------||-------------------------|
|------------------------|--------------------------o||-------------------------|
|------------------------|---------------------------||-------------------------|
|------------------------|---------------------------||-------------------------|
|--5-5-5-5---5--5-5----5-|-5-5------5-5-5-5-5-5-5-5-o||-5-5------5-5-5-5-5------|
|--5-5-5-5---5--5-5----5-|-5-5------5-5-5-5-5-5-5-5--||-5-5------5-5-5-5-5------|
|
|  TP      TPTP TP   TPTP  TP   TPTPTP      TP  TP      TP   TPTPTP      TP TP
|------------------------|---------------------------||-----------------------|
|------------------------|--------------------------o||-----------------------|
|------------------------|---------------------------||-----------------------|
|-12-------0-8-12----0-8-|-7----0-5-4-------0---4----||-7----0-5-4-------0--4-|
|------------------------|--------------------------o||-----------------------|
|------------------------|---------------------------||-----------------------|


    G5
    Gtr I
    TP      TPTPTP   TPTP  TP    TPTP TP      TP   TP
||-----------------------|---------------------------|
||o----------------------|---------------------------|
||-----------------------|---------------------------|
||--5-------0-4-5----0-4-|-5-----0-5--8-------0----8-|
||o----------------------|---------------------------|
||-----------------------|---------------------------|
|
|   Gtr III
|   TP      TPTPTP   TPTP  TP    TPTP TP      TP   TP
||-----------------------|---------------------------|
||o----------------------|---------------------------|
||-----------------------|---------------------------|
||--8-------0-7-8----0-7-|-8-----0-8-12-------0---12-|
||o----------------------|---------------------------|
||-----------------------|---------------------------|
|
|   Gtr II
|   PM------------|        PM--|      PM---------------|
||-----------------------|-----------------------------|
||o----------------------|-----------------------------|
||-----------------------|-----------------------------|
||-----------------------|-----------------------------|
||o-5-5-5-5---5-5-5------|-5-5-5------5-5-5-5-5-5------|
||--5-5-5-5---5-5-5------|-5-5-5------5-5-5-5-5-5------|


  G5
   TP      TP TP TP   TP TP   TP   TPTPTP      TP  TP
|--------------------------|---------------------------|
|--------------------------|---------------------------|
|--------------------------|---------------------------|
|-12-------0--8-12----0--8-|--7----0-5-4-------0---4---|
|--------------------------|---------------------------|
|--------------------------|---------------------------|
|
|  TP      TP TP TP   TP TP   TP   TPTPTP      TP  TP
|--------------------------|---------------------------|
|--------------------------|---------------------------|
|--------------------------|---------------------------|
|-17-------0-12-17----0-12-|-10----0-8-7-------0---7---|
|--------------------------|---------------------------|
|--------------------------|---------------------------|
|
|  PM--------------|     PM-----|      PM----------------|
|--------------------------|-----------------------------|
|--------------------------|-----------------------------|
|--------------------------|-----------------------------|
|--------------------------|-----------------------------|
|--5-5-5-5----5--5-5-----5-|--5-5------5-5-5-5-5-5-5-5---|
|--5-5-5-5----5--5-5-----5-|--5-5------5-5-5-5-5-5-5-5---|


  G5
  TP      TPTPTP   TPTP  TP    TPTP TP      TP   TP
|----------------------|---------------------------|
|----------------------|---------------------------|
|----------------------|---------------------------|
|-5-------0-4-5----0-4-|-5-----0-5--8-------0----8-|
|----------------------|---------------------------|
|----------------------|---------------------------|
|
| TP      TPTPTP   TPTP  TP    TPTP TP      TP   TP
|----------------------|---------------------------|
|----------------------|---------------------------|
|----------------------|---------------------------|
|-8-------0-7-8----0-7-|-8-----0-8-12-------0---12-|
|----------------------|---------------------------|
|----------------------|---------------------------|
|
| PM------------|        PM--|      PM---------------|
|----------------------|-----------------------------|
|----------------------|-----------------------------|
|----------------------|-----------------------------|
|----------------------|-----------------------------|
|-5-5-5-5---5-5-5------|-5-5-5------5-5-5-5-5-5------|
|-5-5-5-5---5-5-5------|-5-5-5------5-5-5-5-5-5------|


  G5
   TP      TP TP TP   TP TP   TP   TPTPTP      TP TP
|--------------------------|-------------------------||
|--------------------------|------------------------o||
|--------------------------|-------------------------||
|-12-------0--8-12----0--8-|--7----0-5-4-------0--4--||
|--------------------------|------------------------o||
|--------------------------|-------------------------||
|
|  TP      TP TP TP   TP TP   TP   TPTPTP      TP TP
|--------------------------|-------------------------||
|--------------------------|------------------------o||
|--------------------------|-------------------------||
|-17-------0-12-17----0-12-|-10----0-8-7-------0--7--||
|--------------------------|------------------------o||
|--------------------------|-------------------------||
|
|  PM--------------|     PM-----|      PM---------------|
|--------------------------|----------------------------|
|--------------------------|------------------------o---|
|--------------------------|----------------------------|
|--------------------------|----------------------------|
|--5-5-5-5----5--5-5-----5-|--5-5------5-5-5-5-5----o---|
|--5-5-5-5----5--5-5-----5-|--5-5------5-5-5-5-5--------|


An American Dream
As recorded by August Burns Red
(From the 2007 Album MESSENGERS)

Transcribed by Chris Allan

For those without powertab, here you go. Gtr. III represents the bass, I only put it in
the one part. This one was really tough to tab, so enjoy. Only The Blinding Light remains!


Words and Music by ABR
Arranged by ABR

 Intro
  Q=160
  N.C.  D5
 2/4   4/4
  Gtr I
                            PM      PM
|-----|-------------------|------------------|
|-----|-------------------|-----------7h8h10-|
|-----|-------------------|---7--------------|
|-----|-4h5h7-5p0-8-7-----|-----8------------|
|-----|---------------6-5-|-0-----9-0--------|
|-----|-------------------|-0-------0--------|
|
| Gtr II
|                           PM      PM
|-----|-------------------|------------------|
|-----|-------------------|------------------|
|-----|-------------------|------------------|
|-----|-0-----------------|------------------|
|-----|-0-----------------|-0-------0--------|
|-----|-0-----------------|-0-------0--------|


  D5
                        PM        PM
|---------------------|----------------|
|---------------------|----------------|
|---------------------|-----7----------|
|-4h5h7-5p0-8-7-------|-------8--------|
|---------------6-5---|-0-------9-0----|
|---------------------|-0---------0----|
|
|     PM|         PM---------------------|     PM
|---------------------|------------------|
|---------------------|------------------|
|---------------------|------------------|
|-0-------------------|------------------|
|-0---0-0---------0-0-|-0-0-0-----0------|
|-0---0-0---------0-0-|-0-0-0-----0------|


  D5
                            PM        PM
|-------------------------|----------------------|
|-------------------------|---------------7h8h10-|
|-------------------------|---7------------------|
|-4h5h7-5p0-8---7---------|-------8--------------|
|-------------------6---5-|-0-------9-0----------|
|-------------------------|-0---------0----------|
|
| PM--|     PM------------------|     PM-----------|
|-------------------------|------------------------|
|-------------------------|------------------------|
|-------------------------|------------------------|
|-------------------------|------------------------|
|-0-0-0-----0-0-0-0-0-0-0-|-0-0-0-----0-0-0----0---|
|-0-0-0-----0-0-0-0-0-0-0-|-0-0-0-----0-0-0----0---|


        D5
                                PM        PM
                                                      3x
||----------------------------|-----------------------||
||o---------------------------|---------------7h8h10-o||
||----------------------------|---7-------------------||
||--4h5h7---5p0-8---7---------|-------8---------------||
||o---------------------6---5-|-0-------9-0----------o||
||----------------------------|-0---------0-----------||
|
|       PM|     PM------------------|     PM------|
|                                                     3x
||----------------------------|-----------------------||
||o---------------------------|----------------------o||
||----------------------------|-----------------------||
||----------------------------|-----------------------||
||o-----0-0-----0-0-0-0-0-0-0-|-0-0-0-----0-0-0----0-o||
||------0-0-----0-0-0-0-0-0-0-|-0-0-0-----0-0-0----0--||


 "Forgive us for..."
  Q=195
  N.C.
|-------------------|-----------------------|
|-------------------|-----------------------|
|-------------------|-----------------------|
|-------------------|--x\-------------------|
|-------------------|--x\-------------------|
|-------------------|-----------------------|
|
| PM------|   PM  PM      PM  PM--------------|
|-------------------|-------------------------|
|-------------------|-------------------------|
|-------------------|-------------------------|
|-------------------|-------------------------|
|-----------8---7---|-10----8-----------------|
|-0-0-0-0-0---0---0-|-----0---0-0-0-0-0-0-0---|


           PM   PM   PM     PM-------------------|
|----------------------|-------------------------|
|----------------------|-------------------------|
|------------------9---|-------------------------|
|-(x)---12---11--------|-12----------------------|
|-(x)------------------|-------------------------|
|----------0----0----0-|----0-0-0-0-0-0-0-0-0----|
|
|-----|    PM   PM   PM     PM-------------------|
|----------------------|-------------------------|
|----------------------|-------------------------|
|-------10----9---12---|-10----------------------|
|----------------------|-------------------------|
|----------------------|-------------------------|
|--0--0----0----0----0-|----0-0-0-0-0-0-0-0-0----|


    N.C.
    PM------|   PM   PM     PM  PM-----------------------------------|    PM   PM   PM
||---------------------|----------------------|----------------------|
||o--------------------|----------------------|----------------------|
||---------------------|----------------------|----------------9-----|
||------------7--------|--8---7---------------|-----12---11----------|
||o---------------10---|----------------------|----------------------|
||--0-0-0-0-0---0----0-|----0---0-0-0-0-0-0-0-|-0-0----0----0----0---|
|
|   PM------|   PM   PM     PM  PM-----------------------------------|    PM   PM   PM
||---------------------|----------------------|----------------------|
||o--------------------|----------------------|----------------------|
||---------------------|----------------------|-----10----9---12-----|
||---------------------|----------------------|----------------------|
||o-----------8----7---|-10---8---------------|----------------------|
||--0-0-0-0-0---0----0-|----0---0-0-0-0-0-0-0-|-0-0----0----0----0---|


 1.                        2.
     PM--------------|        PM--------------------|
|-----------------------||--------------------------|
|----------------------o||--------------------------|
|-----------------------||--------------------------|
|-12--------------------||-12-----------------------|
|----------------------o||--------------------------|
|----0-0-0-0-0-0-0-0-0--||----0-0-0-0-0-0-0-0-------|
|
|    PM--------------|        PM--------------------|
|-----------------------||--------------------------|
|----------------------o||--------------------------|
|-10--------------------||-10-----------------------|
|-----------------------||--------------------------|
|----------------------o||--------------------------|
|----0-0-0-0-0-0-0-0-0--||----0-0-0-0-0-0-0-0-------|


   "This is no longer..."
    N.C.
   4/4
    Gtrs I, II
    PM------|   PM  PM----------------------------|     PM
||--------------------|---------------------------|
||o-------------------|---------------------------|
||--------------------|---------------------------|
||--------------------|---------------------------|
||o-----------8---7---|-----------4p0---4-(4)s7---|
||--0-0-0-0-0---0---0-|-0-0-0-0-0-----0-----------|


                           2/4
  PM--------|           PM        PM
                                      4x
|-------------------------|-----------||
|-------------------------|----------o||
|-------------------------|-----------||
|-------------6h7p6p0-----|---6-------||
|---------------------7---|-7---7----o||
|-0-0-0-0-0-0-----------0-|-------0---||


 "We're trying to breathe..."
  Q=155
  N.C.  D5
 4/4
               PM------|   PM-----------------------------|
|------------|-------------------|------------------------|
|------------|-------------------|------------------------|
|------------|-------------------|------------------------|
|------------|-------------------|------------------------|
|-------12\--|-0-0-0-0-0---0-0-0-|--0-0-0-0-0-0-0-0-0-----|
|-------12\--|-0-0-0-0-0---0-0-0-|--0-0-0-0-0-0-0-0-0-----|


    D5
    PM----------------|     PM---------------|
||----------------------|--------------------|
||o---------------------|--------------------|
||----------------------|--------------------|
||----------------------|--------------------|
||o-0-0-0-0-0-0-0-0-0-0-|---0-0-0--0-0-0-0---|
||--0-0-0-0-0-0-0-0-0-0-|---0-0-0--0-0-0-0---|


 2/4            4/4
 ---------|      PM---------------------|
|-------------||------------------------|
|------------o||------------------------|
|-------------||------------------------|
|-------------||------------------------|
|-0-0-0-0-0--o||-0-0-0-0-0-0-0-0-0-0----|
|-0-0-0-0-0---||-0-0-0-0-0-0-0-0-0-0----|


    N.C.
         PM|     PM    PM    PM----------------|
||-------------------|-------------------------|
||o------------------|---------------------o---|
||-------------------|-------------------------|
||-------------------|-------------------------|
||o-4--0-----0-5---5-|---4p0-0-0-0-0-0-0-0-o---|
||-------0-0-----0---|-0-----0-0-0-0-0-0-0-----|


    N.C.
    Gtr I
         PM|     PM    PM    PM----------|
                                            3x
||-------------------|----------------------||
||o------------------|---------------------o||
||-------------------|----------------------||
||--2--------0h3---3-|---2------------------||
||o----0-------------|-----0-0-0-0-0-0-0-0-o||
||-------0-0-----0---|-0-----0-0-0-0-0-0-0--||
|
|   Gtr II
|        PM|     PM    PM    PM----------|
|                                           3x
||-------------------|----------------------||
||o------------------|---------------------o||
||-------------------|----------------------||
||-------------------|----------------------||
||o-4--0-----0-5---5-|---4p0-0-0-0-0-0-0-0-o||
||-------0-0-----0---|-0-----0-0-0-0-0-0-0--||


  N.C.
                    2/4
  ~    PM|     PM    PM    PM
|------------------|---------||
|------------------|---------||
|------------------|---------||
|-2--------0h3---3-|---2-----||
|----0-------------|-----0---||
|------0-0-----0---|-0-----0-||
|
| ~    PM|     PM    PM    PM
|------------------|---------||
|------------------|---------||
|------------------|---------||
|------------------|---------||
|-4--0-----0-5---5-|---4p0---||
|------0-0-----0---|-0-----0-||


 "One nation under God..."
  Q=160
  N.C.      D5  N.C.              D5  N.C.
 4/4
  Gtrs I, II
            PM                    PM
|---------------------|---------------------|
|---------------------|---------------------|
|-0-3p0---------------|-0-3p0---------------|
|-------4h7---5-4-----|-------4h7---5-4-----|
|-----------0-----6-5-|-----------0-----6-5-|
|-----------0---------|-----------0---------|


            D5  N.C.              D5F#Eb5 D5
            PM                    PM------------|
|---------------------|-------------------------|
|---------------------|-------------------------|
|-0-3p0---------------|-0-3p0-------------------|
|-------4h7---5-4-----|-------4h7---------------|
|-----------0-----6-5-|-----------0-4-1-1-0-----|
|-----------0---------|-----------0-4-1-1-0-----|


  N.C.       D5  N.C.                D5  N.C.
  Gtr I
             PM                      PM
|-----------------------|-----------------------|
|-----------------------|-----------------------|
|-0-6p0-----------------|-0-6p0-----------------|
|-------7h10---8-7------|-------7h10---8-7------|
|------------0-----10-9-|------------0-----10-9-|
|------------0----------|------------0----------|
|
| Gtr II
|            PM                      PM
|-----------------------|-----------------------|
|-----------------------|-----------------------|
|-0-3p0-----------------|-0-3p0-----------------|
|-------4h=7---5-4------|-------4h=7---5-4------|
|------------0------6-5-|------------0------6-5-|
|------------0----------|------------0----------|


             D5  N.C.                D5F#Eb5 D5
             PM                      PM-----------|
|-----------------------|-------------------------|
|-----------------------|-------------------------|
|-0-6p0-----------------|-0-6p0-------------------|
|-------7h10---8-7------|-------7h10--------------|
|------------0-----10-9-|------------0-4-1-1-0----|
|------------0----------|------------0-4-1-1-0----|
|
|            PM                      PM-----------|
|-----------------------|-------------------------|
|-----------------------|-------------------------|
|-0-3p0-----------------|-0-3p0-------------------|
|-------4h=7---5-4------|-------4h=7--------------|
|------------0------6-5-|------------0-4-1-1-0----|
|------------0----------|------------0-4-1-1-0----|


  N.C.      D5  N.C.    D5    N.C.    D5  N.C.
  Gtrs I, II
            PM          PM            PM
|-------------------------|---------------------|
|-------------------------|---------------------|
|-0-3p0-------0-3p0-------|-0-3p0---------------|
|-------4h7---------4h7---|-------4h7---5-4-----|
|-----------0-----------0-|-----------0-----6-5-|
|-----------0-----------0-|-----------0---------|


            D5  N.C.    D5    N.C.    D5F#A5EbD5
            PM          PM            PM----------|
|-------------------------|-----------------------|
|-------------------------|-----------------------|
|-0-3p0-------0-3p0-------|-0-3p0-----------------|
|-------4h7---------4h7---|-------4h7-------------|
|-----------0-----------0-|-----------0-4-7-1-0---|
|-----------0-----------0-|-----------0-4-7-1-0---|


  N.C.       D5  N.C.     D5    N.C.     D5  N.C.
  Gtr I
             PM           PM             PM
|---------------------------|-----------------------|
|---------------------------|-----------------------|
|-0-6p0--------0-6p0--------|-0-6p0-----------------|
|-------7h10---------7h10---|-------7h10---8-7------|
|------------0------------0-|------------0-----10-9-|
|------------0------------0-|------------0----------|
|
| Gtr II
|            PM           PM             PM
|---------------------------|-----------------------|
|---------------------------|-----------------------|
|-0-3p0--------0-3p0--------|-0-3p0-----------------|
|-------4h=7---------4h=7---|-------4h=7---5-4------|
|------------0------------0-|------------0------6-5-|
|------------0------------0-|------------0----------|


             D5  N.C.     D5    N.C.     D5
                             2/4
             PM           PM             PM
|---------------------------|----------------||
|---------------------------|----------------||
|-0-6p0--------0-6p0--------|-0-6p0----------||
|-------7h10---------7h10---|-------7h10-----||
|------------0------------0-|------------0---||
|------------0------------0-|------------0---||
|
|            PM           PM             PM
|---------------------------|----------------||
|---------------------------|----------------||
|-0-3p0--------0-3p0--------|-0-3p0----------||
|-------4h=7---------4h=7---|-------4h=7-----||
|------------0------------0-|------------0---||
|------------0------------0-|------------0---||


   Breakdown
    Q=152
    F#A5EbD5F#A5 D5  F#A5EbD5F#D5        F#A5EbD5F#A5 D5  F#A5EbD5F#D5
   4/4
    Gtrs I, II
    PM--------|  PM--------------------------------|  PM------------------------|
||-----------------|-------------------|----------------|-----------------------|
||o----------------|-------------------|----------------|-----------------------|
||-----------------|-------------------|----------------|-----------------------|
||-----------------|-------------------|----------------|-----------------------|
||o-4-7-1-0-4-7--0-|-4-7-1-0-4-0-0-0-0-|-4-7-1-0-4-7--0-|-4-7-1-0-4-0-0-0-0-----|
||--4-7-1-0-4-7--0-|-4-7-1-0-4-0-0-0-0-|-4-7-1-0-4-7--0-|-4-7-1-0-4-0-0-0-0-----|


  G5BbEbD5G5Bb5D5  G5BbEbD5G5D5        G5BbEbD5G5Bb5D5
  PM--------|  PM--------------------------------|  PM--|
|----------------|-------------------|------------------|
|----------------|-------------------|------------------|
|----------------|-------------------|------------------|
|----------------|-------------------|------------------|
|-5-8-1-0-5-8--0-|-5-8-1-0-5-0-0-0-0-|-5-8-1-0-5-8--0---|
|-5-8-1-0-5-8--0-|-5-8-1-0-5-0-0-0-0-|-5-8-1-0-5-8--0---|


 1.                     2.
  G5BbEbD5G5D5          G5BbEbD5G5
 ------------------------------------------|
|--------------------||--------------------|
|-------------------o||--------------------|
|--------------------||--------------------|
|--------------------||---------5-5--5-----|
|-5-8-1-0-5-0-0-0-0-o||-5-8-1-0-5-5--5-----|
|-5-8-1-0-5-0-0-0-0--||-5-8-1-0-5-5--5-----|


   "We've brainwashed..."
    Q=210
    N.C.
   6/4
    Gtr I
      PM|   PM|   PM|   PM|     PM|   PM|   PM|   PM|
||--------------------------|--------------------------|
||o-------------------------|--------------------------|
||--------------------------|-7-----7-----7-----7------|
||--5-----5-----5-----5-----|--------------------------|
||o-------------------------|--------------------------|
||----5-5---5-5---5-5---5-5-|---5-5---5-5---5-5---5-5--|
|
|   Gtr II
|     PM|   PM|   PM|   PM|     PM|   PM|   PM|   PM|
||--------------------------|--------------------------|
||o-------------------------|--------------------------|
||--------------------------|--------------------------|
||--5-----5-----5-----5-----|-8-----8-----8-----8------|
||o-------------------------|--------------------------|
||----5-5---5-5---5-5---5-5-|---5-5---5-5---5-5---5-5--|


  N.C.
     PM|    PM|    PM|    PM|               PM|             PM|
|-----------------------8-----|-10p=8-----------10p=8-----------|
|---------------10------------|-------10--------------10--------|
|-10-----10-------------------|----------10--------------10-----|
|-----------------------------|---------------------------------|
|-----------------------------|---------------------------------|
|----0-0----0-0----0-0----0-0-|-------------0-0-------------0-0-|
|
|    PM|    PM|    PM|    PM|               PM|             PM|
|-----------------------------|---------------------------------|
|----------------------10-----|-11p10-----------11p10-----------|
|--7------7-----10------------|-------10--------------10--------|
|-----------------------------|----------12--------------12-----|
|-----------------------------|---------------------------------|
|----0-0----0-0----0-0----0-0-|-------------0-0-------------0-0-|


  Bb                                    G5                A5
|-------------------------------------|-------------------------|
|-------------------------------------|-------------------------|
|-------------------------------------|-------------------------|
|-12-12-12-12-12-12-12-12-12-12-12-12-|-5-5-5-5-5-5-5-5-5-------|
|--8--8--8--8--8--8--8--8--8--8--8--8-|-5-5-5-5-5-5-5-5-5-/7\---|
|--8--8--8--8--8--8--8--8--8--8--8--8-|-5-5-5-5-5-5-5-5-5-/7\---|
|
|-------------------------------------|-------------------------|
|-------------------------------------|-------------------------|
|-------------------------------------|-------------------------|
|-12-12-12-12-12-12-12-12-12-12-12-12-|-5-5-5-5-5-5-5-5-5-------|
|--8--8--8--8--8--8--8--8--8--8--8--8-|-5-5-5-5-5-5-5-5-5-/7\---|
|--8--8--8--8--8--8--8--8--8--8--8--8-|-5-5-5-5-5-5-5-5-5-/7\---|


  N.C.
  PM--|     PM     PM    PM              PM|             PM|
|--------------------------|-10p=8-----------10p=8------------||
|--------------------------|-------10--------------10--------o||
|--------------------------|----------10--------------10------||
|-------7p0---10p0---8p0---|----------------------------------||
|--------------------------|---------------------------------o||
|-0-0-0-----0------0-----0-|-------------0-0-------------0-0--||
|
| PM--|     PM     PM    PM              PM|             PM|
|--------------------------|----------------------------------||
|--------------------------|-11p10-----------11p10-----------o||
|--------------------------|-------10--------------10---------||
|-------3p0----7p0---5p0---|----------12--------------12------||
|--------------------------|---------------------------------o||
|-0-0-0-----0------0-----0-|-------------0-0-------------0-0--||


 Riff variation
  Q=195
  N.C.
  PM----------|   PM|    PM|      PM|   PM------------------|
|----------------------------|------------------------------|
|----------------------------|------------------------------|
|----------------------------|------------------------------|
|----------------------------|------------------------------|
|---------------8------7-----|-10-----8---------------------|
|-0-0-0-0-0-0-0---0-0----0-0-|----0-0---0-0-0-0-0-0-0-0-0---|
|
| PM----------|   PM|    PM|      PM|   PM------------------|
|----------------------------|------------------------------|
|----------------------------|------------------------------|
|----------------------------|------------------------------|
|---------------7------------|--8-----7---------------------|
|---------------------10-----|------------------------------|
|-0-0-0-0-0-0-0---0-0----0-0-|----0-0---0-0-0-0-0-0-0-0-0---|


 -------|    PM|    PM|    PM|      PM---------------------------|
|------------------------------|---------------------------------|
|------------------------------|---------------------------------|
|------------------------9-----|---------------------------------|
|---------12-----11------------|-12-------------------8p7p0------|
|------------------------------|----------------8p7p0------------|
|-0-0-0-0----0-0----0-0----0-0-|----0-0-0-0-0-0------------------|
|
|-------|    PM|    PM|    PM|      PM---------------------------|
|------------------------------|---------------------------------|
|------------------------------|---------------------------------|
|---------10------9-----12-----|-10------------------------------|
|------------------------------|----------------------8p7p0------|
|------------------------------|----------------8p7p0------------|
|-0-0-0-0----0-0----0-0----0-0-|----0-0-0-0-0-0------------------|


    N.C.
    PM----------|   PM|    PM|      PM|   PM------------------|
||-----------------------------|------------------------------|
||o----------------------------|------------------------------|
||-----------------------------|------------------------------|
||-----------------------------|------------------------------|
||o---------------8------7-----|-10-----8---------------------|
||--0-0-0-0-0-0-0---0-0----0-0-|----0-0---0-0-0-0-0-0-0-0-0---|
|
|   PM----------|   PM|    PM|      PM|   PM------------------|
||-----------------------------|------------------------------|
||o----------------------------|------------------------------|
||-----------------------------|------------------------------|
||----------------7------------|--8-----7---------------------|
||o---------------------10-----|------------------------------|
||--0-0-0-0-0-0-0---0-0----0-0-|----0-0---0-0-0-0-0-0-0-0-0---|


                                1.
 -------|    PM|    PM|    PM|      PM---------------------------|
|------------------------------|---------------------------------|
|------------------------------|-----------------------------o---|
|------------------------9-----|---------------------------------|
|---------12-----11------------|-12-----------------8p7p0--------|
|------------------------------|--------------8p7p0----------o---|
|-0-0-0-0----0-0----0-0----0-0-|----0-0-0-0-0--------------------|
|
|-------|    PM|    PM|    PM|      PM---------------------------|
|------------------------------|---------------------------------|
|------------------------------|-----------------------------o---|
|---------10------9-----12-----|-10------------------------------|
|------------------------------|--------------------8p7p0--------|
|------------------------------|--------------8p7p0----------o---|
|-0-0-0-0----0-0----0-0----0-0-|----0-0-0-0-0--------------------|


 Transition
  2.           Q=135
  N.C.         D5
 5/4                 4/4
     PM--------------------------------------------------|
|-------------------|------------|------------|----------|
|-------------------|------------|------------|----------|
|-------------------|------------|------------|----------|
|-12-----------0----|-(0)--------|-(0)--------|-(0)------|
|--------------0----|-(0)--------|-(0)--------|-(0)------|
|----0-0-0-0-0-0----|-(0)--------|-(0)--------|-(0)------|
|
|    PM--------------------------------------------------|
|-------------------|------------|------------|----------|
|-------------------|------------|------------|----------|
|-10----------------|------------|------------|----------|
|--------------0----|-(0)--------|-(0)--------|-(0)------|
|--------------0----|-(0)--------|-(0)--------|-(0)------|
|----0-0-0-0-0-0----|-(0)--------|-(0)--------|-(0)------|


    D5
    Gtrs I, II
||--------------------|-------------------|
||o-------------------|-------------------|
||--------------------|-------------------|
||--(0)---------------|-(0)---------------|
||o-(0)---------------|-(0)---------------|
||--(0)---------------|-(0)---------------|
|
|   Gtr III
||--------------------|-------------------|
||o-------------------|-------------------|
||--------------------|-------------------|
||--------------------|-------------------|
||o-------------------|-------------------|
||---0--0-0-0-0-0-0-0-|--7--7-7-7-7-7-7-7-|


|-------------------|----------------------------||
|-------------------|---------------------------o||
|-------------------|----------------------------||
|-(0)---------------|-(0)------------------------||
|-(0)---------------|-(0)-----------------------o||
|-(0)---------------|-(0)------------------------||
|
|-------------------|----------------------------||
|-------------------|---------------------------o||
|-------------------|----------------------------||
|-------------------|----------------------------||
|-------------------|---------------------------o||
|--8--8-8-8-8-8-8-8-|-11--11-11-11-11-11-11-11---||


   "This is not an..."
    D5                A5                Bb5
    PM----------------------------------------------------|
||------------------|-----------------|-------------------|
||o-----------------|-----------------|-------------------|
||------------------|-----------------|-------------------|
||------------------|-----------------|-------------------|
||o-0-0-0-0-0-0-0-0-|-7-7-7-7-7-7-7-7-|-8-8-8-8-8-8-8-8---|
||--0-0-0-0-0-0-0-0-|-7-7-7-7-7-7-7-7-|-8-8-8-8-8-8-8-8---|
|
||------------------|-----------------|-----------------|
||o-----------------|-----------------|-----------------|
||------------------|-----------------|-----------------|
||------------------|-----------------|-----------------|
||o-----------------|-----------------|-----------------|
||--0-0-0-0-0-0-0-0-|-7-7-7-7-7-7-7-7-|-8-8-8-8-8-8-8-8-|


 1.                           2.
  C#5                                     E5
 ----------------------------------------------------------|
|--------------------------||------------------------------|
|-------------------------o||------------------------------|
|--------------------------||------------------------------|
|--------------------------||------------------------------|
|-11-11-11-11-11-11-11-11-o||-11-11-11-11-14-14-14-14------|
|-11-11-11-11-11-11-11-11--||-11-11-11-11-14-14-14-14------|
|
|--------------------------||---------------------------||
|-------------------------o||---------------------------||
|--------------------------||---------------------------||
|--------------------------||---------------------------||
|-------------------------o||---------------------------||
|-11-11-11-11-11-11-11-11--||-11-11-11-11-14-14-14-14---||


  Q=170
  D5
  Gtr I
  PM-------------------------------------------|
|-------------------------|--------------------|
|-------------------------|--------------------|
|-------------------------|-------------6-9----|
|-------------------------|-----------7--------|
|-0-0-0-0-0-0-0-0-0-------|--------------------|
|-0-0-0-0-0-0-0-0-0-------|--------------------|
|
| Gtr II
|                     PM----|
|-------------------------|-----------------||
|-------------------------|-----------------||
|-------------------------|---------------9-||
|-------------------------|-----------6-7---||
|---------------------0-0-|-0---------------||
|---------------------0-0-|-0---------------||
|
| Gtr III
|                               PM--|
|-------------------------|-----------------||
|-------------------------|-----------------||
|-------------------------|-----------------||
|-------------------------|-----------------||
|-------------------------|-----------------||
|-------------------------|-----0-0-0-------||


    D5N.C.    D5  N.C.     D5N.C.D5  N.C.
    Gtrs I, II
    PM        PM|          PM    PM|
||-----------------------|-----------------|
||o----------------------|-----------------|
||----------------7-10-6-|---------------9-|
||-----------------------|---8-7-----6-7---|
||o-0-1p0-1p0-0-0--------|-0-----0-0-------|
||--0---------0-0--------|-0-----0-0-------|


  D5N.C.    D5  N.C.     D5N.C.D5  N.C.
  PM        PM|          PM    PM|
|----------------------|-------------------||
|----------------------|------------------o||
|---------------7-10-6-|---------------9---||
|----------------------|---8-7-----6-7-----||
|-0-1p0-1p0-0-0--------|-0-----0-0--------o||
|-0---------0-0--------|-0-----0-0---------||


   "Disease infesting..."
    D5
    Gtr I
    PM-------------------------|     PM------------|
||---------------------------|---------------------|
||o--------------------------|---------------------|
||---------------------------|---------------------|
||---------------------------|---------------------|
||o-0-0-0-0-0-0-0-0------0-0-|-0-----0-0-0---------|
||--0-0-0-0-0-0-0-0------0-0-|-0-----0-0-0---------|
|
|   Gtr II
|   PM        PM--|            PM    PM--|
||---------------------------|-------------------|
||o--------------------------|-------------------|
||------------------7-10-6---|-----------------9-|
||---------------------------|---8-7-------6-7---|
||o-0-1p0-1p0-0---0----------|-0-----0---0-------|
||--0---------0---0----------|-0-----0---0-------|


  PM-------------------------|     PM---------------|
|--------------------------|------------------------|
|--------------------------|--------------------o---|
|--------------------------|------------------------|
|--------------------------|------------------------|
|-0-0-0-0-0-0-0-0------0-0-|-0-----0-0-0--------o---|
|-0-0-0-0-0-0-0-0------0-0-|-0-----0-0-0------------|
|
| PM        PM--|            PM    PM--|
|--------------------------|---------------------||
|--------------------------|--------------------o||
|-----------------7-10-6---|-----------------9---||
|--------------------------|---8-7-------6-7-----||
|-0-1p0-1p0-0---0----------|-0-----0---0--------o||
|-0---------0---0----------|-0-----0---0---------||


 Outro Breakdown
  Q=165
  D5
  Gtrs I, II
  PM-------------|    PM----|   PM----|    PM------------|
|------------------|----------------|--------------------|
|------------------|----------------|--------------------|
|------------------|----------------|--------------------|
|------------------|----------------|--------------------|
|-0----0-0-0-0-0-0-|--0-0-0-0---0-0-|-0----0-0-0-0-0-0---|
|-0----0-0-0-0-0-0-|--0-0-0-0---0-0-|-0----0-0-0-0-0-0---|


  D5
  PM  PM--------|     PM----|   PM----|    PM------------|
|------------------|----------------|--------------------|
|------------------|----------------|--------------------|
|------------------|----------------|--------------------|
|------------------|----------------|--------------------|
|-0---0-0-0-0-0-0--|--0-0-0-0---0-0-|-0----0-0-0-0-0-0---|
|-0---0-0-0-0-0-0--|--0-0-0-0---0-0-|-0----0-0-0-0-0-0---|


  D5
  PM--------------------------------------------------------------|
|------------------|----------------------|-----------------------|
|------------------|----------------------|-----------------------|
|------------------|----------------------|-----------------------|
|------------------|----------------------|-----------------------|
|-0----0-0-0-0-0-0-|-(0)-0-0-0-0-(0)--0-0-|-0-(0)---0-0-0-0-0-0---|
|-0----0-0-0-0-0-0-|-(0)-0-0-0-0-(0)--0-0-|-0-(0)---0-0-0-0-0-0---|


  D5
  PM--------------------------------------------------------------------|
|------------------------|----------------------|-----------------------|
|------------------------|----------------------|-----------------------|
|------------------------|----------------------|-----------------------|
|------------------------|----------------------|-----------------------|
|-0-(0)--0-0-0-0-0-0-(0)-|-(0)-0-0-0-0-(0)--0-0-|-0-(0)---0-0-0-0-0-0---|
|-0-(0)--0-0-0-0-0-0-(0)-|-(0)-0-0-0-0-(0)--0-0-|-0-(0)---0-0-0-0-0-0---|


  D5
              2/4   3/4
  PM-------------------------------------------------------------|
|------------|-----|--------|----------||-----------|------------|
|------------|-----|--------|----------||o----------|--------o---|
|------------|-----|--------|----------||-----------|------------|
|------------|-----|-0------|-(0)------||--(0)------|-(0)--------|
|-0----0--0--|-----|-0------|-(0)------||o-(0)------|-(0)----o---|
|-0----0--0--|-----|-0------|-(0)------||--(0)------|-(0)--------|


    Dm                  Am
   3/4
    Gtr I
||--5------|-5--------|-0------|----------|
||o-6------|----6-----|-1------|-1--------|
||--7------|-------7--|-2------|----------|
||--0------|----------|-2------|----2-----|
||o--------|----------|-0------|-------3--|
||---------|----------|--------|----------|


                     1.
  Fsus4/Bb            F/C
|-1------|----------|--------|-----------||
|-1------|-1--------|-1------|-------1--o||
|-3------|----------|-2------|----2------||
|-3------|----3-----|-3------|-3---------||
|-1------|-------3--|-3------|----------o||
|--------|----------|--------|-----------||


  2.
  F/C
  Gtr I
|--------|-----------*|
|-1------|--------1--*|
|-2------|-----2-----*|
|-3------|-3---------*|
|-3------|-----------*|
|--------|-----------*|
|
| Gtr II
|--------|-----------*|
|--------|-----------*|
|--------|-----------*|
|-xs=====|=x\--------*|
|-xs=====|=x\--------*|
|--------|-----------*|

REDEMPTION
As recorded by August Burns Red
(From the 2007 Album MESSENGERS)

Transcribed by Chris Allan

For those without powertab, though I'd suggest downloading powertab editor if possible
this one, because it's looooong. Hope you guys enjoy it though, I put a lot of work into
one. TP stands for trill pick. Epic song, have fun!


Words and Music by ABR
Arranged by ABR

 Intro
  Q=175
  N.C.        D5                              Bb5
 3/4
  Gtr I
|---------||----------------|---------------|------------|-------------|
|---------||o---------------|---------------|------------|-------------|
|-x\------||--9-10-10-10--9-|-9-10-10-10--9-|-7--7-7-7-7-|-5-7-7-7-7-7-|
|-x\------||--0--0--0--0--0-|-0--0--0--0--0-|-0--0-0-0-0-|-0-0-0-0-0-0-|
|-x\------||o---------------|---------------|------------|-------------|
|---------||----------------|---------------|------------|-------------|
|
| Gtr II
|---------||----------------|---------------|------------|-------------|
|---------||o---------------|---------------|------------|-------------|
|-x\------||----------------|---------------|------------|-------------|
|-x\------||--0-------------|-0-------------|-8----------|-8-----------|
|-x\------||o-0-------------|-0-------------|-8----------|-8-----------|
|---------||--0-------------|-0-------------|-8----------|-8-----------|


                              1.
  C5                           N.C.
|-------------|--------------|-----------------|----------------||
|-------------|--------------|-----------------|---------------o||
|--9--9-9-9-9-|--7-9-9-9-9-9-|-14--14-14-14-14-|-10-10-9-9-5-5--||
|--0--0-0-0-0-|--0-0-0-0-0-0-|--x---x--x--x--x-|--x--x-x-x-x-x--||
|-------------|--------------|-12--12-12-12-12-|--8--8-7-7-3-3-o||
|-------------|--------------|-----------------|----------------||
|
|-------------|--------------|-----------------|----------------||
|-------------|--------------|-----------------|---------------o||
|-------------|--------------|-14--14-14-14-14-|-10-10-9-9-5-5--||
|-10----------|-10-----------|--x---x--x--x--x-|--x--x-x-x-x-x--||
|-10----------|-10-----------|-12--12-12-12-12-|--8--8-7-7-3-3-o||
|-10----------|-10-----------|-----------------|----------------||


  2.
  N.C.
|-----------------|-----------------|
|-----------------|-----------------|
|-10--10-10-10-10-|-14--14-14-14-14-|
|--x---x--x--x--x-|--x---x--x--x--x-|
|--8---8--8--8--8-|-12--12-12-12-12-|
|-----------------|-----------------|
|
|-----------------|-----------------|
|-----------------|-----------------|
|-14--14-14-14-14-|-17--17-17-17-17-|
|--x---x--x--x--x-|--x---x--x--x--x-|
|-12--12-12-12-12-|-15--15-15-15-15-|
|-----------------|-----------------|


    D5                                    Bb5
    Gtr III
||-------------------|------------------|------------------|-------------------|
||o------------------|------------------|------------------|-------------------|
||--9h10-------------|-9h10-------------|----10------------|----10-------------|
||-------12----10h12-|------12----10h12-|-12----12---10h12-|-12----12---10h12--|
||o------------------|------------------|------------------|-------------------|
||-------------------|------------------|------------------|-------------------|
|
|   Gtr II
||-------------------|------------------|------------------|-------------------|
||o------------------|------------------|------------------|-------------------|
||--9-10-10-10-----9-|-9-10-10-10-----9-|--7-----7-7--7--7-|--5--7--7-7--7--7--|
||--0--0--0--0-----0-|-0--0--0--0-----0-|--0-----0-0--0--0-|--0--0--0-0--0--0--|
||o------------------|------------------|------------------|-------------------|
||-------------------|------------------|------------------|-------------------|
|
|   Gtr II
||-------------------|------------------|------------------|-------------------|
||o------------------|------------------|------------------|-------------------|
||-------------------|------------------|------------------|-------------------|
||--0----------------|-0----------------|--8---------------|--8----------------|
||o-0----------------|-0----------------|--8---------------|--8----------------|
||--0----------------|-0----------------|--8---------------|--8----------------|


                                     1.
  C5                                  N.C.
|-----------------|-----------------|-------------------|-------------13----||
|-----------------|-----------------|-------------------|-------13h15------o||
|--9h10p9---------|--9h10p9---------|--9h10--9h10--9h10-|-12h14-------------||
|-----------10h12-|-----------10h12-|-------------------|-------------------||
|-----------------|-----------------|-------------------|------------------o||
|-----------------|-----------------|-------------------|-------------------||
|
|-----------------|-----------------|-------------------|-------------------||
|-----------------|-----------------|-------------------|------------------o||
|--9----9-9--9--9-|--7--9-9-9--9--9-|-14----14-14-14-14-|-10-10--9--9--5-5--||
|--0----0-0--0--0-|--0--0-0-0--0--0-|--x-----x--x--x--x-|--x--x--x--x--x-x--||
|-----------------|-----------------|-12----12-12-12-12-|--8--8--7--7--3-3-o||
|-----------------|-----------------|-------------------|-------------------||
|
|-----------------|-----------------|-------------------|-------------------||
|-----------------|-----------------|-------------------|------------------o||
|-----------------|-----------------|-14----14-14-14-14-|-10-10--9--9--5-5--||
|-10--------------|-10--------------|--x-----x--x--x--x-|--x--x--x--x--x-x--||
|-10--------------|-10--------------|-12----12-12-12-12-|--8--8--7--7--3-3-o||
|-10--------------|-10--------------|-------------------|-------------------||


  2.
  N.C.
  Gtr I
|-----------------|-----------------||
|-----------------|-----------------||
|-10--10-10-10-10-|-14--14-14-14-14-||
|--x---x--x--x--x-|--x---x--x--x--x-||
|--8---8--8--8--8-|-12--12-12-12-12-||
|-----------------|-----------------||
|
| Gtr II
|-----------------|-----------------||
|-----------------|-----------------||
|-14--14-14-14-14-|-17--17-17-17-17-||
|--x---x--x--x--x-|--x---x--x--x--x-||
|-12--12-12-12-12-|-15--15-15-15-15-||
|-----------------|-----------------||


   "I no longer live in..."
    Q=170
    D5        N.C.  D5        N.C.            D5      N.C.  D5        N.C.
   4/4
    PM-------|      PM------|     TP TP    TP PM----|       PM-----------------| TP TP TP
||--------------------|-----------5-----|---------------------|-------5--------|
||o-------------------|--------------6--|-(6)-----------------|----------8--5--|
||--------------------|-------5-7-------|---------------------|----------------|
||--------------------|-----------------|---------------------|----------------|
||o-0-0--0-0--7-8-5-0-|-(0)-0-----------|-----0-0-0-0-7-8-5-0-|-0-0-0----------|
||--0-0--0-0--------0-|-(0)-0-----------|-----0-0-0-0-------0-|-0-0-0----------|
|
|   PM-------|      PM------|     TP TP    TP PM----|       PM-----------------| TP TP TP
||--------------------|-----------------|---------------------|----------------|
||o-------------------|-----------6-----|---------------------|-------6--5-----|
||--------------------|--------------7--|-(7)-----------------|-------------5--|
||------------5h7-----|-------5-8-------|-------------5h7-----|----------------|
||o-0-0--0-0------5-0-|-(0)-0-----------|-----0-0-0-0-----5-0-|-0-0-0----------|
||--0-0--0-0--------0-|-(0)-0-----------|-----0-0-0-0-------0-|-0-0-0----------|


  D5    N.C.  D5        N.C.            D5      N.C.  D5        N.C.
  PM--|       PM------|     TP TP    TP PM----|       PM---------------------| TP TP TP
|---------------|-----------5-----|---------------------|-------5------------|
|---------------|--------------6--|-(6)-----------------|----------8--5--o---|
|---------------|-------5-7-------|---------------------|--------------------|
|---------------|-----------------|---------------------|--------------------|
|-0-0-0-7-8-5-0-|-(0)-0-----------|-----0-0-0-0-7-8-5-0-|-0-0-0----------o---|
|-0-0-0-------0-|-(0)-0-----------|-----0-0-0-0-------0-|-0-0-0--------------|
|
| PM--|       PM------|     TP TP    TP PM----|       PM---------------------| TP TP TP
|---------------|-----------------|---------------------|--------------------|
|---------------|-----------6-----|---------------------|-------6--5-----o---|
|---------------|--------------7--|-(7)-----------------|-------------5------|
|-------5h7-----|-------5-8-------|-------------5h7-----|--------------------|
|-0-0-0-----5-0-|-(0)-0-----------|-----0-0-0-0-----5-0-|-0-0-0----------o---|
|-0-0-0-------0-|-(0)-0-----------|-----0-0-0-0-------0-|-0-0-0--------------|


  D5                                                        Bb5    C5
|-----------------|-------------------|-------------------|---------------||
|-----------------|-------------------|-------------------|---------------||
|-----------------|-------------------|-------------------|---------------||
|-0---------------|-(0)---------------|-(0)---------------|-8------10-----||
|-0---------------|-(0)---------------|-(0)---------------|-8------10-----||
|-0---------------|-(0)---------------|-(0)---------------|-8------10-----||
|
| TP   TPTP TPTPTP   TP    TPTP TPTPTP   TP    TPTP TPTPTP  TP  TP  TP TP
|-----------------|-------------------|-------------------|---------------||
|-----------------|-------------------|-------------------|---------------||
|-----10-9--------|-------10-9--------|-------10-9--------|---------------||
|-0--------10-7-8-|--0---------10-7-8-|--0---------10-7-8-|---------------||
|-----------------|-------------------|-------------------|-8--10--12--7--||
|-----------------|-------------------|-------------------|---------------||


   "On my knees praying..."
    N.C.
    TP   TPTP TPTPTP  TP   TPTP TPTPTP  TP   TPTP TPTPTP  TP      TP
||------------------|-----------------|-----------------|-----------------||
||o-----------------|-----------------|-----------------|----------------o||
||------10-9--------|-----10-9--------|-----10-9--------|-----------------||
||--0--------10-7-8-|-0--------10-7-8-|-0--------10-7-8-|-----------------||
||o-----------------|-----------------|-----------------|----------------o||
||------------------|-----------------|-----------------|-8------10-------||
|
|   TP   TPTP TPTPTP  TP   TPTP TPTPTP  TP   TPTP TPTPTP  TP  TP  TP TP
||------------------|-----------------|-----------------|-----------------||
||o-----------------|-----------------|-----------------|----------------o||
||------10-9--------|-----10-9--------|-----10-9--------|-----------------||
||--0--------10-7-8-|-0--------10-7-8-|-0--------10-7-8-|-----------------||
||o-----------------|-----------------|-----------------|-8--10--12--7---o||
||------------------|-----------------|-----------------|-----------------||


  Q=155
  D5                                G5
|---------------------------------|---------------------------------|
|---------------------------------|---------------------------------|
|---------------------------------|---------------------------------|
|-0-0-3p0-3p0-0-5p0-0-3-3-2-2-3-3-|-0-0-5p0-5p0-0-7p0-0-8-8-7-7-5-5-|
|---------------------------------|---------------------------------|
|---------------------------------|---------------------------------|
|
|---------------------------------|---------------------------------|
|---------------------------------|---------------------------------|
|-7-------------------------------|---------------------------------|
|-7-------------------------------|-5-------------------------------|
|-5-------------------------------|-5-------------------------------|
|---------------------------------|-5-------------------------------|


  A5
|-------------------------------------------------|
|-------------------------------------------------|
|-------------------------------------------------|
|-12-12-14p12-14p12-12-15p12-12-14-14-12-12-14-14-|
|-------------------------------------------------|
|-------------------------------------------------|
|
|-------------------------------------------------|
|-------------------------------------------------|
|-------------------------------------------------|
|--7----------------------------------------------|
|--7----------------------------------------------|
|--7----------------------------------------------|


  D5
|-----------------------------------------------|
|-----------------------------------------------|
|-----------------------------------------------|
|-15-15-19p15-19p15-15-20p15-15-19p15-17p15-19--|
|-----------------------------------------------|
|-----------------------------------------------|
|
|-----------------------------------------------|
|-----------------------------------------------|
|--7--------------------------------------------|
|--7--------------------------------------------|
|--5--------------------------------------------|
|-----------------------------------------------|


  D5                                G5
|---------------------------------|---------------------------------|
|---------------------------------|---------------------------------|
|---------------------------------|---------------------------------|
|-0-0-3p0-3p0-0-5p0-0-3-3-2-2-3-3-|-0-0-5p0-5p0-0-7p0-0-8-8-7-7-5-5-|
|---------------------------------|---------------------------------|
|---------------------------------|---------------------------------|
|
|---------------------------------|---------------------------------|
|---------------------------------|---------------------------------|
|---------------------------------|---------------------------------|
|-0-------------------------------|-5-------------------------------|
|-0-------------------------------|-5-------------------------------|
|-0-------------------------------|-5-------------------------------|


  A5
|-------------------------------------------------|
|-------------------------------------------------|
|-------------------------------------------------|
|-12-12-14p12-14p12-12-15p12-12-14-14-12-12-14-14-|
|-------------------------------------------------|
|-------------------------------------------------|
|
|-------------------------------------------------|
|-------------------------------------------------|
|-------------------------------------------------|
|--7----------------------------------------------|
|--7----------------------------------------------|
|--7----------------------------------------------|


  D5
|-----------------------------------------------||
|-----------------------------------------------||
|-----------------------------------------------||
|-15-15-19p15-19p15-15-20p15-15-19p15-17p15-19--||
|-----------------------------------------------||
|-----------------------------------------------||
|
|-----------------------------------------------||
|-----------------------------------------------||
|--7--------------------------------------------||
|--7--------------------------------------------||
|--5--------------------------------------------||
|-----------------------------------------------||


   "Memories of laying..."
    N.C.
||----------------------------------|------------------------------------|
||o---------------------------------|------------------------------------|
||----------------------------------|------------------------------------|
||--0-0-3p0-3p0-0-5p0-0-3-3-2-2-3-3-|-0-0-5p0-5p0-0--7p0-0-8-8--7-7-5-5--|
||o---------------------------------|------------------------------------|
||----------------------------------|------------------------------------|
|
||----------------------------------|------------------------------------|
||o---------------------------------|------------------------------------|
||----------------------------------|------------------------------------|
||----------------------------------|-0-0-8p0-8p0-0-10p0-0-8p0-----------|
||o-0-0-5p0-5p0-0-7p0-0-5p0-3p0-5---|--------------------------10p0-8p7--|
||----------------------------------|------------------------------------|


  N.C.
|-------------------------------------------------|
|-------------------------------------------------|
|-------------------------------------------------|
|-12-12-14p12-14p12-12-15p12-12-14-14-12-12-14-14-|
|-------------------------------------------------|
|-------------------------------------------------|
|
|-------------------------------------------------|
|-------------------------------------------------|
|-------------------------------------------------|
|-------------------------------------------------|
|--0--0--7p=0--7p=0--0--8p=0--0--7--7--5--5--7----|
|-------------------------------------------------|


|-------------------------------------------------||
|------------------------------------------------o||
|-------------------------------------------------||
|-15-15-19p15-19p15-15-20p15-15-19p15-17p15-19----||
|------------------------------------------------o||
|-------------------------------------------------||
|
|-------------------------------------------------||
|------------------------------------------------o||
|-------------------------------------------------||
|--0--0-10p=0-10p=0--0-12p=0--0-10p=0--8p=0-10p0--||
|------------------------------------------------o||
|-------------------------------------------------||


 Bridge
  Q=140
  D5                                    D5
|-----------------|-------------------|-----------------|-------------------|
|-----------------|-------------------|-----------------|-------------------|
|-----------------|-------------------|-----------------|-------------------|
|-0---------------|-(0)---------------|-0---------------|-(0)---------------|
|-0---------------|-(0)---------------|-0---------------|-(0)---------------|
|-0---------------|-(0)---------------|-0---------------|-(0)---------------|
|
| PM--------------------------------------------------------------------------|
|-----------------|-------------------|-----------------|---------------------|
|-----------------|-------------------|-----------------|---------------------|
|-7-7-7-7-7-7-7-7-|--7--7-7-7-7-7-7-7-|-7-7-7-7-7-7-7-7-|--7--7-7-7-7-7-7-7---|
|-0-0-0-0-0-0-0-0-|--0--0-0-0-0-0-0-0-|-0-0-0-0-0-0-0-0-|--0--0-0-0-0-0-0-0---|
|-----------------|-------------------|-----------------|---------------------|
|-----------------|-------------------|-----------------|---------------------|


  Bb5               F5      G5         D5
|-----------------|------------------|-----------------|-------------------|
|-----------------|------------------|-----------------|-------------------|
|-----------------|------------------|-----------------|-------------------|
|-8---------------|-3-------/5-------|-0---------------|-(0)---------------|
|-8---------------|-3-------/5-------|-0---------------|-(0)---------------|
|-8---------------|-3-------/5-------|-0---------------|-(0)---------------|
|
| PM-------------------------------------------------------------------------|
|-----------------|------------------|-----------------|---------------------|
|-----------------|------------------|-----------------|---------------------|
|-7-7-7-7-7-7-7-7-|-7-7-7-7--7-7-7-7-|-7-7-7-7-7-7-7-7-|--7--7-7-7-7-7-7-7---|
|-0-0-0-0-0-0-0-0-|-0-0-0-0--0-0-0-0-|-0-0-0-0-0-0-0-0-|--0--0-0-0-0-0-0-0---|
|-----------------|------------------|-----------------|---------------------|
|-----------------|------------------|-----------------|---------------------|


  D5                                    Bb5               F5      G5
|-----------------|-------------------|-----------------|------------------|
|-----------------|-------------------|-----------------|------------------|
|-----------------|-------------------|-----------------|------------------|
|-0---------------|-(0)---------------|-8---------------|-3-------/5-------|
|-0---------------|-(0)---------------|-8---------------|-3-------/5-------|
|-0---------------|-(0)---------------|-8---------------|-3-------/5-------|
|
| PM----------------------------|       PM------|         PM-----------------|
|-----------------|-------------------|-----------------|--------------------|
|-----------------|-------------------|-----------------|--------------------|
|-7-7-7-7-7-7-7-7-|--7--7-7-7-7-7-7-7-|-7-7-7-7-7-7-7-7-|-7-7-7-7--7-7-7-7---|
|-0-0-0-0-0-0-0-0-|--0--0-0-0-0-0-0-0-|-0-0-0-0-0-0-0-0-|-0-0-0-0--0-0-0-0---|
|-----------------|-------------------|-----------------|--------------------|
|-----------------|-------------------|-----------------|--------------------|


   "I am just a man..."
    D5                      D5                      Bb5        F5   G5
    Gtrs I, II
||-----------|------------|----------|------------|----------|-------------||
||o----------|------------|----------|------------|----------|------------o||
||-----------|------------|----------|------------|----------|-------------||
||--0--------|-(0)--------|-0--------|-(0)--------|-8--------|-3----/5-----||
||o-0--------|-(0)--------|-0--------|-(0)--------|-8--------|-3----/5----o||
||--0--------|-(0)--------|-0--------|-(0)--------|-8--------|-3----/5-----||


  D5
  Gtr I
|-------------------------|--------------------------|
|-------------------------|--------------------------|
|-10-10-10-10-10-10-10-10-|-10--10-10-10-10-10-10-10-|
|--0--0--0--0--0--0--0--0-|--0---0--0--0--0--0--0--0-|
|-------------------------|--------------------------|
|-------------------------|--------------------------|
|
| Gtr II
|-------------------------|--------------------------|
|-------------------------|--------------------------|
|-------------------------|--------------------------|
|--0----------------------|-(0)----------------------|
|--0----------------------|-(0)----------------------|
|--0----------------------|-(0)----------------------|


  D5
|-------------------------|--------------------------|
|-------------------------|--------------------------|
|-10-10-10-10-10-10-10-10-|-10--10-10-10-10-10-10-10-|
|--0--0--0--0--0--0--0--0-|--0---0--0--0--0--0--0--0-|
|-------------------------|--------------------------|
|-------------------------|--------------------------|
|
|-------------------------|--------------------------|
|-------------------------|--------------------------|
|-------------------------|--------------------------|
|--0----------------------|-(0)----------------------|
|--0----------------------|-(0)----------------------|
|--0----------------------|-(0)----------------------|


  Bb5                       F5          G5
|-------------------------|-------------------------|
|-------------------------|-------------------------|
|-10-10-10-10-10-10-10-10-|-10-10-10-10-10-10-10-10-|
|--0--0--0--0--0--0--0--0-|--0--0--0--0--0--0--0--0-|
|-------------------------|-------------------------|
|-------------------------|-------------------------|
|
|-------------------------|-------------------------|
|-------------------------|-------------------------|
|-------------------------|-------------------------|
|--8----------------------|--3----------/5----------|
|--8----------------------|--3----------/5----------|
|--8----------------------|--3----------/5----------|


  D5
|-------------------------|--------------------------|
|-10-10-10-10-10-10-10-10-|-10--10-10-10-10-10-10-10-|
|-10-10-10-10-10-10-10-10-|-10--10-10-10-10-10-10-10-|
|--0--0--0--0--0--0--0--0-|--0---0--0--0--0--0--0--0-|
|-------------------------|--------------------------|
|-------------------------|--------------------------|
|
|-------------------------|--------------------------|
|-------------------------|--------------------------|
|-------------------------|--------------------------|
|--0----------------------|-(0)----------------------|
|--0----------------------|-(0)----------------------|
|--0----------------------|-(0)----------------------|


  D5
|-------------------------|--------------------------|
|-10-10-10-10-10-10-10-10-|-10--10-10-10-10-10-10-10-|
|-10-10-10-10-10-10-10-10-|-10--10-10-10-10-10-10-10-|
|--0--0--0--0--0--0--0--0-|--0---0--0--0--0--0--0--0-|
|-------------------------|--------------------------|
|-------------------------|--------------------------|
|
|-------------------------|--------------------------|
|-------------------------|--------------------------|
|-------------------------|--------------------------|
|--0----------------------|-(0)----------------------|
|--0----------------------|-(0)----------------------|
|--0----------------------|-(0)----------------------|


  Bb5                       F5          G5
|-------------------------|-------------------------|
|-10-10-10-10-10-10-10-10-|-10-10-10-10-10-10-10-10-|
|-10-10-10-10-10-10-10-10-|-10-10-10-10-10-10-10-10-|
|--0--0--0--0--0--0--0--0-|--0--0--0--0--0--0--0--0-|
|-------------------------|-------------------------|
|-------------------------|-------------------------|
|
|-------------------------|-------------------------|
|-------------------------|-------------------------|
|-------------------------|-------------------------|
|--8----------------------|--3----------/5----------|
|--8----------------------|--3----------/5----------|
|--8----------------------|--3----------/5----------|


  D5
  Gtrs I, II
  PM-------------------------------------------------------|
|----------------------------|-----------------------------|
|----------------------------|-----------------------------|
|----------------------------|-----------------------------|
|----------------------------|-----------------------------|
|-0-0-0-0--0--0--0-0-0-0--0--|-0-0-0-0--0--0-0-0-0-0-0-----|
|-0-0-0-0--0--0--0-0-0-0--0--|-0-0-0-0--0--0-0-0-0-0-0-----|


   EPIC BREAKDOWN
    D5
    PM----------------------------------------------|
||------------------------|-------------------------|
||o-----------------------|-------------------------|
||------------------------|-------------------------|
||------------------------|-------------------------|
||o-0-0-0-0-0-0-0-0-0-0-0-|-0-0-0-0-0-0-0-0-0-0-0---|
||--0-0-0-0-0-0-0-0-0-0-0-|-0-0-0-0-0-0-0-0-0-0-0---|


  D5
  PM---------------------------------------------|
|---------------------|--------------------------|
|---------------------|----------------------o---|
|---------------------|--------------------------|
|---------------------|--------------------------|
|-0-0-0-0-0-0-0-0-0-0-|-0-0-0-0-0-0-0-0-0-0--o---|
|-0-0-0-0-0-0-0-0-0-0-|-0-0-0-0-0-0-0-0-0-0------|


    D5
    PM----------------------|
||--------------------------|
||o-------------------------|
||--------------------------|
||--------------------------|
||o-0-0-0-0-0-0-0-0-0-0-0---|
||--0-0-0-0-0-0-0-0-0-0-0---|


                                 1.,2.,3.
  N.C.         D5    N.C.         D5      Bb5     A5F5
               PM--|              PM----------------|
                                                        4x
|-------------------------------|-----------------------||
|-------------------------------|----------------------o||
|--------------------10-(10)s14-|-----------------------||
|-7h8p0---10p0--------x--(x)--x-|-----------------------||
|-------8------0-0-0--8--(8)s12-|-0-0-0-0-8-8-8-8-7-3--o||
|--------------0-0-0------------|-0-0-0-0-8-8-8-8-7-3---||


  4.
  D5      Bb5       A5   F5
 3/4               4/4
  PM-----------------------------|
|-----------------|--------------|
|-----------------|--------------|
|-----------------|--------------|
|-----------------|-7----3-------|
|-0-0-0-0-8-8-8-8-|-7----3-------|
|-0-0-0-0-8-8-8-8-|-7----3-------|


   "Show me the way..."
    Q=200
    N.C.
    PM--|   PM       PM    PM  PM|
||-----------------------|-------------------|
||o----------------------|-------------------|
||-----------------------|-------------------|
||---------------------7-|---------8h10p8p0--|
||o-------8---8h10p8-----|---8---------------|
||--0-0-0---0--------0---|-0---0-0-----------|


  PM--|   PM       PM    PM|   PM
|----------------------|--------------------|
|----------------------|--------------------|
|----------------------|--------------------|
|--------------------8-|-----8---7h8p7------|
|-------8---8h10p8-----|---------------8----|
|-0-0-0---0--------0---|-8-8---8------------|


  N.C.
  PM--|   PM       PM    PM  PM|
|----------------------|-------------------|
|----------------------|-------------------|
|----------------------|-------------------|
|--------------------7-|---------8h10p8p0--|
|-------8---8h10p8-----|---8---------------|
|-0-0-0---0--------0---|-0---0-0-----------|


  PM--|   PM       PM      PM|      PM
|-----------------------|---------------------------||
|-----------------------|--------------------------o||
|-----------------------|---------------------------||
|-------8---8h10p8---10-|-------10----10h14p10------||
|-----------------------|----------------------10--o||
|-8-8-8---8--------8----|-10-10----10---------------||


 Interlude
  Q=165
  D5
 3/4
  Gtr I
|-----------|---------|
|-----------|---------|
|-----------|---------|
|---0-------|--(0)----|
|---0-------|--(0)----|
|---0-------|--(0)----|
|
| Gtr II
|   TP          TP
|-----------|---------|
|-(10)------|-(10)----|
|-(10)------|-(10)----|
|-(12)------|-(12)----|
|-----------|---------|
|-----------|---------|


    Dm                  Am
    Gtr II
||--5------|-5--------|-0------|-----------|
||o-6------|----6-----|-1------|-1---------|
||--7------|-------7--|-2------|-----------|
||--0------|----------|-2------|----2------|
||o--------|----------|-0------|-------3---|
||---------|----------|--------|-----------|


                     1.
  Fsus4/Bb            F/C
|-1------|----------|--------|-----------||
|-1------|-1--------|-1------|-------1--o||
|-3------|----------|-2------|----2------||
|-3------|----3-----|-3------|-3---------||
|-1------|-------3--|-3------|----------o||
|--------|----------|--------|-----------||


  2.
  F/C
  Gtr I
|----------------|-------------13--||
|----------------|-------13h15-----||
|-9h10-9h10-9h10-|-12h14-----------||
|----------------|-----------------||
|----------------|-----------------||
|----------------|-----------------||
|
| Gtr II
|----------------|-----------------||
|-1--------------|--------------1--||
|-2--------------|--------2--------||
|-3--------------|--3--------------||
|-3--------------|-----------------||
|----------------|-----------------||


 Epic Outro
  D5                                Bb5
|----------------|----------------|-----------------|-----------------|
|----------------|----------------|-----------------|-----------------|
|-9h10-----------|-9h10-----------|----10-----------|----10-----------|
|------12--10h12-|------12--10h12-|-12----12--10h12-|-12----12--10h12-|
|----------------|----------------|-----------------|-----------------|
|----------------|----------------|-----------------|-----------------|
|
|----------------|----------------|-----------------|-----------------|
|----------------|----------------|-----------------|-----------------|
|----------------|----------------|-----------------|-----------------|
|-0--------------|-0--------------|--8--------------|--8--------------|
|-0--------------|-0--------------|--8--------------|--8--------------|
|-0--------------|-0--------------|--8--------------|--8--------------|


  C5                                N.C.
|----------------|----------------|-------------------|-------------13---|
|----------------|----------------|-------------------|-------13h15------|
|--9h10p9--------|--9h10p9--------|--9h10--9h10--9h10-|-12h14------------|
|----------10h12-|----------10h12-|-------------------|------------------|
|----------------|----------------|-------------------|------------------|
|----------------|----------------|-------------------|------------------|
|
|----------------|----------------|-------------------|------------------|
|----------------|----------------|-------------------|------------------|
|----------------|----------------|-14----14-14-14-14-|-10-10--9--9--5-5-|
|-10-------------|-10-------------|--x-----x--x--x--x-|--x--x--x--x--x-x-|
|-10-------------|-10-------------|-12----12-12-12-12-|--8--8--7--7--3-3-|
|-10-------------|-10-------------|-------------------|------------------|


  D5                                Bb5
|----------------|----------------|-----------------|-----------------|
|----------------|----------------|-----------------|-----------------|
|-9h10-----------|-9h10-----------|----10-----------|----10-----------|
|------12--10h12-|------12--10h12-|-12----12--10h12-|-12----12--10h12-|
|----------------|----------------|-----------------|-----------------|
|----------------|----------------|-----------------|-----------------|
|
|----------------|----------------|-----------------|-----------------|
|----------------|----------------|-----------------|-----------------|
|----------------|----------------|-----------------|-----------------|
|-0--------------|-0--------------|--8--------------|--8--------------|
|-0--------------|-0--------------|--8--------------|--8--------------|
|-0--------------|-0--------------|--8--------------|--8--------------|


  C5                                N.C.
|----------------|----------------|-------------------|-------------13----|
|----------------|----------------|-------------------|-------13h15-------|
|--9h10p9--------|--9h10p9--------|--9h10--9h10--9h10-|-12h14-------------|
|----------10h12-|----------10h12-|-------------------|-------------------|
|----------------|----------------|-------------------|-------------------|
|----------------|----------------|-------------------|-------------------|
|
|----------------|----------------|-------------------|-------------------|
|----------------|----------------|-------------------|-------------------|
|----------------|----------------|-14----14-14-14-14-|-17----17-17-17-17-|
|-10-------------|-10-------------|--x-----x--x--x--x-|--x-----x--x--x--x-|
|-10-------------|-10-------------|-12----12-12-12-12-|-15----15-15-15-15-|
|-10-------------|-10-------------|-------------------|-------------------|


  D5                                Bb5
  Gtr I
|----------------|----------------|-----------------|-----------------|
|----------------|----------------|-----------------|-----------------|
|-9h10-----------|-9h10-----------|----10-----------|----10-----------|
|------12--10h12-|------12--10h12-|-12----12--10h12-|-12----12--10h12-|
|----------------|----------------|-----------------|-----------------|
|----------------|----------------|-----------------|-----------------|
|
| Gtr III
|----------------|----------------|-----------------|-----------------|
|-8h10-----------|-8h10-----------|----10-----------|----10-----------|
|------10---9h10-|------10---9h10-|-10----10---9h10-|-10----10---9h10-|
|----------------|----------------|-----------------|-----------------|
|----------------|----------------|-----------------|-----------------|
|----------------|----------------|-----------------|-----------------|
|
| Gtr II
|----------------|----------------|-----------------|-----------------|
|----------------|----------------|-----------------|-----------------|
|----------------|----------------|-----------------|-----------------|
|-0--------------|-0--------------|--8--------------|--8--------------|
|-0--------------|-0--------------|--8--------------|--8--------------|
|-0--------------|-0--------------|--8--------------|--8--------------|


  C5                                N.C.
|----------------|----------------|-------------------|-------------13---|
|----------------|----------------|-------------------|-------13h15------|
|--9h10p9--------|--9h10p9--------|--9h10--9h10--9h10-|-12h14------------|
|----------10h12-|----------10h12-|-------------------|------------------|
|----------------|----------------|-------------------|------------------|
|----------------|----------------|-------------------|------------------|
|
|----------------|----------------|-------------------|-------------13---|
|--8h10p8--------|--8h10p8--------|-------------------|-------13h15------|
|-----------9h10-|-----------9h10-|--9h10--9h10--9h10-|-12h14------------|
|----------------|----------------|-------------------|------------------|
|----------------|----------------|-------------------|------------------|
|----------------|----------------|-------------------|------------------|
|
|----------------|----------------|-------------------|------------------|
|----------------|----------------|-------------------|------------------|
|----------------|----------------|-14----14-14-14-14-|-10-10--9--9--5-5-|
|-10-------------|-10-------------|--x-----x--x--x--x-|--x--x--x--x--x-x-|
|-10-------------|-10-------------|-12----12-12-12-12-|--8--8--7--7--3-3-|
|-10-------------|-10-------------|-------------------|------------------|


  D5                                Bb5
|----------------|----------------|-----------------|-----------------|
|----------------|----------------|-----------------|-----------------|
|-9h10-----------|-9h10-----------|----10-----------|----10-----------|
|------12--10h12-|------12--10h12-|-12----12--10h12-|-12----12--10h12-|
|----------------|----------------|-----------------|-----------------|
|----------------|----------------|-----------------|-----------------|
|
|----------------|----------------|-----------------|-----------------|
|-8h10-----------|-8h10-----------|----10-----------|----10-----------|
|------10---9h10-|------10---9h10-|-10----10---9h10-|-10----10---9h10-|
|----------------|----------------|-----------------|-----------------|
|----------------|----------------|-----------------|-----------------|
|----------------|----------------|-----------------|-----------------|
|
|----------------|----------------|-----------------|-----------------|
|----------------|----------------|-----------------|-----------------|
|----------------|----------------|-----------------|-----------------|
|-0--------------|-0--------------|--8--------------|--8--------------|
|-0--------------|-0--------------|--8--------------|--8--------------|
|-0--------------|-0--------------|--8--------------|--8--------------|


  C5                                N.C.
|----------------|----------------|-------------------|-------------13----|
|----------------|----------------|-------------------|-------13h15-------|
|--9h10p9--------|--9h10p9--------|--9h10--9h10--9h10-|-12h14-------------|
|----------10h12-|----------10h12-|-------------------|-------------------|
|----------------|----------------|-------------------|-------------------|
|----------------|----------------|-------------------|-------------------|
|
|----------------|----------------|-------------------|-------------13----|
|--8h10p8--------|--8h10p8--------|-------------------|-------13h15-------|
|-----------9h10-|-----------9h10-|--9h10--9h10--9h10-|-12h14-------------|
|----------------|----------------|-------------------|-------------------|
|----------------|----------------|-------------------|-------------------|
|----------------|----------------|-------------------|-------------------|
|
|----------------|----------------|-------------------|-------------------|
|----------------|----------------|-------------------|-------------------|
|----------------|----------------|-14----14-14-14-14-|-17----17-17-17-17-|
|-10-------------|-10-------------|--x-----x--x--x--x-|--x-----x--x--x--x-|
|-10-------------|-10-------------|-12----12-12-12-12-|-15----15-15-15-15-|
|-10-------------|-10-------------|-------------------|-------------------|


    D5                                Bb5
||-----------------|----------------|-----------------|------------------|
||o----------------|----------------|-----------------|------------------|
||--9h10-----------|-9h10-----------|----10-----------|----10------------|
||-------12--10h12-|------12--10h12-|-12----12--10h12-|-12----12--10h12--|
||o----------------|----------------|-----------------|------------------|
||-----------------|----------------|-----------------|------------------|
|
||-----------------|----------------|-----------------|------------------|
||o-8h10-----------|-8h10-----------|----10-----------|----10------------|
||-------10---9h10-|------10---9h10-|-10----10---9h10-|-10----10---9h10--|
||-----------------|----------------|-----------------|------------------|
||o----------------|----------------|-----------------|------------------|
||-----------------|----------------|-----------------|------------------|
|
||-----------------|----------------|-----------------|------------------|
||o----------------|----------------|-----------------|------------------|
||-----------------|----------------|-----------------|------------------|
||--0-----0---0----|-0-----0---0----|--8-----8---8----|--8-----8---8-----|
||o-0-----0---0----|-0-----0---0----|--8-----8---8----|--8-----8---8-----|
||--0-----0---0----|-0-----0---0----|--8-----8---8----|--8-----8---8-----|


  C5                                  N.C.
|-----------------|-----------------|-------------------|-------------13---|
|-----------------|-----------------|-------------------|-------13h15------|
|--9h10p=9--------|--9h10p=9--------|--9h10--9h10--9h10-|-12h14------------|
|-----------10h12-|-----------10h12-|-------------------|------------------|
|-----------------|-----------------|-------------------|------------------|
|-----------------|-----------------|-------------------|------------------|
|
|-----------------|-----------------|-------------------|-------------13---|
|--8h10p=8--------|--8h10p=8--------|-------------------|-------13h15------|
|------------9h10-|------------9h10-|--9h10--9h10--9h10-|-12h14------------|
|-----------------|-----------------|-------------------|------------------|
|-----------------|-----------------|-------------------|------------------|
|-----------------|-----------------|-------------------|------------------|
|
|-----------------|-----------------|-------------------|------------------|
|-----------------|-----------------|-------------------|------------------|
|-----------------|-----------------|-14----14-14-14-14-|-10-10--9--9--5-5-|
|-10----10--10----|-10----10--10----|--x-----x--x--x--x-|--x--x--x--x--x-x-|
|-10----10--10----|-10----10--10----|-12----12-12-12-12-|--8--8--7--7--3-3-|
|-10----10--10----|-10----10--10----|-------------------|------------------|


  D5                                Bb5
|----------------|----------------|-----------------|-----------------|
|----------------|----------------|-----------------|-----------------|
|-9h10-----------|-9h10-----------|----10-----------|----10-----------|
|------12--10h12-|------12--10h12-|-12----12--10h12-|-12----12--10h12-|
|----------------|----------------|-----------------|-----------------|
|----------------|----------------|-----------------|-----------------|
|
|----------------|----------------|-----------------|-----------------|
|-8h10-----------|-8h10-----------|----10-----------|----10-----------|
|------10---9h10-|------10---9h10-|-10----10---9h10-|-10----10---9h10-|
|----------------|----------------|-----------------|-----------------|
|----------------|----------------|-----------------|-----------------|
|----------------|----------------|-----------------|-----------------|
|
|----------------|----------------|-----------------|-----------------|
|----------------|----------------|-----------------|-----------------|
|----------------|----------------|-----------------|-----------------|
|-0-----0---0----|-0-----0---0----|--8-----8---8----|--8-----8---8----|
|-0-----0---0----|-0-----0---0----|--8-----8---8----|--8-----8---8----|
|-0-----0---0----|-0-----0---0----|--8-----8---8----|--8-----8---8----|


  C5                                  N.C.
|-----------------|-----------------|-------------------|-------------13-----||
|-----------------|-----------------|-------------------|-------13h15-------o||
|--9h10p=9--------|--9h10p=9--------|--9h10--9h10--9h10-|-12h14--------------||
|-----------10h12-|-----------10h12-|-------------------|--------------------||
|-----------------|-----------------|-------------------|-------------------o||
|-----------------|-----------------|-------------------|--------------------||
|
|-----------------|-----------------|-------------------|-------------13-----||
|--8h10p=8--------|--8h10p=8--------|-------------------|-------13h15-------o||
|------------9h10-|------------9h10-|--9h10--9h10--9h10-|-12h14--------------||
|-----------------|-----------------|-------------------|--------------------||
|-----------------|-----------------|-------------------|-------------------o||
|-----------------|-----------------|-------------------|--------------------||
|
|-----------------|-----------------|-------------------|--------------------||
|-----------------|-----------------|-------------------|-------------------o||
|-----------------|-----------------|-14----14-14-14-14-|-17----17-17-17-17--||
|-10----10--10----|-10----10--10----|--x-----x--x--x--x-|--x-----x--x--x--x--||
|-10----10--10----|-10----10--10----|-12----12-12-12-12-|-15----15-15-15-15-o||
|-10----10--10----|-10----10--10----|-------------------|--------------------||


  D5                                    Bb5
  Gtrs I, III
|-----------------|-------------------|-----------------|-------------------|
|--8h10-----------|---8h=10-----------|----10-----------|------10-----------|
|--9h10-10---9h10-|---9h=10-10---9h10-|-10-10-10---9h10-|--10--10-10---9h10-|
|-------12--10h12-|---------12--10h12-|-12----12--10h12-|--12-----12--10h12-|
|-----------------|-------------------|-----------------|-------------------|
|-----------------|-------------------|-----------------|-------------------|
|
| Gtr IV
|  TP                 TP                 TP                 TP
|-13--------------|-(13)--------------|-----------------|-------------------|
|-----------------|-------------------|-15--------------|-(15)--------------|
|-----------------|-------------------|-----------------|-------------------|
|-----------------|-------------------|-----------------|-------------------|
|-----------------|-------------------|-----------------|-------------------|
|-----------------|-------------------|-----------------|-------------------|
|
|-----------------|-------------------|-----------------|-------------------|
|-----------------|-------------------|-----------------|-------------------|
|-----------------|-------------------|-----------------|-------------------|
|--0-----0---0----|---0------0---0----|--8-----8---8----|---8------8---8----|
|--0-----0---0----|---0------0---0----|--8-----8---8----|---8------8---8----|
|--0-----0---0----|---0------0---0----|--8-----8---8----|---8------8---8----|


  C5                                    N.C.
|-----------------|-------------------|-------------------|-------------13---|
|--8h10p=8--------|---8h=10p=8--------|-------------------|-------13h15------|
|--9h10p=9---9h10-|---9h=10p=9---9h10-|--9h10--9h10--9h10-|-12h14------------|
|-----------10h12-|-------------10h12-|-------------------|------------------|
|-----------------|-------------------|-------------------|------------------|
|-----------------|-------------------|-------------------|------------------|
|
|  TP                 TP                 TP                  TP
|-12--------------|-(12)--------------|-13----------------|-17---------------|
|-----------------|-------------------|-------------------|------------------|
|-----------------|-------------------|-------------------|------------------|
|-----------------|-------------------|-------------------|------------------|
|-----------------|-------------------|-------------------|------------------|
|-----------------|-------------------|-------------------|------------------|
|
|-----------------|-------------------|-------------------|------------------|
|-----------------|-------------------|-------------------|------------------|
|-----------------|-------------------|-14----14-14-14-14-|-10-10--9--9--5-5-|
|-10----10--10----|--10-----10--10----|--x-----x--x--x--x-|--x--x--x--x--x-x-|
|-10----10--10----|--10-----10--10----|-12----12-12-12-12-|--8--8--7--7--3-3-|
|-10----10--10----|--10-----10--10----|-------------------|------------------|


  D5                                    Bb5
|-----------------|-------------------|-----------------|-------------------|
|--8h10-----------|---8h=10-----------|----10-----------|------10-----------|
|--9h10-10---9h10-|---9h=10-10---9h10-|-10-10-10---9h10-|--10--10-10---9h10-|
|-------12--10h12-|---------12--10h12-|-12----12--10h12-|--12-----12--10h12-|
|-----------------|-------------------|-----------------|-------------------|
|-----------------|-------------------|-----------------|-------------------|
|
|  TP                 TP                 TP                 TP
|-13--------------|-(13)--------------|-----------------|-------------------|
|-----------------|-------------------|-15--------------|-(15)--------------|
|-----------------|-------------------|-----------------|-------------------|
|-----------------|-------------------|-----------------|-------------------|
|-----------------|-------------------|-----------------|-------------------|
|-----------------|-------------------|-----------------|-------------------|
|
|-----------------|-------------------|-----------------|-------------------|
|-----------------|-------------------|-----------------|-------------------|
|-----------------|-------------------|-----------------|-------------------|
|--0-----0---0----|---0------0---0----|--8-----8---8----|---8------8---8----|
|--0-----0---0----|---0------0---0----|--8-----8---8----|---8------8---8----|
|--0-----0---0----|---0------0---0----|--8-----8---8----|---8------8---8----|


  C5                                    N.C.
|-----------------|-------------------|-------------------|-------------13----|
|--8h10p=8--------|---8h=10p=8--------|-------------------|-------13h15-------|
|--9h10p=9---9h10-|---9h=10p=9---9h10-|--9h10--9h10--9h10-|-12h14-------------|
|-----------10h12-|-------------10h12-|-------------------|-------------------|
|-----------------|-------------------|-------------------|-------------------|
|-----------------|-------------------|-------------------|-------------------|
|
|  TP                 TP                 TP                  TP
|-12--------------|-(12)--------------|-13----------------|-17----------------|
|-----------------|-------------------|-------------------|-------------------|
|-----------------|-------------------|-------------------|-------------------|
|-----------------|-------------------|-------------------|-------------------|
|-----------------|-------------------|-------------------|-------------------|
|-----------------|-------------------|-------------------|-------------------|
|
|-----------------|-------------------|-------------------|-------------------|
|-----------------|-------------------|-------------------|-------------------|
|-----------------|-------------------|-14----14-14-14-14-|-17----17-17-17-17-|
|-10----10--10----|--10-----10--10----|--x-----x--x--x--x-|--x-----x--x--x--x-|
|-10----10--10----|--10-----10--10----|-12----12-12-12-12-|-15----15-15-15-15-|
|-10----10--10----|--10-----10--10----|-------------------|-------------------|


    N.C.
    Gtr I
||----------|-----------------|---------|-------------------|
||o---------|-----------------|---------|-------------------|
||--14------|-(14)----14-(14)s|=10------|-(10)----10-(10)s==|
||----------|-----------------|---------|-------------------|
||o---------|-----------------|---------|-------------------|
||----------|-----------------|---------|-------------------|
|
|   Gtr II
||----------|-----------------|---------|-------------------|
||o---------|-----------------|---------|-------------------|
||--10------|-(10)----10-(10)s|==7------|--(7)-----7--(7)s==|
||----------|-----------------|---------|-------------------|
||o---------|-----------------|---------|-------------------|
||----------|-----------------|---------|-------------------|


  N.C.
|---------|-------------|----------|----------||
|---------|-------------|----------|---------o||
|-12------|-(12)----12--|-/14------|-(14)-----||
|---------|-------------|----------|----------||
|---------|-------------|----------|---------o||
|---------|-------------|----------|----------||
|
|---------|-------------|----------|----------||
|---------|-------------|----------|---------o||
|--9------|--(9)-----9--|-/10------|-(10)-----||
|---------|-------------|----------|----------||
|---------|-------------|----------|---------o||
|---------|-------------|----------|----------||


  N.C.
|---------|-----------|-----------|---------*|
|---------|-----------|-----------|---------*|
|-10------|-(10)------|-(10)------|-(10)----*|
|---------|-----------|-----------|---------*|
|---------|-----------|-----------|---------*|
|---------|-----------|-----------|---------*|
|
|---------|-----------|-----------|---------*|
|---------|-----------|-----------|---------*|
|--7------|--(7)------|--(7)------|--(7)----*|
|---------|-----------|-----------|---------*|
|---------|-----------|-----------|---------*|
|---------|-----------|-----------|---------*|


August Burns Red
Carol of the Bells

Drop C

this is the best Christmas song ive ever heard!
it took me about an hour to learn this song after they released it. so its not hard at
just listen to the song to get the timings, patterns, and harmonized parts. i think its
in order. let me know if ive messed up somewhere.

. palm mute
/ slide up
\ slide down
* tremolo picking
~ hold note
x dead string


Guitar 1
|----------------------------------------|
|----------------------------------------|
|----------------------------------------|
|----------------------------------------|
|-8--7-8-5--8--7-8-5--8--7-8-5--8--7-8-5-|
|----------------------------------------|

Guitar 2
|----------------------------------------|
|----------------------------------------|
|----------------------------------------|
|-12~--------10~--------8~--------7~-----|
|-12~--------10~--------8~--------7~-----|
|-12~--------10~--------8~--------7~-----|

Guitar 3
|----------------------------------------|
|----------------------------------------|
|----------------------------------------|
|-7--5-7-3--7--5-7-3--7--5-7-3--7--5-7-3-|
|----------------------------------------|
|----------------------------------------|

Guitar 1
|----------------------------------------------|
|----------------------------------------------|
|-10-10-9-10-7-7-10-10-9-10-7-7-10-10-9-10-7-7-|
|----------------------------------------------|
|----------------------------------------------|
|----------------------------------------------|
   .  . .  . . .  .  . .  . . .  .  . .  . . .

Guitar 2
|------------------------------------------|
|------------------------------------------|
|------------------------------------------|
|-12--------10--------8--------7-----------|
|-12-(12x)--10-(12x)--8-(12x)--7-(12x)-----|
|-12--------10--------8--------7-----------|
   .         .        .        .

Guitar 3
|----------------------------------------------|
|-10-10-8-10-6-6-10-10-8-10-6-6-10-10-8-10-6-6-|
|----------------------------------------------|
|----------------------------------------------|
|----------------------------------------------|
|----------------------------------------------|
   .  . .  . . .  .  . .  . . .  .  . .  . . .

Guitars 1 and 3 gradually stop palm muting

Guitar 1
|--------------------------------------------------------|
|--------------------------------------------------------|
|-7-777-7------------------------------------------------|
|---------10\8-7-777-7-------------------7/8-------------|
|----------------------10\8/10-101010-10-----5-555-5-5---|
|--------------------------------------------------------|
    ... .        ... .          . . .  .       ... .

Guitar 2
|--------------------------------|
|--------------------------------|
|--------------------------------|
|-12------7------5~------0~------|
|-12------7------5~------0~------|
|-12------7------5~------0~------|

Guitar 1
|---------------------------------------------------|
|---------------------------------------------------|
|---------------------------------------------------|
|---------------------------------------------------|
|-0*--4*--5*--7*-8*-7*-5*--0*--4*--5*--7*-8*-7*-5*--|
|---------------------------------------------------|

Guitar 2
|----------------------------------------------------|
|----------------------------------------------------|
|-----6*--7*--9*-10*-9*--7*-----6*--7*--9*-10*-9*-7*-|
|-7*------------------------7*-----------------------|
|----------------------------------------------------|
|----------------------------------------------------|
Guitar 1
|----------------------------------------|
|----------------------------------------|
|----------------------------------------|
|----------------------------------------|
|-8--7-8-5--8--7-8-5--8--7-8-5--8--7-8-5-|
|----------------------------------------|

Guitar 2
|----------------------------|
|----------------------------|
|----------------------------|
|-12~----10~----8~----7~-----|
|-12~----10~----8~----7~-----|
|-12~----10~----8~----7~-----|

Guitar 3
|----------------------------------------|
|----------------------------------------|
|----------------------------------------|
|-7--5-7-3--7--5-7-3--7--5-7-3--7--5-7-3-|
|----------------------------------------|
|----------------------------------------|

Guitar 1
|-------------------------------------------------|
|-------------------------------------------------|
|-10--9-10-7--10--9-10-7--10--9-10-7--10--7-10-9--|
|-------------------------------------------------|
|-------------------------------------------------|
|-------------------------------------------------|

Guitar 2
|-------------------------------------------------|
|-10--8-10-6--10--8-10-6--10--8-10-6--10--8-10-6--|
|-------------------------------------------------|
|-------------------------------------------------|
|-------------------------------------------------|
|-------------------------------------------------|

Guitar 3
|-------------------------------------------------|
|-------------------------------------------------|
|-14~---------12~---------10~----------9~---------|
|--x~----------x~----------x~----------x~---------|
|-12~---------10~----------8~----------7~---------|
|-------------------------------------------------|

Guitar 1
|--------------------------------------------------------------------------|
|-15-151515-15-------------------------------------------------------------|
|--------------17\15-14-141414-14--------------------14/15-----------------|
|---------------------------------17\15/17-171717-17-------12-121212-12-12-|
|--------------------------------------------------------------------------|
|--------------------------------------------------------------------------|
      . . .  .           . . .  .           . . .  .           . . .  .

Guitar 2
|--------------------------------------------------------|
|--------------------------------------------------------|
|-7-777-7------------------------------------------------|
|---------10\8-7-777-7-------------------7/8-------------|
|----------------------10\8/10-101010-10-----5-555-5-5---|
|--------------------------------------------------------|
    ... .        ... .          . . .  .       ... .

Guitar 1
|--------------------------------------------------|
|--------------------------------------------------|
|--------------------------------------------------|
|--------------------------------------------------|
|-0*--4*--5*--7*-8*-7*--5*--7*--8*--7*-8*-7*--/17--|
|--------------------------------------------------|

Guitar 2
|----------------------------------------------------|
|----------------------------------------------------|
|-----6*--7*---9*-10*-9*-----6*--7*---9*-10*-9*--/19-|
|-7*---------------------7*--------------------------|
|----------------------------------------------------|
|----------------------------------------------------|

break it down now...
Guitar 3
|---------------------------------------------------|
|---------------------------------------------------|
|---------------------------------------------------|
|-0-000-00000-00000-000-00000-00000-000-00000-00000-|
|-0-000-00000-00000-000-00000-00000-000-00000-00000-|
|-0-000-00000-00000-000-00000-00000-000-00000-00000-|

do a long pick slide

Guitar 1
|--------------------------------------------------------|
|--------------------------------------------------------|
|--------------------------------------------------------|
|--------------------------------------------------------|
|-8*--7*-8*-5*--8*--7*-8*-5*--8*--7*-8*-5*--8*--7*-8*-5*-|
|--------------------------------------------------------|
  .   .  .  .   .   .  .  .   .   .  .  .   .   .  .  .
Guitar 2
|--------------------------------------------------------|
|--------------------------------------------------------|
|--------------------------------------------------------|
|-7*--5*-7*-3*--7*--5*-7*-3*--7*--5*-7*-3*--7*--5*-7*-3*-|
|--------------------------------------------------------|
|--------------------------------------------------------|
  .   .  .  .   .   .  .  .   .   .  .  .   .   .  .  .

Guitar 1
|--------------------------------------------------------------------------|
|-15-151515-15-------------------------------------------------------------|
|--------------17\15-14-141414-14--------------------14/15-----------------|
|---------------------------------17\15/17-171717-17-------12-121212-12-12-|
|--------------------------------------------------------------------------|
|--------------------------------------------------------------------------|
      . . .  .           . . .  .           . . .  .           . . .  .

Guitars 1
|---------------------------------------------------|
|---------------------------------------------------|
|---------------------------------------------------|
|---------------------------------------------------|
|-0*--4*--5*--7*-8*-7*-5*--0*--4*--5*--7*-8*-7*-5*--|
|---------------------------------------------------|

Guitar 2
|----------------------------------------------------|
|----------------------------------------------------|
|-----6*--7*--9*-10*-9*--7*-----6*--7*--9*-10*-9*-7*-|
|-7*------------------------7*-----------------------|
|----------------------------------------------------|
|----------------------------------------------------|

Guitar 1
|-------------------------------------------------|
|-------------------------------------------------|
|-10*--9*-10*-7*--10*--9*-10*-7*--10*--9*-10*-7*--|
|-------------------------------------------------|
|-------------------------------------------------|
|-------------------------------------------------|
   .   .   .  .    .   .   .  .    .   .   .  .

Guitar 2
|-------------------------------------------------|
|-10*--8*-10*-6*--10*--8*-10*-6*--10*--8*-10*-6*--|
|-------------------------------------------------|
|-------------------------------------------------|
|-------------------------------------------------|
|-------------------------------------------------|
   .   .   .  .    .   .   .  .    .   .   .  .

Guitar 1
|--------------------------------------------------------------------------|
|-15-151515-15-------------------------------------------------------------|
|--------------17\15-14-141414-14--------------------14/15-----------------|
|---------------------------------17\15/17-171717-17-------12-121212-12-12-|
|--------------------------------------------------------------------------|
|--------------------------------------------------------------------------|
      . . .  .           . . .  .           . . .  .           . . .  .

Guitar 1
|----------------------------|
|----------------------------|
|----------------------------|
|-----------------------0-0--|
|-0*--4*--5*--7*-8*-7*--0-0--|
|-----------------------0-0--|
                        . .
Guitar 2
|----------------------------|
|----------------------------|
|-----6*--7*--9*-10*-9*------|
|-7*--------------------0-0--|
|-----------------------0-0--|
|-----------------------0-0--|
                        . .
Guitar 1
|----------------------------|
|----------------------------|
|----------------------------|
|-----------------------0-0--|
|-0*--4*--5*--7*-8*-7*--0-0--|
|-----------------------0-0--|
                        . .

Guitar 1
|----------------------------|
|----------------------------|
|----------------------------|
|----------------------------|
|-5*--7*--8*--7*-8*-7*--/17--|
|----------------------------|

Guitar 2
|------------------------------|
|------------------------------|
|--7*--9*--10*--9*-10*-9*-/19--|
|------------------------------|
|------------------------------|
|------------------------------|


Guitar 1
|----------------------------------------|
|----------------------------------------|
|----------------------------------------|
|----------------------------------------|
|-8--7-8-5--8--7-8-5--8--7-8-5--8--7-8-5-|
|----------------------------------------|

Guitar 2
|----------------------------|
|----------------------------|
|----------------------------|
|-12~----10~----8~----7~-----|
|-12~----10~----8~----7~-----|
|-12~----10~----8~----7~-----|

Guitar 3
|----------------------------------------|
|----------------------------------------|
|----------------------------------------|
|-7--5-7-3--7--5-7-3--7--5-7-3--7--5-7-3-|
|----------------------------------------|
|----------------------------------------|


Guitar 1
|-------------------------------------------------|
|-------------------------------------------------|
|-10--9-10-7--10--9-10-7--10--9-10-7--10--7-10-9--|
|-------------------------------------------------|
|-------------------------------------------------|
|-------------------------------------------------|

Guitar 3
|-------------------------------------------------|
|-10--8-10-6--10--8-10-6--10--8-10-6--10--8-10-6--|
|-------------------------------------------------|
|-------------------------------------------------|
|-------------------------------------------------|
|-------------------------------------------------|

start playing slower towards the end

|-----|
|-----|
|-----|
|-0~--|
|-0~--|
|-0~--|

thats it.
comments
print report bad tab
6 comments total. Showing first comments.
0 reply
gtribz wrote on March 25 2008, 12:00 pm

thats awsome how you used mine for "The Balance" thanks!

0 reply
!normajean! wrote on March 25 2008, 06:48 pm

nicccccccce
5 stars

+1 reply
!normajean! wrote on March 25 2008, 06:51 pm

btw, you should put Carol of the Bells in it too. they recorded it at the same time they recorded Messengers.
(i have a really good tab for it)

I want to post or [tab]
guest
You may want to rate the tab now too:
select rating
Please do not post tabs as comments. Select "correction" instead!