Oops, an error
Loading. Please wait.

Mosley Tab

ver2
ver2

Solo

Whole song

Interactive

More versions @911Tabs.com
2,182 views 6 this week
no commentswrite comment
1 2 3 4 5
excellent!
x 3
Autoscroll
+/-
esc
set tempo
stop
Contributor
Difficulty
Tuning
intermediate
C G C F A D
Hey! There's an official Ultimate Guitar app which is ideal
for learning songs when you're away from computer. Get the app
WARNING: You are trying to view
                                    content from Ultimate-Guitar.com
                                    in an unauthorized application,
                                    which is prohibited.

                                    Please use an official Ultimate
                                    Guitar Tabs application for iPhone,
                                    iPad or Android to access legitimate
                                    chords, guitar, bass, and drum tabs
                                    from Ultimate-Guitar.com database.

                                    Type "ultimate guitar tabs" in Apple
                                    App Store's or Android Market's
                                    search to find the application.
[Mosley]
[Lost Messengers: The Outtakes]
[August Burns Red]

Watch the times, some things overlap.
See how many times each riff is played (No indication means 1)
Watch if each part has one guitar or two matching.
Symbols at bottum.

[Riff 1] - [00:00] - [00:02]
- -----------------|
- -----------------|
- -----------------|
- -0~--------------|
- -0~------00-0-0--|
- -0~------00-0-0--|
PM         ......

----------------------------------------------------------------------------

[Riff 2] - [00:02] - [00:21]----------------------------------------| 2x
- ------------------------------------------------------------------|
- -----------------------------------------------------3------------|
- -------------------------------------5---------5---------5--------|
- ---------------5-----7-------------------3-------------------3----|
- -----5---3---------------8---7p0----------------------------------|
- -0-0---0---0-0---0-0---0---0-----3-3---3---3-3---3-3---3---3------|
PM ...   .   ...   ...   .   .     ...   .   ...   ...   .   .

- -----------------------------------------------------------------|
- -----------------------------------------------------5-6-8-6-5---|
- -------------------------7-------------------------5-----------5-|
- ---------8-----5-------------7-------2---3-------7---------------|
- -------------------------------------3---5-----------------------|
- -555-5-5---5-5---5-5-555---5---5-000---0---0-000-----------------|
PM .......   ...   .......   .   .....   .   .....

----------------------------------------------------------------------------

[Riff 3, Guitar 1 & 2] - [00:21] - [00:40]
- -----------------------------------------------------------------|
- -----------------------------------------------------------------|
- -----0---2p0---0---2---3---3p2-------2---3p2---2---3---5---5p3---|
- -----------------------------------------------------------------|
- -----------------------------------------------------------------|
- -1-1---1-----1---1---1---1-------3-3---3-----3---3---3---3-------|
PM ...   .     .   .   .   .       ...   .     .   .   .   .
-
- -----------------------------------------------------------------|
- -----------------------------------------------------------------|
- -----0---2p0---0---2---3---3p2-------2---3p2---2---3---5---5p3---|
- -----------------------------------------------------------------|
- -----------------------------------------------------------------|
- -1-1---1-----1---1---1---1-------3-3---3-----3---3---3---3-------|
PM ...   .     .   .   .   .       ...   .     .   .   .   .


- -----------------------------------------------------------------|
- -----------------------------------------------------------------|
- -7---7---7-7-7-5---5-5---5-5-5---7---7---7-7-7-10--1010--101010--|
- -x---x---x-x-x-x---x-x---x-x-x---x---x---x-x-x-x---x-x---x-x-x---|
- -5---5---5-5-5-3---3-3---3-3-3---5---5---5-5-5-8---8-8---8-8-8---|
- -----------------------------------------------------------------|
-
- ---------(Third Guitar --> )-----------13-------13---------------|
- ---------------------------------10h11----10h11----10h11---------|
- -----------------------------------------------------------------|
- -5---5---5-5-5-3---3-3---3-3-3---3---3---3-3-3-3---3-3---3-3-3---|
- -5---5---5-5-5-3---3-3---3-3-3---1---1---1-1-1-1---1-1---1-1-1---|
- -5---5---5-5-5-3---3-3---3-3-3-----------------------------------|


- -----------------------------------------------------------------|
- -----------------------------------------------------------------|
- -----0---2p0---0---2---3---3p2-------2---3p2---2---3---5---5p3---|
- -----------------------------------------------------------------|
- -----------------------------------------------------------------|
- -1-1---1-----1---1---1---1-------3-3---3-----3---3---3---3-------|
PM ...   .     .   .   .   .       ...   .     .   .   .   .
-
- -----------------------------------------------------------------|
- -----------------------------------------------------------------|
- -----------------------------------------------------------------|
- -----1---3p1---1---3---5---3p1-------3---5p7---3---5---7---5p3---|
- -----------------------------------------------------------------|
- -1-1---1-----1---1---1---1-------3-3---3-----3---3---3---3-------|
PM ...   .     .   .   .   .       ...   .     .   .   .   .


- -----------------------------------------------------------------|
- -----------------------------------------------------------------|
- -7---7---7-7-7-5---5-5---5-5-5---7---7---7-7-7-10--1010--101010--|
- -x---x---x-x-x-x---x-x---x-x-x---x---x---x-x-x-x---x-x---x-x-x---|
- -5---5---5-5-5-3---3-3---3-3-3---5---5---5-5-5-8---8-8---8-8-8---|
- -----------------------------------------------------------------|
-
- -----------------------------------------------------------------|
- -----------------------------------------------------------------|
- -----------------------------------------------------------------|
- -5---5---5-5-5-3---3-3---3-3-3---3---3---3-3-3-3---3-3---3-3-3---|
- -5---5---5-5-5-3---3-3---3-3-3---1---1---1-1-1-1---1-1---1-1-1---|
- -5---5---5-5-5-3---3-3---3-3-3-----------------------------------|

----------------------------------------------------------------------------

[Riff 4a] - [00:40] - [01:00]----------------------------------------------| 4x
- -------------------------------------------------------------------------|
- -----------------------------8----------------------10-------------------|
- -------------------10-9-10-----10-9--------------------10-9-7-7h9p7-6----|
- ---------7p0-----7------------------------2---3-----------------------8--|
- ------------------------------------------3---5--------------------------|
- -0-0-0-0-----0-0-----------0--------0-0-0---0-----7----------------------|
PM .......     ...           .        .....   .     .

[Riff 4b] - [00:40] - [01:00]---------------------------------------| 4x
- ------------------------------------------------------------------|
- ------------------------------------------------------------------|
- ------------------------------------------------------------------|
- ------------------------------------------------------------------|
- -0-0-0-0---0-0-0-----------------0-0-0---0-----0---0-0-------0-0--|
- -0-0-0-0---0-0-0-----------------0-0-0---0-----0---0-0-------0-0--|
PM ...............................................................

[Riff 4c] - [00:50] - [01:00]
- -----------------------------------------|
- -----------------------------------------|
- -----------------------------------------|
- -7---------6---------3---------2---------|
- -x---------x---------x---------x---------|
- -5(12x)----4(12x)----1(12x)----0(12x)----|
- -----------------------------------------|

----------------------------------------------------------------------------

[Riff 5] - [01:00] - [01:02]
- ---------------------------------|
- ---------------------------------|
- -----------------2---------------|
- -------------------3-2-----------|
- -----------------------4---------|
- ---------------------------------|

----------------------------------------------------------------------------

[Riff 6] - [01:02] - [01:27]----------------------------------------| 4x
- ------------------------------------------------------------------|
- ------------------------------------------------------------------|
- ------------------------------------------------------------------|
- ------------------------------------------------------------------|
- -0000-0-00-0000000000-00-000000--000000--0000000000----0000--00---|
- -0000-0-00-0000000000-00-000000--000000--0000000000----0000--00---|
PM ..............................................................

[Riff 7] - [01:14] - [01:27]
- -------13-------13-------------13-------13-------|
- -10h11----10h11----10h11-10h11----10h11----10h11-|
- -------------------------------------------------|
- -------------------------------------------------|
- -------------------------------------------------|
- -------------------------------------------------|

- -------17-------17-------------17-------17-------|
- -17h18----17h18----17h18-17h18----17h18----17h18-|
- -------------------------------------------------|
- -------------------------------------------------|
- -------------------------------------------------|
- -------------------------------------------------|

- -------13-------13-------------13-------13-------|
- -11h15----11h15----11h15-11h15----11h15----11h15-|
- -------------------------------------------------|
- -------------------------------------------------|
- -------------------------------------------------|
- -------------------------------------------------|

- -------------------------------------------------|
- -------15----------------------15----------------|
- ----14-------14h17----14----14-------14h17----14-|
- -15-------15-------15----15-------15-------15----|
- -------------------------------------------------|
- -------------------------------------------------|

----------------------------------------------------------------------------

[Riff 8, Guitar 1 & 2] - [01:27] - [01:52]----------| 2x
- -------13-------13-------------13-------13--------|
- -10h11----10h11----10h11-10h11----10h11----10h11--|
- --------------------------------------------------|
- --------------------------------------------------|
- --------------------------------------------------|
- --------------------------------------------------|
-
- -------------------------------------------------|
- -------10-------10-------------10-------10-------|
- --9h10----10-10----10p9---9h10----10-10----10p9--|
- -------------------------------------------------|
- -------------------------------------------------|
- -------------------------------------------------|


- -------17-------17-------------17-------17-------|
- -17h18----17h18----17h18-17h18----17h18----17h18-|
- -------------------------------------------------|
- -------------------------------------------------|
- -------------------------------------------------|
- -------------------------------------------------|
-
- -------13-------13-------------13-------13-------|
- -13h15----13h15----13h15-13h15----13h15----13h15-|
- -------------------------------------------------|
- -------------------------------------------------|
- -------------------------------------------------|
- -------------------------------------------------|


- -------13-------13-------------13-------13-------|
- -11h15----11h15----11h15-11h15----11h15----11h15-|
- -------------------------------------------------|
- -------------------------------------------------|
- -------------------------------------------------|
- -------------------------------------------------|
-
- -------------------------------------------------|
- -------15-------15-------------15-------15-------|
- -12h15----12h15----12h15-12h15----12h15----12h15-|
- -------------------------------------------------|
- -------------------------------------------------|
- -------------------------------------------------|


- -------------------------------------------------|
- -------15----------------------15----------------|
- ----14-------14h17----14----14-------14h17----14-|
- -15-------15-------15----15-------15-------15----|
- -------------------------------------------------|
- -------------------------------------------------|
-
- -------------------------------------------------|
- -------------------------------------------------|
- -------10-------10-------------10-------10-------|
- ----12-------12-------------12-------12----------|
- -12-------12-------12-12-12-------12-------12-12-|
- -------------------------------------------------|

[Riff 9] - [01:27] - [01:52]---------------------------------------------| 2x
- -----------------------------------------------------------------------|
- -----------------------------------------------------------------------|
- -----------------------------------------------------------------------|Play for one bar
- -0-0-3-3-3-3-3-3-------------------------------------------------------|  each behind riff 9.
- -0-0-3-3-1-1-3-3-| then strum palm muted for 1 bar each behind riff 9--|
- -0-0-3-3-----3-3-------------------------------------------------------|

----------------------------------------------------------------------------

[Riff 10] - [01:52] - [01:56]
- -----------------|
- -----------------|
- -----------------|
- -0~------///-----|
- -0~------///-----|
- -0~------///-----|

----------------------------------------------------------------------------

[Riff 2] - [01:56] - [02:04]

[Riff 11, Guitar 1 & 2] - [02:04] - [02:14]
- -----------------------------------------------------------------|
- ---------------5-----6---------------5---------5-----6---5-------|
- -------------------------7---5-----------5-------------------5---|
- -----3---2---------------------3---------------------------------|
- -----------------------------------------------------------------|
- -0-0---0---0-0---0-0---0---0-----3-3---3---3-3---3-3---3---3-----|
PM ...   .   ...   ...   .   .     ...   .   ...   ...   .   .
-
- -----------------------------------------------------------------|
- -----------------------------------------------------3-----------|
- -------------------------------------5---------5---------5-------|
- ---------------5-----7-------------------3-------------------3---|
- -----5---3---------------8---7p0---------------------------------|
- -0-0---0---0-0---0-0---0---0-----3-3---3---3-3---3-3---3---3-----|
PM ...   .   ...   ...   .   .     ...   .   ...   ...   .   .


- -----------------------------------------------------------------|
- -------------------------6-----------5---6-----------5-6-8-6-5---|
- ---------7-------------------7---------------------5-----------5-|
- ---------------8---------------------------------7---------------|
- -----------------------------------------------------------------|
- -555-5-5---5-5---5-5-555---5---5-000---0---0-000-----------------|
PM .......   ...   .......   .   .....   .   .....
-
- -----------------------------------------------------------------|
- -----------------------------------------------------5-6-8-6-5---|
- -------------------------7-----------5---7---------5-----------5-|
- ---------8-----5-------------7-------------------7---------------|
- -----------------------------------------------------------------|
- -555-5-5---5-5---5-5-555---5---5-000---0---0-000-----------------|
PM .......   ...   .......   .   .....   .   .....

----------------------------------------------------------------------------

[Riff 12, Guitar 1, 2 & 3] - [02:14] - [02:33]----------------------| 2x
- ------------------------------------------------------------------|
- ------------------------------------------------------------------|
- -----0---2p0---0---2---3---3p2-------2---3p2---2---3---5---5p3----|
- ------------------------------------------------------------------|
- ------------------------------------------------------------------|
- -1-1---1-----1---1---1---1-------3-3---3-----3---3---3---3--------|
PM ...   .     .   .   .   .       ...   .     .   .   .   .
-
- -----------------------------------------------------------------|
- -----------------------------------------------------------------|
- -----------------------------------------------------------------|
- -----1---3p1---1---3---5---3p1-------3---5p7---3---5---7---5p3---|
- -----------------------------------------------------------------|
- -1-1---1-----1---1---1---1-------3-3---3-----3---3---3---3-------|
PM ...   .     .   .   .   .       ...   .     .   .   .   .


- -----------------------------------------------------------------|
- -----------------------------------------------------------------|
- -7---7---7-7-7-5---5-5---5-5-5---7---7---7-7-7-10--1010--101010--|
- -x---x---x-x-x-x---x-x---x-x-x---x---x---x-x-x-x---x-x---x-x-x---|
- -5---5---5-5-5-3---3-3---3-3-3---5---5---5-5-5-8---8-8---8-8-8---|
- -----------------------------------------------------------------|
-
- -----------------------------------------------------------------|
- -----------------------------------------------------------------|
- -----------------------------------------------------------------|
- -5---5---5-5-5-3---3-3---3-3-3---3---3---3-3-3-3---3-3---3-3-3---|
- -5---5---5-5-5-3---3-3---3-3-3---1---1---1-1-1-1---1-1---1-1-1---|
- -5---5---5-5-5-3---3-3---3-3-3-----------------------------------|
-
- --------------------------------------------------13-----13------|
- ---------------------------3-----------------10h11--10h11--10h11-|
- -----------------------5-------------10--------------------------|
- ----5---7---8------3--------------8------8-----------------------|
- -----------------------------------------------------------------|
- -55---5---5---5-33---3---3---3-88---8--8---8---------------------|
PM ..   .   .   ....   .   .   ....   .  .   .

----------------------------------------------------------------------------

[Riff 13] - [02:33] - [02:45]
- ---------------------------------------|
- ---------------------------------------|
- -7---7---7/10-10\5-5/10-10-12/15-15\12-|
- -x---x---x-x--x--x-x-x--x--x--x--x--x--|
- -9---9---9/8--8-\3-3/8--8--10/13-13\10-|
- ---------------------------------------|

- --------------------------------------|
- --------------------------------------|
- -12/15-15--15-15-19--19-19--19-19-19--|
- -x--x--x---x--x--x---x--x---x--x--x---|
- -10/13-13--13-13-17--17-17--17-17-17--|
- --------------------------------------|

- ------------------------------------------|
- ------------------------------------------|
- -12--12--12/15-15\10-10-10-10--10-10-10\8-|
- -x---x---x--x--x--x--x--x--x---x--x--x--x-|
- -10--10--10/13-13\8--8--8--8---8--8--8-\6-|
- ------------------------------------------|

- --------------------------------------|
- --------------------------------------|
- -8---8---8-8-8/10--10-10--10-10-10-10-|
- -x---x---x-x-x-x---x--x---x--x--x--x--|
- -6---6---6-6-6/8---8--8---8--8--8--8--|
- --------------------------------------|

[Riff 14] - [02:45] - [02:58]
- -------------------------------------|
- -------------------------------------|
- ------------------------------7-7/10-|
- -------7-7-8-8/10-7-8-8-10-10--------|
- -5-8-8-------------------------------|
- -------------------------------------|

- -------------------------------------------13-13-13-13--|
- -11h13p11----11-11h13p11-------11h13p11-----------------|
- ----------10-------------10-------------10--------------|
- ----------------------------12--------------------------|
- --------------------------------------------------------|
- --------------------------------------------------------|

- ----------------------------------------------------|
- ----------------------11-10h11p10-10-11-11-13-13/18-|
- -7h10p7-7-10-10/14-14-------------------------------|
- ----------------------------------------------------|
- ----------------------------------------------------|
- ----------------------------------------------------|

- -18-13----18-13----18-13-18-13-18/22-22-22-22\--|
- -------15-------15------------------------------|
- ------------------------------------------------|
- ------------------------------------------------|
- ------------------------------------------------|
- ------------------------------------------------|

[Riff 15] - [02:58] - [03:52]--------------------| 3x
- -----------------------------------------------|
- -15p11p8h11-15p11p8h11-15p11-16p11-15p11p8h11--|
- -----------------------------------------------|
- -----------------------------------------------|
- -----------------------------------------------|
- -----------------------------------------------|
   T          T          T     T     T

- ----------------------------------------------|
- ----------------------------------------------|
- -14p10p7h10-14p10p7h10-14p10-15p10-14p10p7h10-|
- ----------------------------------------------|
- ----------------------------------------------|
- ----------------------------------------------|
   T          T          T     T     T

- ---------------------------------------------|
- -15p11p8h11-15p11p8h11-18p11p8h11-18p11p8h11-|
- ---------------------------------------------|
- ---------------------------------------------|
- ---------------------------------------------|
- ---------------------------------------------|
   T          T          T          T

- -------------------------------------------------|
- -18p15p11-15p13p11h13h15-18p15p11-15p13p11h13h15-|
- -------------------------------------------------|
- -------------------------------------------------|
- -------------------------------------------------|
- -------------------------------------------------|
   T                       T

- ----------------------------------------------|
- -15p11p8h11-15p11p8h11-15p11-16p11-15p11p8h11-|
- ----------------------------------------------|
- ----------------------------------------------|
- ----------------------------------------------|
- ----------------------------------------------|
   T          T          T     T     T

- -----------------------------------------------|
- -----------------------------------------------|
- -14p10p7h10-14p10p7h10-14p10-15p10-17p10-15p10-|
- -----------------------------------------------|
- -----------------------------------------------|
- -----------------------------------------------|
   T          T          T     T     T     T

- ---------------------------------------------|
- -15p11p8h11-15p11p8h11-18p11p8h11-18p11p8h11-|
- ---------------------------------------------|
- ---------------------------------------------|
- ---------------------------------------------|
- ---------------------------------------------|
   T          T          T          T

- -------------------------------------------------|
- -18p15p11-15p13p11h13h15-18p15p11-15p13p11h13h15-|
- -------------------------------------------------|
- -------------------------------------------------|
- -------------------------------------------------|
- -------------------------------------------------|
   T                       T

[Riff 16] - [02:33] - [03:52]-------------------------| 3x
- ----------------------------------------------------|
- -----------------| Played behind Riffs 13, 14 & 15--|
- ----------------------------------------------------| First strum, them palm mute, then 
- -5-3-3-3-5-3-1-3------------------------------------|strum again.
- -5-3-1-1-5-3-1-1------------------------------------|
- -5-3-----5-3-1--------------------------------------|

----------------------------------------------------------------------------

[Symbols]
h     Hammer On
p     Pull Off
/     Slide Up
\     Slide Down
PM... Palm Mute notes with (...) under them
~     Let Ring
(  x) Play x amount of times
x     Dead Note
AP... Alternate Pick notes with (...) under them
T     Finger Tap
///   Pick Slide

:D
comments
We did not receive enough feedback on this tab! Please rate:
print report bad tab
1 2 3 4 5
I want to post or [tab]
guest
You may want to rate the tab now too:
select rating
Please do not post tabs as comments. Select "correction" instead!