Oops, an error
Loading. Please wait.

O Come O Come Emmanuel Tab

ver1
ver1

Whole song

Interactive

More versions @911Tabs.com
20,706 views 33 this week
5 commentsread comments
1 2 3 4 5
excellent!
x 5
Autoscroll
+/-
esc
set tempo
stop
Contributor
Difficulty
Tuning
intermediate
C G C F A D
Hey! There's an official Ultimate Guitar app which is ideal
for learning songs when you're away from computer. Get the app
WARNING: You are trying to view
                                    content from Ultimate-Guitar.com
                                    in an unauthorized application,
                                    which is prohibited.

                                    Please use an official Ultimate
                                    Guitar Tabs application for iPhone,
                                    iPad or Android to access legitimate
                                    chords, guitar, bass, and drum tabs
                                    from Ultimate-Guitar.com database.

                                    Type "ultimate guitar tabs" in Apple
                                    App Store's or Android Market's
                                    search to find the application.
[O Come, O Come Emanuel]
[Constellations]
[August Burns Red]

Note: ABR should cover every song ever.

Watch the times, some things overlap.
See how many times each riff is played (No indication means 1)
Watch if each part has one guitar or two matching.
Symbols at bottum.

[Riff 1] - [00:03] - [00:43]-------------------------------------------| 6x
- ---------------------------------------------------------------------|
- ---------------------------------------------------------------------|
- ----------------------------------------------------------------7----|
- -------3-----------7--------8----8-------3-----------7--------8---8--|
- -0-0-5---5-0-0-0-8---8-0-10---10---0-0-5---5-0-000-8---8-0-10--------|
- -0-0-------0-0-0-------0-----------0-0-------0-000-------0-----------|
PM ...       .....       .           ...       .....       .

[Riff 2] - [00:17] - [00:43]
- ----------------------------------------------------|
- ----------------------------------------------------|
- -------14-14-14-14-14-14-14-12-15-15-14-14-12-12----|
- -15-15-------------------------------------------15-|
- ----------------------------------------------------|
- ----------------------------------------------------|

- -------------------------------------------------|
- -------------------------------------------------|
- -------------------------------------------12-14-|
- -15-15-15-15-15-15-15-15-14-14-14-15-15-15-------|
- -------------------------------------------------|
- -------------------------------------------------|

- -------------------------------------------------|
- -------------------------------------------------|
- -14-------------------12-12----------------------|
- ----15-15-12-12-15-15-------14-14-12-12-------12-|
- ----------------------------------------15-15----|
- -------------------------------------------------|

- -------------------------------------------------|
- -------------------------15-15-15-15-15\---------|
- -------------------------------------------------|
- -12-12-12-12-12-12-12-12-------------------12-15-|
- -------------------------------------------------|
- -------------------------------------------------|

- -------------------------------------------------|
- -------------------------------------------------|
- ----14-14-14-14-14-14-14-12-15-15-14-14-12-12----|
- -15-------------------------------------------15-|
- -------------------------------------------------|
- -------------------------------------------------|

- -------------------------------------------------|
- -------------------------------------------------|
- -------------------------------------------12-14-|
- -15-15-15-15-15-15-15-15-14-14-14-15-15-15-------|
- -------------------------------------------------|
- -------------------------------------------------|

- --------------------------------------------------------|
- --------------------------------------------------------|
- -14-------------------12-12-----------------------------|
- ----15-15-12-12-15-15-------14-14-12-12-------12-12~----|
- ----------------------------------------15-15-----------|
- --------------------------------------------------------|

----------------------------------------------------------------------------

[Riff 3] - [00:46] - [00:54]
- -------------------------------------------------------|
- -------------------------------------------------------|
- -------------14-14-14-14-14-14-12-12-15-15-14-14-12-12-|
- -12-12-15-15-------------------------------------------|
- -------------------------------------------------------|
- -------------------------------------------------------|

- -------------------------------------------|
- -------------------------------------------|
- -------------------------------------------|
- -15-15-15-15-15-15-15-15-15-15-15-15-15-15-|
- -------------------------------------------|
- -------------------------------------------|

----------------------------------------------------------------------------

[Riff 4, Guitar 1 & 2] - [00:54] - [01:12]
- -------------------------------------------------------------|
- -------------------------------------------------------------|
- -------------7--7--7--7--7--7--7--7--5--5--5--5--5--5--5--5--|
- -0-----0-----------------------------------------------------|
- -------------------------------------------------------------|
- -------------------------------------------------------------|
-
- -------------------------------------------------------------|
- -------------------------------------------------------------|
- -------------------------------------------------------------|
- -------------------14-14-14-14-14-14-12-12-15-15-14-14-12-12-|
- -------12-12-15-15-------------------------------------------|
- -------------------------------------------------------------|


- -------------------------------------------------|
- -------------------------------------------------|
- -7--7--7--7--7--7--7--7--------------------------|
- -------------------------7--7--7--7--7--7--7--7--|
- -------------------------------------------------|
- -------------------------------------------------|
-
- -------------------------------------------------|
- -------------------------------------------------|
- -------------------------------------------------|
- -15-15-15-15-15-15-15-15-15-15-15-15-15-15-12-12-|
- -------------------------------------------------|
- -------------------------------------------------|


- -------------------------------------------------|
- -------------------------------------------------|
- -------------------------------------------------|
- -3--3--3--3--3--3--3--3--------------------------|
- -------------------------3--3--3--3--3--3--3--3--|
- -------------------------------------------------|
-
- -------------------------------------------------|
- -------------------------------------------------|
- -------14-14-14-14-14-14-12-12-15-15-14-14-12-12-|
- -15-15-------------------------------------------|
- -------------------------------------------------|
- -------------------------------------------------|

- -------------------------------------------------|
- -------------------------------------------------|
- -------------------------------------------------|
- -------------------------3--3--3--3--3--3--3--3--|
- -5--5--5--5--5--5--5--5--------------------------|
- -------------------------------------------------|
-
- -------------------------------------------------|
- -------------------------------------------------|
- -------------------------------------------12-12-|
- -15-15-15-15-15-15-15-15-15-15-15-15-15-15-------|
- -------------------------------------------------|
- -------------------------------------------------|

- -------------------------------------------------|
- -------------------------------------------------|
- -------------------------------------------------|
- -7--7--7--7--7--7--7--7--5--5--5--5--5--5--5--5--|
- -------------------------------------------------|
- -------------------------------------------------|
-
- -------------------------------------------------|
- -------------------------------------------------|
- -14-14-------------------12-12-------------------|
- -------15-15-12-12-15-15-------14-14-12-12-------|
- -------------------------------------------15-15-|
- -------------------------------------------------|

[Riff 5] - [01:01] - [01:12]
- ----------------------------13(32x)-----------|
- ----------13(16x)--15(16x)-----------13(16x)--|
- -14(16x)--------------------------------------|
- ----------------------------------------------|
- ----------------------------------------------|
- ----------------------------------------------|
AP ...........................................

----------------------------------------------------------------------------

[Riff 6] - [01:12] - [01:19]
- ----------------------------------------------------------------|
- ----------------------------------------------------------------|
- -----------------------------------------141414----------171717-|
- -0---0---0-10-10\3-3-3-3/5-5-5-0---0---0-x-x-x-0---0---0-x-x-x--|
- -0---0---0-10-10\3-3-3-3/5-5-5-0---0---0-1212120---0---0-151515-|
- -0---0---0-10-10\3-3-3-3/5-5-5-0---0---0-------0---0---0--------|
-
- -13~-----(< Two seperate guitars)-------------------------------|
- -15~-----(< Two seperate guitars)-------------------------------|
- ----------------------------------------------------------------|
- ----------------------------------------------------------------|
- ----------------------------------------------------------------|
- ----------------------------------------------------------------|

[Riff 7, Guitar 1, 2 & 3] - [01:19] - [01:26]
- ------------------------------------------------------------------|
- ------------------------------------------------------------------|
- ------------------------------------------------------------------|
- -0---0---0-10-10\3-3-3-3/5-5-5-0---0---0-101010-0---0---0-101010--|
- -0---0---0-10-10\3-3-3-3/5-5-5-0---0---0-101010-0---0---0-101010--|
- -0---0---0-10-10\3-3-3-3/5-5-5-0---0---0-101010-0---0---0-101010--|
-
- ------------------------------------------------------------------|
- ------------------------------------------------------------------|
- -14--------------12--------------10-------------------------------|
- -x---------------x---------------x--------------------------------|
- -12(16x)---------10(16x)---------8(32x)---------------------------|
- ------------------------------------------------------------------|
AP.......................................
-
- -1313131313131313121212121212121210101010101010101010101010101010-|
- -x-x-x-x-x-x-x-x-x-x-x-x-x-x-x-x-x-x-x-x-x-x-x-x-x-x-x-x-x-x-x-x--|
- -10101010101010109-9-9-9-9-9-9-9-7-7-7-7-7-7-7-7-7-7-7-7-7-7-7-7--|
- ------------------------------------------------------------------|
- ------------------------------------------------------------------|
- ------------------------------------------------------------------|

----------------------------------------------------------------------------

[Riff 8a] - [01:26] - [01:56]--------------------------------------| 4x
- -----------------------------------------------------------------|
- -----------------------------------------------------------------|
- -----------------------------------------141414----------171717--|
- -0---0---0-10-10\3-3-3-3/5-5-5-0---0---0-x-x-x-0---0---0-x-x-x---|
- -0---0---0-10-10\3-3-3-3/5-5-5-0---0---0-1212120---0---0-151515--|
- -0---0---0-10-10\3-3-3-3/5-5-5-0---0---0-------0---0---0---------|

[Riff 8b] - [01:26] - [01:56]-----------------------| 2x
- --------------------------------------------------|
- --------------------------------------------------|
- -10/14-14-14-14-14-14-12-12-15-15-14-14-12-12\10--|
- -x--x--x--x--x--x--x--x--x--x--x--x--x--x--x--x---|
- -8/-12-12-12-12-12-12-10-10-13-13-12-12-14-14\8---|
- --------------------------------------------------|

- -------------------------------------------------|
- -------------------------------------------------|
- -10-10-10-10-10-10-10-10-10-10-10-10-10/12-12-14-|
- -x--x--x--x--x--x--x--x--x--x--x--x--x--x--x--x--|
- -8--8--8--8--8--8--8--8--8--8--8--8--8/-10-10-12-|
- -------------------------------------------------|

- ----------------------------------------|
- ----------------------------------------|
- -14\10-10\7-7-10-10-12-12\9-9\7-7-5-5/7-|
- -x--x--x--x-x-x--x--x--x--x-x-x-x-x-x-x-|
- -12\8--8\-5-5-8--8--10-10\7-7\5-5-3-3/5-|
- ----------------------------------------|

- ----------------------------------|
- ----------------------------------|
- -7-7-7-7-7-7-7-7-7-7-7-7-7-7-7-10-|
- -x-x-x-x-x-x-x-x-x-x-x-x-x-x-x-x--|
- -5-5-5-5-5-5-5-5-5-5-5-5-5-5-5-8--|
- ----------------------------------|

----------------------------------------------------------------------------

[Riff 9, Guitar 1 & 2] - [01:56] - [02:24]
- --------------5---------------5---------------5---------------13------|
- ----------------6---------------6---------------6---------------15----|
- ------------------7---------------7---------------7---------------14--|
- ------0---0-----------0---0-----------0---0-----------0---0-----------|
- ----------------------------------------------------------------------|
- ----------------------------------------------------------------------|
-
- ----------17----------15--18--17--15------------------------------15--|
- -15---18------------------------------18------------------------------|
- ----------------------------------------------------------------------|
- ----------------------------------------------------------------------|
- ----------------------------------------------------------------------|
- ----------------------------------------------------------------------|
AP ...................................................................


- ---------5-------------------------------6---------------5-------|
- -----------6-------------5h6---------------6---------------6-----|
- -------------7---------------7---------------7---------------7---|
- -0---0-----------0---0-----------0---0-----------0---0-----------|
- -----------------------------------------------------------------|
- -----------------------------------------------------------------|
-
- -17--------------15----------------------------------------------|
- -----18--15--18------17--15------15--------------------------18--|
- -----------------------------17----------------------------------|
- -----------------------------------------------------------------|
- -----------------------------------------------------------------|
- -----------------------------------------------------------------|
AP ..............................................................


- ---------3---------------3---------------5---------------5-------|
- -----------5---------------5---------------6---------------6-----|
- -------------5---------------5---------------7---------------7---|
- -0---0-----------0---0-----------0---0-----------0---0-----------|
- -----------------------------------------------------------------|
- -----------------------------------------------------------------|
-
- -----------------------------------------------------------------|
- -------------17--18------17--15------------------------------15--|
- -----17--------------------------17------------------------------|
- -----------------------------------------------------------------|
- -----------------------------------------------------------------|
- -----------------------------------------------------------------|
AP     ..........................................................


- -----------------------------5---5---5---5---5---5---|
- -6---6---6---6---6---6---6-----6---6---6---6---6---6-|
- ---7---7---7---7---7---7---7-------------------------|
- -----------------------------------------------------|
- -----------------------------------------------------|
- -----------------------------------------------------|
-
- -13-/17----------15--18--17--15----------------------|
- ---------------------------------18------------------|
- -----------------------------------------------------|
- -----------------------------------------------------|
- -----------------------------------------------------|
- -----------------------------------------------------|
AP ..................................

----------------------------------------------------------------------------

[Riff 10, Guitar 1, 2 & 3] - [02:24] - [02:28]
- -------------------------------------|
- -------------------------------------|
- -------------------------------------|
- -7---7-----------8---8-----------8---|
- -5---5-----------8---8-----------8---|
- -----------------8---8-----------8---|
-
- -17--17\---------13--13--------------|
- ---------------------------------11--|
- -------------------------------------|
- -------------------------------------|
- -------------------------------------|
- -------------------------------------|
-
- -13--13\---------10--10----------10--|
- -------------------------------------|
- -------------------------------------|
- -------------------------------------|
- -------------------------------------|
- -------------------------------------|

----------------------------------------------------------------------------

[Riff 11a] - [02:28] - [02:42]
- --------------------------------------------|
- -8-11-11-10-10-8-8-------------------8-8-10-|
- -------------------10-10-10-10-10-10--------|
- --------------------------------------------|
- --------------------------------------------|
- --------------------------------------------|

- ---------------------------------------------------------|
- -10-----------------8-8----------------------------------|
- ----10-10-7-7-10-10-----9-9-7-7-------7-7~------/19~-----|
- --------------------------------10-10--------------------|
- ---------------------------------------------------------|
- ---------------------------------------------------------|

[Riff 12b] - [02:28] - [02:42]
- -6-6-10-10-8-8-6-6-5-5-5-5-5-5-6-6-8-|
- -------------------------------------|
- -------------------------------------|
- -------------------------------------|
- -------------------------------------|
- -------------------------------------|

- -8---------5-5-6-6--------------------------------|
- ---5-5-6-6---------8-8-6-6-5-5-6-6~------/18~-----|
- --------------------------------------------------|
- --------------------------------------------------|
- --------------------------------------------------|
- --------------------------------------------------|

[Riff 12c] - [02:28] - [02:36]
- ------------------------------------------------------------------|
- ------------------------------------------------------------------|
- ------------------------------------------------------------------|
- -5-5-5-5-5-5-5-0-0-0-0-0-0-0-0-0-8-8-8-8-8-8-8-5-5-5-5-5-5-5-12\--|
- -5-5-5-5-5-5-5-0-0-0-0-0-0-0-0-0-8-8-8-8-8-8-8-5-5-5-5-5-5-5-12\--|
- -5-5-5-5-5-5-5-0-0-0-0-0-0-0-0-0-8-8-8-8-8-8-8-5-5-5-5-5-5-5-12\--|

----------------------------------------------------------------------------

[Riff 13] - [02:36] - [03:12] - 1----|0x
- -----------------------------------|
- -----------------------------------|
- -----------------------------------|
- -----------------------------------|
- -0000-0-00---000-0000-0-0000-0-00--|
- -0000-0-00---000-0000-0-0000-0-00--|
PM ................................

[Riff 14a, Guitar 1 & 2] - [02:42] - [03:38]
- -------------------------------------------------|
- -------------------------------------------------|
- -------------------------------------------------|
- -------------------------------------------------|
- -8-/12-12-12-12-12-12-10-10-13-13-12-12-10-10\8--|
- -------------------------------------------------|
-
- -------------------------------------------------|
- -------------------------------------------------|
- -------------------------------------------------|
- -------------------------------------------------|
- -5-/8--8--8--8--8--8--7--7--10-10-8--8--7--7-\5--|
- -------------------------------------------------|


- -----------------------------------|
- -----------------------------------|
- -----------------------------------|
- -----------------------------------|
- -8-8-8-8-8-8-8-8-7-7-7-8-8-8-10/12-|
- -----------------------------------|
-
- -----------------------------------|
- -----------------------------------|
- -----------------------------------|
- -----------------------------------|
- -5-5-5-5-5-5-5-5-3-3-3-5-5-5-7-/8--|
- -----------------------------------|


- -------------------------------------|
- -------------------------------------|
- -------------------------------------|
- -------------------------------------|
- -12\8--8\5-5/8-8/10-10\7-7\5-5\3-3/5-|
- -------------------------------------|
-
- -------------------------------------|
- -------------------------------------|
- -------------------------------------|
- -------------------------------------|
- -8-\5--5\1-1/5-5/7--7-\3-3\1-1p0-0h8-|
- -------------------------------------|


- ---------------------------------|
- -------------------------------6-|
- -----------------------------7---|
- ---------------------------------|
- -5-5-5-5-5-5-5-5-5-5-5-5-5-5-----|
- ---------------------------------|
-
- ---------------------------------|
- ---------------------------------|
- -----------------------------3/7-|
- -----------------7-7-7-7-7-7-----|
- -8-8-8-8-8-8-8-8-----------------|
- ---------------------------------|


- ---5--5--5--5--5--5------6-6-5--5--------|
- -6-------------------8-8-----------8-8-6-|
- -----------------------------------------|
- -----------------------------------------|
- -----------------------------------------|
- -----------------------------------------|
-
- -----------------------------------------|
- -------------------------8-8-------------|
- -7-10-10-10-10-10-10-9-9-----10-10-9-9-7-|
- -----------------------------------------|
- -----------------------------------------|
- -----------------------------------------|


- ----------------------------------5--|
- -6-6-6-6-6-6-6-6-5--5--5--6-6-6-8----|
- -------------------------------------|
- -------------------------------------|
- -------------------------------------|
- -------------------------------------|
-
- -------------------------------------|
- -------------------------------------|
- -7-7-7-7-7-7-7-7----------7-7-7-9-10-|
- -----------------10-10-10------------|
- -------------------------------------|
- -------------------------------------|


- -5-----------------------------------|
- ----6-6-----6-6-8-8-5--5-------------|
- --------7-7---------------7-7-5-5-7--|
- -------------------------------------|
- -------------------------------------|
- -------------------------------------|
-
- -------------------------------------|
- -------------------------------------|
- -10---------7-7-9-9---------------10-|
- ----7-7-8-8---------10-10-8-8-7-7----|
- -------------------------------------|
- -------------------------------------|


- -------------------------------------------17----|
- -------------------------------------------------|
- -7--7--7--7--7--7--7--7--7--7--7--7--7--7--------|
- -------------------------------------------------|
- -------------------------------------------------|
- -------------------------------------------------|
-
- -------------------------------------------13----|
- -------------------------10-10-10-10-10-10-------|
- -10-10-10-10-10-10-10-10-------------------------|
- -------------------------------------------------|
- -------------------------------------------------|
- -------------------------------------------------|


- -17\---------13--13--------------|
- -----------------------------11--|
- ---------------------------------|
- ---------------------------------|
- ---------------------------------|
- ---------------------------------|
-
- -13\---------10--10----------10--|
- ---------------------------------|
- ---------------------------------|
- ---------------------------------|
- ---------------------------------|
- ---------------------------------|


- --------------------------------------------|
- -8-11-11-10-10-8-8-------------------8-8-10-|
- -------------------10-10-10-10-10-10--------|
- --------------------------------------------|
- --------------------------------------------|
- --------------------------------------------|
-
- -6-10-10-8--8--6-6-5--5--5--5--5--5--6-6-8--|
- --------------------------------------------|
- --------------------------------------------|
- --------------------------------------------|
- --------------------------------------------|
- --------------------------------------------|


- ----------------------------------------|
- -10-----------------8-8-----------------|
- ----10-10-7-7-10-10-----9-9-7-7-------7-|
- --------------------------------10-10---|
- ----------------------------------------|
- ----------------------------------------|
-
- -8--5--5--6-6-5--5--6-6-----------------|
- ------------------------8-8-6-6-5--5--6-|
- ----------------------------------------|
- ----------------------------------------|
- ----------------------------------------|
- ----------------------------------------|


- ---------(Third Guitar --> )--18-17-------------------|
- -----------------------------------------------8-8-10-|
- -7------------7/19------------19\7--------------------|
- ------------------------------------------------------|
- ------------------------------------------------------|
- ------------------------------------------------------|
-
- -----------------------------------------------6-6-8--|
- -6------------6/18------------18\6--------------------|
- ------------------------------------------------------|
- ------------------------------------------------------|
- ------------------------------------------------------|
- ------------------------------------------------------|


- --------------------------------------------------------|
- -10-----------------8-8---------------------------------|
- ----10-10-7-7-10-10-----9-9-7-7-------7-7~--------------|
- --------------------------------10-10-------------------|
- --------------------------------------------------------|
- --------------------------------------------------------|
-
- -8--5--5------5--5--6-6---------------------------------|
- ---------6-6------------8-8-6-6-5--5--6-6~--------------|
- --------------------------------------------------------|
- --------------------------------------------------------|
- --------------------------------------------------------|
- --------------------------------------------------------|

[Riff 14b] - [03:12] - [03:38]
- -------------------------------------|
- -------------------------------------|
- -------------------------------------|
- -7---7-----------8---8-----------8---|
- -5---5-----------8---8-----------8---|
- -----------------8---8-----------8---|

- -----------------------------------------------------------------|
- -----------------------------------------------------------------|
- -----------------------------------------------------------------|
- -5-5-5-5-5-5-5-0-0-0-0-0-0-0-0-0-8-8-8-8-8-8-8-5-5-5-5-5-5-5-5-0-|
- -5-5-5-5-5-5-5-0-0-0-0-0-0-0-0-0-8-8-8-8-8-8-8-5-5-5-5-5-5-5-5-0-|
- -5-5-5-5-5-5-5-0-0-0-0-0-0-0-0-0-8-8-8-8-8-8-8-5-5-5-5-5-5-5-5-0-|

- -----------------------------------------------------------------|
- -----------------------------------------------------------------|
- -----------------------------------------------------------------|
- -0~------------------------------8---8-8-8---8-5-5---5-5-5---5-0-|
- -0~------------------------------8---8-8-8---8-5-5---5-5-5---5-0-|
- -0~------------------------------8---8-8-8---8-5-5---5-5-5---5-0-|

- -----------------------------------------------------------------|
- -----------------------------------------------------------------|
- -----------------------------------------------------------------|
- -0---0-0-0---0-0-0---0-0-0-0-0-0-8-8-8-8-8-8-8-5-5-5-5-5-5-5-5-0-|
- -0---0-0-0---0-0-0---0-0-0-0-0-0-8-8-8-8-8-8-8-5-5-5-5-5-5-5-5-0-|
- -0---0-0-0---0-0-0---0-0-0-0-0-0-8-8-8-8-8-8-8-5-5-5-5-5-5-5-5-0-|

- -----------------------------------------------------------------|
- -----------------------------------------------------------------|
- -----------------------------------------------------------------|
- -0~--------------------------------------------------------------|
- -0~--------------------------------------------------------------|
- -0~--------------------------------------------------------------|

----------------------------------------------------------------------------

yeaa sooo. this part was quite tricky to get downn! its definately
gonna be subject to alotttaa change in the next lil bit i tihnk :P
ahahaha but as of now! this is as accurate as i can get it!
my guitar pro will do it justice if its accepted :P enjoy! :)

[Riff 15] - [03:38] - [04:51]
- --------------10-----------------------5---------|
- -6~-----------10--10-10--10-10-------------6-----|
- -7~-----------10--10-10--10-10-------7-------7---|
- -7~-----------12--12-12--12-12---5-5-------------|
- -5~-----------13--13-13--13-13-------------------|
- -------------------------------------------------|

- -1~----------------------------------13----------|
- -3~----------------/14-------------------15------|
- -2~----------------/15----------------------14\--|
- -------------------------------------------------|
- -------------------------------------------------|
- -------------------------------------------------|

- -x--------10-------------------------------------|
- -x------------10---------------------10-10-10-10-|
- -------10--------10------------------10-10-10-10-|
- ----12-------------------------------12-12-12-12-|
- ----13-------------------------------10-10-10-10-|
- -------------------------------------------------|

- -------------------------------------------------|
- -------------------------------------------------|
- -------------------------------------------------|
- ---------7---7-----7---7------7---7--7/----------|
- ------5---------5----------5---------------------|
- ---0---------------------------------------------|

- -x--------10-------------------------------------|
- -x------------10---------10-10-10-10-10-10-10-10-|
- -------10--------10------10-10-10-10-10-10-10-10-|
- ----12-------------------12-12-12-12-12-12-12-12-|
- ----13-------------------10-10-10-10-10-10-10-10-|
- -------------------------------------------------|

- ----------13--13----13--13----13--13-------------|
- -----------------15--------15-15--15-15\---------|
- -----------------14--------14--------14\---------|
- -------------------------------------------------|
- -------12----------------------------------------|
- ----12-------------------------------------------|

- -x--------10-------------------------------------|
- -x------------10---------------------10-10-10-10-|
- -------10--------10------------------10-10-10-10-|
- ----12-------------------------------12-12-12-12-|
- ----13-------------------------------10-10-10-10-|
- -------------------------------------------------|

- -------------------------------------------------|
- -------------------10----------------------------|
- ----------10----10----10--10----10----10---------|
- ----12-------------------------------------------|
- -------12--------------------12----12----12\-----|
- -------------0-----------------------------------|

- -x--------10-x-----10-x--------------------------|
- -x--------10-x-----10-x--------------10-10-10-10-|
- -------10-10-------10----------------10-10-10-10-|
- ----12-------------------------------12-12-12-12-|
- ----13-------------------------------10-10-10-10-|
- -------------------------------------------------|

- -------------------------------------------------|
- ----------13--10--------------10-----------------|
- ----------10-----10-----10--------10-------------|
- -------0-------------12----12--------12----------|
- -------------------------------------------------|
- ----0--------------------------------------------|

- -x--------10-------------------------------------|
- -x------------10---------------------10-10-10-10-|
- -------10--------10------------------10-10-10-10-|
- ----12-------------------------------12-12-12-12-|
- ----13-------------------------------10-10-10-10-|
- -------------------------------------------------|

- -------------------------------------13----------|
- ----------10-----10\--------------------15----15-|
- ----------10-----10\-----------------------14----|
- ----------12-----12\-----------------------------|
- -------12-13-----13\-----------------------------|
- -------------------------------------------------|

- -x--------10-------------------------------------|
- -x------------10---------10-10-10-10-10-10-10-10-|
- -------10--------10------10-10-10-10-10-10-10-10-|
- ----12-------------------12-12-12-12-12-12-12-12-|
- ----13-------------------10-10-10-10-10-10-10-10-|
- -------------------------------------------------|

- -------------------------------------------------|
- -------------------------------------------------|
- -------------------------------------------------|
- ----------7~----------------7-----7---7--7/------|
- -------5-----------------------5-----------------|
- ----0--------------------------------------------|

- -x--------10-------------------------------------|
- -x------------10---------------------10-10-10-10-|
- -------10--------10------------------10-10-10-10-|
- ----12-------------------------------12-12-12-12-|
- ----13-------------------------------10-10-10-10-|
- -------------------------------------------------|

- ----------13--------13-----------12/13-----------|
- --------------15--------15----15-------15--------|
- -----------------14--------14-------------14\----|
- -------0-----------------------------------------|
- -------------------------------------------------|
- ----0--------------------------------------------|

- -x--------10-x-----10-x--------------------------|
- -x--------10-x-----10-x--------------10-10-10-10-|
- -------10-10-------10----------------10-10-10-10-|
- ----12-------------------------------12-12-12-12-|
- ----13-------------------------------10-10-10-10-|
- -------------------------------------------------|

- -------------------------------------------------|
- -------------------------------------------------|
- -------------------------------------------------|
- ---------7---7-----7---7------7---7--7/----------|
- ------5---------5----------5---------------------|
- ---0---------------------------------------------|

- -x--------10-------10----------------------------|
- -x--------10-------10----10-10-10-10-10-10-10-10-|
- -------10-10-------10----10-10-10-10-10-10-10-10-|
- ----12-------------------12-12-12-12-12-12-12-12-|
- ----13-------------------10-10-10-10-10-10-10-10-|
- -------------------------------------------------|

----------------------------------------------------------------------------

[Symbols]

h     Hammer On
p     Pull Off
/     Slide Up
\     Slide Down
PM... Palm Mute notes with (...) under them
~     Let Ring
x     Dead Note
AP... Alternate Pick notes with (...) under them

:D
comments
print report bad tab
5 comments total. Showing first comments.
+1 reply
s.h.r.e.d. wrote on March 31 2010, 07:41 pm

WOW amazing tab!!!! I've been waiting for a non power tab or guitar pro ACCURATE Tab, and I think I found it!!!

+1 reply
brnndo wrote on November 10 2010, 05:45 pm

this is amazing! thank you so much for taking the time to do this. it's legit.

0 reply
josh-josh-josh wrote on November 10 2010, 07:23 pm

try


- -5-
- -6-
- -7-
- -8-
- ---
- ---


instead of


- ----
- -10-
- -10-
- -12-
- -10-
- ----


i recently was playin it n thought that might work. i really dno :P im gonna revise this soon i think, the whole acoustic part sketches me out :P i need perfection bahah

I want to post or [tab]
guest
You may want to rate the tab now too:
select rating
Please do not post tabs as comments. Select "correction" instead!