Oops, an error
Loading. Please wait.

Pangaea Tab

ver2
ver2

Whole song

More versions @911Tabs.com
626 views 1 this week
no commentswrite comment
1 2 3 4 5
accurate
x 4
Autoscroll
+/-
esc
set tempo
stop
Contributor
Difficulty
Tuning
intermediate
C G C F A D
WARNING: You are trying to view
                                    content from Ultimate-Guitar.com
                                    in an unauthorized application,
                                    which is prohibited.

                                    Please use an official Ultimate
                                    Guitar Tabs application for iPhone,
                                    iPad or Android to access legitimate
                                    chords, guitar, bass, and drum tabs
                                    from Ultimate-Guitar.com database.

                                    Type "ultimate guitar tabs" in Apple
                                    App Store's or Android Market's
                                    search to find the application.
-----------------------------------------------------------------------------
                          August Burns Red - Pangaea
-----------------------------------------------------------------------------
Tabbed by:Metalcoreking
Email:Matthessell@live.com

Tuning:CGCFAD

INTRO
D|--------------------------------------------------------------------------|
A|--------------------------------------------------------------------------|
F|-7-0-5-7-0-3-0-7-0-5-7-0-8-0-7-0-5-7-0-3-0-7-0-5-7-0-10-0-----------------|
C|--------------------------------------------------------------------------|
G|--------------------------------------------------------------------------|
C|--------------------------------------------------------------------------|
 |                                                                          |
D|----------------------------------------------------------------------(x3)|
A|--------------------------------------------------------------------------|
F|-7-0-5-7-0-3-0-7-0-5-7-0-8-0-7-0-5-7-0-3-0-7-0-5-7-0-12-0-----------------|
C|--------------------------------------------------------------------------|
G|--------------------------------------------------------------------------|
C|--------------------------------------------------------------------------|

D|--------------------1-----------------------------------------------------|
A|--------------------3-----------------------------------------------------|
F|--------------------0-----------------------------------------------------|
C|-5----0----1-------------\------------------------------------------------|
G|-5----0----1-------------\Pickslide---------------------------------------|
C|-5----0----1-------------\------------------------------------------------|

VERSE I
D|--------------------------------------------------------------------------|
A|-------------------8-----6/8---------------8-----6h8p6--------------------|
F|-------7-------------7-----------------7-----7---------7h8-5h7------------|
C|---8-------------------8-----------8-----------8---------------7h8--------|
G|--------------------------------------------------------------------------|
C|-5---5---5-555-5-5-----------555-5---5---5--------------------------------|
 | x   x   x xxx x x           xxx x   x   x                                |
D|-----------------------------------------------------5h6/10p8---------(x2)|
A|-------3-----------3-----3/4-------6-------------6/8----------10h11-------|
F|---3-----------------3-----------------5----------------------------------|
C|-----------------------5--------------------------------------------------|
G|--------------------------------------------------------------------------|
C|-1---1---1-111-1-1-----------111-3---3---3-333-3--------------------------|
   x   x   x xxx x x           xxx x   x   x xxx x

VERSE II
D|----------------------------------------------------------------------(x2)|
A|--------------------------------------------------------------------------|
F|--------------------------------------------------------------------------|
C|-------5-----------5-----------5-----------5------------------------------|
G|---5h6---6p5---5h6---6p5---5h6---6p5---5h6---6p5--------------------------|
C|-5-----------5-----------5-----------5------------------------------------|
 | x           x           x           x                                    |
D|--------------------------------------------------------------------------|
A|--------------------------------------------------------------------------|
F|--------------------------------------------------------------------------|
C|--------8h10/12--------8h10/12--------8h10/12--------8h10/12--------------|
G|---8h10-----------8h10-----------8h10-----------8h10----------------------|
C|-8--------------8--------------8--------------8---------------------------|
 | x              x              x              x                           |
D|-----------------6-------6h10p6-------10p6--------------------------------|
A|-------6-----------8p6h8--------8p6h8-------------------------------------|
F|-----7---7-----7----------------------------------------------------------|
C|---8---------8------------------------------------------------------------|
G|-6---------6--------------------------------------------------------------|
C|--------------------------------------------------------------------------|
 | x         x                                                              |
D|--------------------------------------------------------------------------|
A|--------------------------------------------------------------------------|
F|-------------------------------------------------------10p7---------------|
C|--------8h10/12--------8h10/12--------8h10/12--------8--------------------|
G|---8h10-----------8h10-----------8h10-----------8h10----------------------|
C|-8--------------8--------------8--------------8---------------------------|
 | x              x              x              x                           |
D|--------------------------------------------------------------------------|
A|--------------------------------------------------------------------------|
F|--------------------------------------------------------------------------|
C|-------5-----------5-----------5-----------5------------------------------|
G|---5h6---6p5---5h6---6p5---5h6---6p5---5h6---6p5--------------------------|
C|-5-----------5-----------5-----------5------------------------------------|
 | x           x           x           x                                    |
D|--------------------------------------------------------------------------|
A|--------------------------------------------------------------------------|
F|----------------------------------------------10-7------------------------|
C|--------8h10/12--------8h10/12--------8h10/12------10-8-------------------|
G|---8h10-----------8h10-----------8h10-------------------10-8--------------|
C|-8--------------8--------------8------------------------------------------|
 | x              x              x                                          |
D|-----------------6-------6h10p6-------10p6--------------------------------|
A|-------6-----------8p6h8--------8p6h8-------------------------------------|
F|-----7---7-----7----------------------------------------------------------|
C|---8---------8------------------------------------------------------------|
G|-6---------6--------------------------------------------------------------|
C|--------------------------------------------------------------------------|
 | x         x                                                              |
D|-------------------------------------------------------------10-----------|
A|----------------------------------------------------------11--------------|
F|----------------------------------------------10----10-12-----------------|
C|--------8h10/12--------8h10/12--------8h10/12----12-----------------------|
G|---8h10-----------8h10-----------8h10-------------------------------------|
C|-8--------------8--------------8------------------------------------------|
 | x              x              x                                          |
D|--------------------------------------------------------------------------|
A|--------------------------------------------------------------------------|
F|--------------------------------------------------------------------------|
C|-------5-----------5-----------5-----------5------------------------------|
G|---5h6---6p5---5h6---6p5---5h6---6p5---5h6---6p5--------------------------|
C|-5-----------5-----------5-----------5------------------------------------|
 | x           x           x           x                                    |
D|--------------------------------------------------------------------------|
A|--------------------------------------------------------------------------|
F|----------------------------------------------10-7------------------------|
C|--------8h10/12--------8h10/12--------8h10/12------10-8-------------------|
G|---8h10-----------8h10-----------8h10-------------------10-8--------------|
C|-8--------------8--------------8------------------------------------------|
 | x              x              x                                          |
D|-----------------6-------6h10p6-------10p6--------------------------------|
A|-------6-----------8p6h8--------8p6h8-------------------------------------|
F|-----7---7-----7----------------------------------------------------------|
C|---8---------8------------------------------------------------------------|
G|-6---------6--------------------------------------------------------------|
C|--------------------------------------------------------------------------|
 | x         x                                                              |
D|-------------------------------------------------------------10-----------|
A|----------------------------------------------------------11--------------|
F|----------------------------------------------10----10-12-----------------|
C|--------8h10/12--------8h10/12--------8h10/12----12-----------------------|
G|---8h10-----------8h10-----------8h10-------------------------------------|
C|-8--------------8--------------8------------------------------------------|
   x              x              x                                           
VERSE III
D|--------------------------------------------------------------------------|
A|--------------------------------------------------------------------------|
F|---------------------------------------------------------7p3--------------|
C|-------------5-5-7p5---7---8p7p5-------------5-5-8p7---------7p3----------|
G|-----5-5-----------------------------5-5-------------8p5------------------|
C|-5-5-----5-5---------5---5-------5-5-----5-5------------------------------|
 | x x     x x         x   x       x x     x x                              |
D|--------------------------------------------------------------------------|
A|--------------------------------------------------------------------------|
F|-0---2---2h3p0-0---2---2h3p0-0---2---2h3p0-0---2---2h3p0------------------|
C|--------------------------------------------------------------------------|
G|--------------------------------------------------------------------------|
C|---1---1---------1---1---------1---1---------1---1------------------------|
 |   x   x         x   x         x   x         x   x                        |
D|--------------------------------------------------------------------------|
A|--------------------------------------------------------------------------|
F|---------------------------------------------------------7p3--------------|
C|-------------5-5-7p5---7---8p7p5-------------5-5-8p7---------7p3----------|
G|-----5-5-----------------------------5-5-------------8p5------------------|
C|-5-5-----5-5---------5---5-------5-5-----5-5------------------------------|
 | x x     x x         x   x       x x     x x                              |
D|--------------------------------------------------------------------------|
A|-----------------------------------------------------3h6/8\---------------|
F|-0---2---2h3p0-0---2---2h3p0-0---2---2h3p0-/3--5-3h5----------------------|
C|--------------------------------------------------------------------------|
G|--------------------------------------------------------------------------|
C|---1---1---------1---1---------1---1--------------------------------------|
     x   x         x   x         x   x 

D|-------------------------------(x7)|--------------------------------------|
A|-----------------------------------|--------------------------------------|
F|-12p0-10h14p0-15p0-14p0-10/12p0----|-12p0-10h14p0-15p0-14p0-14/15p0-15~---|
C|-----------------------------------|--------------------------------------|
G|-----------------------------------|--------------------------------------|
C|-----------------------------------|--------------------------------------|

D|--------------------------------------------------------------------------|
A|--------------------------------------------------------------------------|
F|--------------------------------------------------------------------------|
C|-5----8----1---------5----8----1----5----8----1---------5----8----1----1--|
G|-5----8----1--1-1-1--5----8----1----5----8----1--1-1-1--5----8----1----1--|
C|-5----8----1--1-1-1--5----8----1----5----8----1--1-1-1--5----8----1----1--|

D|----------------------------------------------------------------------(x2)|
A|--------------------------------------------------------------------------|
F|-7-7-7-7-7-7-12-12-12-12-12-12-3-3-3-3-3-3-3-3-3-3-3-3--------------------|
C|-5-5-5-5-5-5-10-10-10-10-10-10-1-1-1-1-1-1-1-1-1-1-1-1--------------------|
G|-5-5-5-5-5-5-10-10-10-10-10-10-1-1-1-1-1-1-1-1-1-1-1-1--------------------|
C|-5-5-5-5-5-5-10-10-10-10-10-10-1-1-1-1-1-1-1-1-1-1-1-1--------------------|

SOLO
D|--------------------------------------------------------------------------|
A|--------------------------------------------------------------------------|
F|-10-12-10h12p10-----------------------------------------------------------|
C|----------------13-12-10-12-10--------------------------------------------|
G|-------------------------------13-12-10-----------------------------------|
C|--------------------------------------------------------------------------|
 |                                                                          |
D|-----------------------------------10-------------------------------------|
A|------------------------10p8-10h11----11----------------------------------|
F|---------------8----7h8---------------------------------------------------|
C|------8p7h8h10------------------------------------------------------------|
G|-8h10------------10-------------------------------------------------------|
C|--------------------------------------------------------------------------|
 |                                                                          |
D|--------------------------------------------------------------------------|
A|------------------------------------10------------------------------------|
F|-7-------7-------10---10---12----10---------------------------------------|
C|---8p7h8---8p7h8----8----8------------------------------------------------|
G|------------------------------10------------------------------------------|
C|--------------------------------------------------------------------------|
 |                                                                          |
D|-------------------------15----15/17-18p17-18/20--------------------------|
A|-11p10-11/13-15p13-15/16----16--------------------------------------------|
F|--------------------------------------------------------------------------|
C|--------------------------------------------------------------------------|
G|--------------------------------------------------------------------------|
C|--------------------------------------------------------------------------|
 |                                                                          |
D|-22br--18-----18h22br--18----18h20p18-------------------------------------|
A|----------20--------------20----------20----------------------------------|
F|--------------------------------------------------------------------------|
C|--------------------------------------------------------------------------|
G|--------------------------------------------------------------------------|
C|--------------------------------------------------------------------------|
 |                                                                          |
D|--------------------------------------------------------------------------|
A|-18h20p18-----------------------------------------------------------------|
F|----------20p19-------------20p19-------------20p19-----------------------|
C|----------------20p19-17/19-------20-17/19-20-----------------------------|
G|--------------------------------------------------------------------------|
C|--------------------------------------------------------------------------|
 |                                                                          |
D|--------------------------------------------------------------------------|
A|-------------18-------------18--------------------------------------------|
F|-19----17-------20-17h19-------20-17h19----17h19--------------------------|
C|----17----17-------------17-------------17--------------------------------|
G|--------------------------------------------------------------------------|
C|--------------------------------------------------------------------------|
 |                                                                          |
D|----------------------------------------17-18br--17----22----20-----------|
A|-------------18-------------18-20p18h20----------------------------23-----|
F|-------15/17----19-15-17/19-----------------------------------------------|
C|-15h17--------------------------------------------------------------------|
G|--------------------------------------------------------------------------|
C|--------------------------------------------------------------------------|

BREAKDOWN
D|--------------------------------------------------------------------------|
A|--------------------------------------------------------------------------|
F|--------------------------------------------------------------------------|
C|-5----8----1----5----8----1----5----8----1----5----8----1-----------------|
G|-5----8----1----5----8----1----5----8----1----5----8----1-----------------|
C|-5----8----1----5----8----1----5----8----1----5----8----1-----------------|

D|--------------------------------------------------------------------------|
A|--------------------------------------------------------------------------|
F|--------------------------------------------------------------------------|
C|-5--5-5-5-5--5--5-5-5-5--5--5-5-5-5--5-5-5--------------------------------|
G|-5--5-5-5-5--5--5-5-5-5--5--5-5-5-5--5-5-5--------------------------------|
C|-5--5-5-5-5--5--5-5-5-5--5--5-5-5-5--5-5-5--------------------------------|
 | x  x x x x  x  x x x x  x  x x x x  x x x                                |
D|--------------------------------------------------------------------------|
A|--------------------------------------------------------------------------|
F|--------------------------------------------------------------------------|
C|-1--1-1-1-1--1--1-1-1-1--1--1-1-1-1--1-1-1--------------------------------|
G|-1--1-1-1-1--1--1-1-1-1--1--1-1-1-1--1-1-1--------------------------------|
C|-1--1-1-1-1--1--1-1-1-1--1--1-1-1-1--1-1-1--------------------------------|
   x  x x x x  x  x x x x  x  x x x x  x x x 

D|-----------------------------------10----10----13-22-13-22-13-15-18-18----|
A|--------------6--6-8-6-8-10--10-11----11----11----------------------------|
F|-5-7--5-7-5-7-------------------------------------------------------------|
C|--------------------------------------------------------------------------|
G|--------------------------------------------------------------------------|
C|--------------------------------------------------------------------------|

OUTRO
D|-----------------------------------------6-6-10-10-6-6-10-10-11-11-10-----|
A|-----------------------------8-8-6-6-8-8----------------------------------|
F|-10-10-------------------7-7----------------------------------------------|
C|-------8-8-7-7-------8-8--------------------------------------------------|
G|---------------10-10------------------------------------------------------|
C|--------------------------------------------------------------------------|
 |                                                                          |
D|-10p6-----------10p6-----------11p6-10p6-(x2)----------------------(ALLx4)|
A|------10p6-8h10------10p6-8h10--------------------------------------------|
F|--------------------------------------------------------------------------|
C|--------------------------------------------------------------------------|
G|--------------------------------------------------------------------------|
C|--------------------------------------------------------------------------|

D|-10p6-----------10p6-----------11p6-10p6-(x2)-15--------------------------|
A|------10p6-8h10------10p6-8h10--------------------------------------------|
F|--------------------------------------------------------------------------|
C|--------------------------------------------------------------------------|
G|--------------------------------------------------------------------------|
C|--------------------------------------------------------------------------|

************************************

| /   slide up
| \   slide down
| h   hammer-on
| p   pull-off
| ~   vibrato
| +   harmonic
| x   Mute note
| b   Bend
| pb  Pre-bend
| br  Bend release
| pbr Pre-bend release
| brb Bend release bend

************************************
I want to post or [tab]
guest
You may want to rate the tab now too:
select rating
Please do not post tabs as comments. Select "correction" instead!