Oops, an error
Loading. Please wait.

Pangea Tab

ver1
ver1

Whole song

Interactive

More versions @911Tabs.com
2,810 views 3 this week
1 commentread comment
1 2 3 4 5
excellent!
x 4
Autoscroll
+/-
esc
set tempo
stop
Contributor
Difficulty
Tuning
intermediate
C G C F A D
Hey! There's an official Ultimate Guitar app which is ideal
for learning songs when you're away from computer. Get the app
WARNING: You are trying to view
                                    content from Ultimate-Guitar.com
                                    in an unauthorized application,
                                    which is prohibited.

                                    Please use an official Ultimate
                                    Guitar Tabs application for iPhone,
                                    iPad or Android to access legitimate
                                    chords, guitar, bass, and drum tabs
                                    from Ultimate-Guitar.com database.

                                    Type "ultimate guitar tabs" in Apple
                                    App Store's or Android Market's
                                    search to find the application.
AUGUST BURNS RED 
PANGEA
CGCFAD

*=PALM MUTE

TABBED BY-andherembrace




0:00
L
----------------------------------------------------------|
----------------------------------------------------------|
7-7-0-0-5-5-7-7-0-0-3-3-0-0-7-7-0-0-5-5-7-7-0-0-8-8-0-0---|
----------------------------------------------------------|
----------------------------------------------------------|
----------------------------------------------------------|
R
--------------------------------------------------------|
--------------------------------------------------------|
--------------------------------------------------------|
5-------------------------------------------------------|
5-------------------------------------------------------|
5-------------------------------------------------------|

L
----------------------------------------------------------|
----------------------------------------------------------|
7-7-0-0-5-5-7-7-0-0-3-3-0-0-7-7-0-0-5-5-7-7-0-0-10-10-0-0-|
----------------------------------------------------------|
----------------------------------------------------------|
----------------------------------------------------------|
R
--------------------------------------------------------|
--------------------------------------------------------|
--------------------------------------------------------|
--------------------------------------------------------|
--------------------------------------------------------|
--------------------------------------------------------|

L
----------------------------------------------------------|
----------------------------------------------------------|
7-7-0-0-5-5-7-7-0-0-3-3-0-0-7-7-0-0-5-5-7-7-0-0-8-8-0-0---|
----------------------------------------------------------|
----------------------------------------------------------|
----------------------------------------------------------|
R
--------------------------------------------------------|
--------------------------------------------------------|
--------------------------------------------------------|
--------------------------------------------------------|
--------------------------------------------------------|
--------------------------------------------------------|


L
-----------------------------------------------------------------|
-----------------------------------------------------------------|
7-7-0-0-5-5-7-7-0-0-3-3-0-0-7-7-0-0-5-5-7-7--0-0-12-12-0-0-------|
-----------------------------------------------------------------|
-----------------------------------------------------------------|
-----------------------------------------------------------------|
R
--------------------------------------------------------|
--------------------------------------------------------|
--------------------------------------------------------|
--------------------------------------------------------|
---------------------------------------------------\----|
---------------------------------------------------\----|


0:11
L
-----------------------------------------------------------------|
-----------------------------------------------------------------|
7-7-0-0-5-5-7-7-0-0-3-3-0-0-7-7-0-0-5-5-7-7-0-0-8-8-0-0----------|
-----------------------------------------------------------------|
-----------------------------------------------------------------|
-----------------------------------------------------------------|
R
---------------------------------------------------------------------|
---------------------------------------------------------------------|
---------------------------------------------------------------------|
*-*-*-*-----------*--*-*-*-*-*------------*-*-*-*-*--*-*-*-----------|
5-5-5-5-----------3--3-3-5-5-5------------3-3-5-5-5--1-1-1-----------|
5-5-5-5-----------3--3-3-5-5-5------------3-3-5-5-5--1-1-1-----------|


L
-----------------------------------------------------------------|
-----------------------------------------------------------------|
7-7-0-0-5-5-7-7-0-0-3-3-0-0-7-7-0-0-5-5-7-7--0-0-10-10-0-0-------|
-----------------------------------------------------------------|
-----------------------------------------------------------------|
-----------------------------------------------------------------|
R
----------------------------------------------------------------------|
----------------------------------------------------------------------|
----------------------------------------------------------------------|
*-*-*-*-------------*-*-*-*-*-*-*----------*-*-*-*-*--*-*-*-----------|
5-5-5-5-------------3-3-5-5-5-5-5----------3-3-5-5-5--1-1-1-----------|
5-5-5-5-------------3-3-5-5-5-5-5----------3-3-5-5-5--1-1-1-----------|

L
-----------------------------------------------------------------|
-----------------------------------------------------------------|
7-7-0-0-5-5-7-7-0-0-3-3-0-0-7-7-0-0-5-5-7-7--0-0-8-8-0-0---------|
-----------------------------------------------------------------|
-----------------------------------------------------------------|
-----------------------------------------------------------------|
R
---------------------------------------------------------------------|
---------------------------------------------------------------------|
---------------------------------------------------------------------|
*-*-*-*-----------*--*-*-*-*-*------------*-*-*-*-*--*-*-*-----------|
5-5-5-5-----------3--3-3-5-5-5------------3-3-5-5-5--1-1-1-----------|
5-5-5-5-----------3--3-3-5-5-5------------3-3-5-5-5--1-1-1-----------|

L
-----------------------------------------------------------------|
-----------------------------------------------------------------|
7-7-0-0-5-5-7-7-0-0-3-3-0-0-7-7-0-0-5-5-7-7-0-0-12-12-0-0--------|
-----------------------------------------------------------------|
-----------------------------------------------------------------|
-----------------------------------------------------------------|
R
----------------------------------------------------------------------|
----------------------------------------------------------------------|
----------------------------------------------------------------------|
*-*-*-*-------------*-*-*-*-*-*-*----------*-*-*-*-*--*-*-*-----------|
5-5-5-5-------------3-3-5-5-5-5-5----------3-3-5-5-5--1-1-1-----------|
5-5-5-5-------------3-3-5-5-5-5-5----------3-3-5-5-5--1-1-1-----------|


0:22
L
-----------------------------------------------------------------|
-----------------------------------------------------------------|
7-7-0-0-5-5-7-7-0-0-3-3-0-0-7-7-0-0-5-5-7-7-0-0-8-8-0-0---------|
-----------------------------------------------------------------|
-----------------------------------------------------------------|
-----------------------------------------------------------------|
R
---------------------------------------------------------------------|
---------------------------------------------------------------------|
---------------------------------------------------------------------|
*-*-*-*-----------*--*-*-*-*-*------------*-*-*-*-*--*-*-*-----------|
5-5-5-5-----------3--3-3-5-5-5------------3-3-5-5-5--1-1-1-----------|
5-5-5-5-----------3--3-3-5-5-5------------3-3-5-5-5--1-1-1-----------|


L
-----------------------------------------------------------------|
-----------------------------------------------------------------|
7-7-0-0-5-5-7-7-0-0-3-3-0-0-7-7-0-0-5-5-7-7-0-0-10-10-0-0--------|
-----------------------------------------------------------------|
-----------------------------------------------------------------|
-----------------------------------------------------------------|
R
----------------------------------------------------------------------|
----------------------------------------------------------------------|
----------------------------------------------------------------------|
*-*-*-*-------------*-*-*-*-*-*-*----------*-*-*-*-*--*-*-*-----------|
5-5-5-5-------------3-3-5-5-5-5-5----------3-3-5-5-5--1-1-1-----------|
5-5-5-5-------------3-3-5-5-5-5-5----------3-3-5-5-5--1-1-1-----------|

L
-----------------------------------------------------------------|
-----------------------------------------------------------------|
7-7-0-0-5-5-7-7-0-0-3-3-0-0-7-7-0-0-5-5-7-7--0-0-8-8-0-0---------|
-----------------------------------------------------------------|
-----------------------------------------------------------------|
-----------------------------------------------------------------|
R
---------------------------------------------------------------------|
---------------------------------------------------------------------|
---------------------------------------------------------------------|
*-*-*-*-----------*--*-*-*-*-*------------*-*-*-*-*--*-*-*-----------|
5-5-5-5-----------3--3-3-5-5-5------------3-3-5-5-5--1-1-1-----------|
5-5-5-5-----------3--3-3-5-5-5------------3-3-5-5-5--1-1-1-----------|

L
-----------------------------------------------------------------|
-----------------------------------------------------------------|
7-7-0-0-5-5-7-7-0-0-3-3-0-0-7-7-0-0-5-5-7-7--0-0-12-12-0-0-------|
-----------------------------------------------------------------|
-----------------------------------------------------------------|
-----------------------------------------------------------------|
R
----------------------------------------------------------------------|
----------------------------------------------------------------------|
----------------------------------------------------------------------|
*-*-*-*-------------*-*-*-*-*-*-*----------*-*-*-*-*--*-*-*-----------|
5-5-5-5-------------3-3-5-5-5-5-5----------3-3-5-5-5--1-1-1-----------|
5-5-5-5-------------3-3-5-5-5-5-5----------3-3-5-5-5--1-1-1-----------|


0:32
B
------------------------------------------------|
--------------------0---------------------------|
--------------------0---------------------------|
-5--0--1------------0-----------------R----L----|
-5--0--1------------------------------PS---PS---|
-5--0--1--------------------------------\----\--|

BOTH                                                 _
---------------------------^------------------------/ \---------------|
--------------------8-----6-8----------------8-----6-8-6--------------|
-------7--------------7------------------7-----7---------7-8-5-7------|
-*-8-*----*-***-*-*-----8------*****-8-*---*-----8---------------7-8--|
-5---5----5-555-5-5------------55555---5---5--------------------------|
-5---5----5-555-5-5------------55555---5---5--------------------------|


---------------------------^-----------------------------6-10-8----6--|
-------3------------3-----3-4-------6-------------6-8-10--------10----|
---3------------------3-0---------------5-----------------------------|
-*---*----*-***-*-*-----------*****---*---*-***-*---------------------|
-1---1----1-111-1-1-----------11113---3---3-333-3---------------------|
-1---1----1-111-1-1-----------11113---3---3-333-3---------------------|



0:48
 L                                                   _
---------------------------^------------------------/ \---------------|
--------------------8-----6-8----------------8-----6-8-6--------------|
-------7--------------7------------------7-----7---------7-8-5-7------|
-*-8-*----*-***-*-*-----8------*****-8-*---*-----8---------------7-8--|
-5---5----5-555-5-5------------55555---5---5--------------------------|
-5---5----5-555-5-5------------55555---5---5--------------------------|
R                                                    _
                           ^                        / \
--------------------6-----5-6----------------6-----5-6-5---------------|
-------6--------------6------------------6-----6---------6-8-4-6-------|
-*-7-*----*-***-*-*-----7------*****-7-*---*-----7---------------5-7---|
-5---5----5-555-5-5------------55555---5---5---------------------------|
-----------------------------------------------------------------------|
-----------------------------------------------------------------------|

L

---------------------------^-----------------------------6-10-8-11----|
-------3------------3-----3-4-------6-------------6-8-10----------10--|
---3------------------3-0---------------5-----------------------------|
-*---*----*-***-*-*-----------*****---*---*-***-*---------------------|
-1---1----1-111-1-1-----------11113---3---3-333-3---------------------|
-1---1----1-111-1-1-----------11113---3---3-333-3---------------------|
R                          ^
-------1------------1-----1-3-------5---------------------------------|
----------------------3-----------------6-------------6-8/11-10-13----|
-*-3-*----*-***-*-*-----3-----*****---*---*-***-*-7-8-------------10--|
-1---1----1-111-1-1-----------11113---3---3-333-3---------------------|
----------------------------------------------------------------------|
----------------------------------------------------------------------|

0:58
L
----------------------------------------------------------------|
----------------------------------------------------------------|
----------------------------------------------------------------|
--*--5-------5----*--5-------5----*--5-------5----*--5-------5--|
*-5-6-6-*-5-6-6-*-5-6-6-*-5-6-6-*-5-6-6-*-5-6-6-*-5-6-6-*-5-6-6-|
5-------5-------5-------5-------5-------5-------5-------5-------|
R
---------------------------------------------------------------|
---------------------------------------------------------------|
---------------------------------------------------------------|
5-----------------------------5--------------5-----------------|
5-----------------------------5--------------5-----------------|
5-----------------------------5--------------5-----------------|


L
---------------------------------------------------|
---------------------------------------------------|
---------------------------------------------------|
---*-8-10-12-----8-10-12---*-8-10-12-----8-10-12---|
-*-8---------*-8---------*-8---------*-8-----------|
-8-----------8-----------8-----------8-------------|
R
---------------------------------------------------|
---------------------------------------------------|
---------------------------------------------------|
-8------------------------8------------------------|
-8------------------------8------------------------|
-8------------------------8------------------------|

L
----------------6-------6-10-6--------10-6--------|
-------6----------8-6-8--------8-6-8--------------|
-----7---7----7-----------------------------------|
-*-8-------*-8------------------------------------|
-6---------6--------------------------------------|
--------------------------------------------------|
R
--------------------------------------------------|
--------------------------------------------------|
--------------------------------------------------|
-1---------------1--------------------------------|
-1---------------1--------------------------------|
-1---------------1--------------------------------|

L
---------------------------------------------------|
---------------------------------------------------|
-------------------------------------------10------|
---*-8-10-12-----8-10-12---*-8-10-12-----8----12---|
-*-8---------*-8---------*-8---------*-8-----------|
-8-----------8-----------8-----------8-------------|
R
---------------------------------------------------|
---------------------------------------------------|
---------------------------------------------------|
-8------------------------8------------------------|
-8------------------------8------------------------|
-8------------------------8------------------------|
1:15
L
-----------------------------------------|
-----------------------------------------|
-----------------------------------------|
---*--5------*--5------*--5---------5----|
-*-5-6-6-5-*-5-6-6-5-*-5-6-6-5-*-5-6-6-5-|
-5---------5---------5---------5---------|
R
-----------------------------------------|
-----------------------------------------|
-----------------------------------------|
-5--------------------5------------------|
-5--------------------5------------------|
-5--------------------5------------------|


L
---------------------------------------------------------------|
----------------------------------------------11-8-------------|
--------*---^----------*---^----------*---^--------10-7--------|
---*--*-8-10-12---*--*-8-10-12---*--*-8-10-12-----------10-8---|
-*-8-10---------*-8-10---------*-8-10--------------------------|
-8--------------8--------------8-------------------------------|
HARMONY
---------------------------------------------------------------|
---------------------------------------------------------------|
----------------------------------------------10-7-------------|
---------------------------------------------------10-8--------|
---------------------------------------------------------10-8--|
---------------------------------------------------------------|
R
---------------------------------------------------------------|
---------------------------------------------------------------|
---------------------------------10----------------------------|
--8------------------------------8-----------------------------|
--8------------------------------8-----------------------------|
--8------------------------------8-----------------------------|

-----------------6-------6-10-6-------6-10-8-11--|
-------6-----------8-6-8--------8-6-8------------|
-----7---7---------------------------------------|
-*-8-------8-*-8---------------------------------|
-6-----------6-----------------------------------|
-------------------------------------------------|
R
-------------------------------------------------|
-------------------------------------------------|
-------------------------------------------------|
-1-----------------1-----------------------------|
-1-----------------1-----------------------------|
-1-----------------1-----------------------------|


L
-----------------------------------------------------------10-|
---------------------------------------------------------11---|
--------*---^----------*---^----------*---^---10---10-12------|
---*--*-8-10-12---*--*-8-10-12---*--*-8-10-12---12------------|
-*-8-10---------*-8-10---------*-8-10-------------------------|
-8--------------8--------------8------------------------------|
R
--------------------------------------------------------------|
--------------------------------------------------------------|
---------------------------------10---------------------------|
--8------------------------------8----------------------------|
--8------------------------------8----------------------------|
--8------------------------------8----------------------------|

1:30
L
-----------------------------------------|
-----------------------------------------|
-----------------------------------------|
---*--5------*--5------*--5---------5----|
-*-5-6-6-5-*-5-6-6-5-*-5-6-6-5-*-5-6-6-5-|
-5---------5---------5---------5---------|

-----------------------------------------|
-----------------------------------------|
-----------------------------------------|
-*****---***-***-***-*****---***-***-***-|
-55555---555-555-555-55555---555-555-555-|
-55555---555-555-555-55555---555-555-555-|

L
---------------------------------------------------------------|
----------------------------------------------11-8-------------|
--------*---^----------*---^----------*---^--------10-7--------|
---*--*-8-10-12---*--*-8-10-12---*--*-8-10-12-----------10-8---|
-*-8-10---------*-8-10---------*-8-10--------------------------|
-8--------------8--------------8-------------------------------|
HARMONY
---------------------------------------------------------------|
---------------------------------------------------------------|
----------------------------------------------10-7-------------|
---------------------------------------------------10-8--------|
---------------------------------------------------------10-8--|
---------------------------------------------------------------|
R
---------------------------------------------------------------|
---------------------------------------------------------------|
---------------------------------------------------------------|
-*-*-*-*-*-*-*--------------------***-*-*-*-*-*-*--*-*-*-*-*-*-|
-8-8-8-8-8-8-8--------------------888-8-8-8-8-8-8--8-8-8-8-8-8-|
-8-8-8-8-8-8-8--------------------888-8-8-8-8-8-8--8-8-8-8-8-8-|


L
-----------------6-------6-10-6-------6-10-8-11--|
-------6-----------8-6-8--------8-6-8------------|
-----7---7---------------------------------------|
-*-8-------8-*-8---------------------------------|
-6-----------6-----------------------------------|
-------------------------------------------------|
R
-----------------------------------------------|
-----------------------------------------------|
-----------------------------------------------|
-*****----*-*****----*-****-*-*----****-*-*----|
-11111----1-11111----1-1111-1-1----1111-1-1----|
-11111----1-11111----1-1111-1-1----1111-1-1----|


L
-----------------------------------------------------------10-|
---------------------------------------------------------11---|
--------*---^----------*---^----------*---^---10---10-12------|
---*--*-8-10-12---*--*-8-10-12---*--*-8-10-12---12------------|
-*-8-10---------*-8-10---------*-8-10-------------------------|
-8--------------8--------------8------------------------------|
R
---------------------------------------------------------------|
---------------------------------------------------------------|
---------------------------------------------------------------|
-*-*-*-*-*-*-*----------------*-*-*-*-*-*-*-*-*-*-*-*-*-*------|
-8-8-8-8-8-8-8----------------8-8-8-8-8-8-8-8-8-8-8-8-8-8------|
-8-8-8-8-8-8-8----------------8-8-8-8-8-8-8-8-8-8-8-8-8-8------|


1:45
B
----------------------------------------------------------------|
----------------------------------------------------------------|
--------------------------------------------------------7-------|
-------------5-5-7-5---7---8-7-5------------5-5-8-7-------8-7---|
-*-*-5-5-*-*---------*---*-------*-*-5-5-*-*--------8-5-------8-|
-5-5-----5-5---------5---5-------5-5-----5-5--------------------|

-----------_-------------__-------------_-------------__-------|
----------/ \-----------/  \-----------/ \-----------/  \------|
-0---2---2-3-0-0---2---2--3-0-0---2---2-3-0-0---2---2--3-0-----|
---------------------------------------------------------------|
---*---*---------*---*----------*---*---------*---*------------|
---1---1---------1---1----------1---1---------1---1------------|


1:54
B
----------------------------------------------------------------|
----------------------------------------------------------------|
--------------------------------------------------------7-------|
-------------5-5-7-5---7---8-7-5------------5-5-8-7-------8-7---|
-*-*-5-5-*-*---------*---*-------*-*-5-5-*-*--------8-5-------8-|
-5-5-----5-5---------5---5-------5-5-----5-5--------------------|

-----------_-------------__-------------_----------------------|
----------/ \-----------/  \-----------/ \--------------6-8----|
-0---2---2-3-0-0---2---2--3-0-0---2---2-3-0-0-3-5-3-5-7--------|
---------------------------------------------------------------|
---*---*---------*---*----------*---*--------------------------|
---1---1---------1---1----------1---1--------------------------|
HARMONY
----------^-------------/\-------------^----------------8-10---|
-----1---1-3-------1---1--3-------1---1-3----------------------|
-3-----------3-3------------3-3-----------3/-7-8-7-8-10--------|
---*---*---------*---*----------*---*--------------------------|
---1---1---------1---1----------1---1--------------------------|
---------------------------------------------------------------|


2:02
L
---------__----------------__-----------__----------------__---|
--------/  \----^----^----/  \---------/  \----^----^----/  \--|
-12---10-14-0-15-0-14-0-10-12-0-12---10-14-0-15-0-14-0-10-12-0-|
---------------------------------------------------------------|
---------------------------------------------------------------|
---------------------------------------------------------------|
R
---------------------------------------------------------------|
---------------------------------------------------------------|
---------------------------------------------------------------|
-1-------*-*-*-*-*-*-*-*-*-*---1------*-*-*-*-*-*-*-*-*-*------|
-1-------1-1-1-1-1-1-1-1-1-1---1------1-1-1-1-1-1-1-1-1-1------|
-1-------1-1-1-1-1-1-1-1-1-1---1------1-1-1-1-1-1-1-1-1-1------|


L
---------__----------------__-----------__----------------__---|
--------/  \----^----^----/  \---------/  \----^----^----/  \--|
-12---10-14-0-15-0-14-0-10-12-0-12---10-14-0-15-0-14-0-10-12-0-|
---------------------------------------------------------------|
---------------------------------------------------------------|
---------------------------------------------------------------|

---------------------------------------------------------------|
---------------------------------------------------------------|
---------------------------------------------------------------|
-5-------*-*-*-*-*-*-*-*-*-*-*---5-----*-*-*-*-*-*-*-*-*-*-----|
-5-------5-5-5-5-5-5-5-5-5-5-5---5-----5-5-5-5-5-5-5-5-5-5-----|
-5-------5-5-5-5-5-5-5-5-5-5-5---5-----5-5-5-5-5-5-5-5-5-5-----|

L
---------__----------------__-----------__----------------__---|
--------/  \----^----^----/  \---------/  \----^----^----/  \--|
-15---14-17-0-19-0-17-0-14-15-0-15---14-17-0-19-0-17-0-14-15-0-|
---------------------------------------------------------------|
---------------------------------------------------------------|
---------------------------------------------------------------|
R
---------------------------------------------------------------|
---------------------------------------------------------------|
---------------------------------------------------------------|
-1-------*-*-*-*-*-*-*-*-*-*---1------*-*-*-*-*-*-*-*-*-*------|
-1-------1-1-1-1-1-1-1-1-1-1---1------1-1-1-1-1-1-1-1-1-1------|
-1-------1-1-1-1-1-1-1-1-1-1---1------1-1-1-1-1-1-1-1-1-1------|


L
---------__----------------__-----------__---------------------|
--------/  \----^----^----/  \---------/  \----^----^----------|
-15---14-17-0-19-0-17-0-14-15-0-15---14-17-0-19-0-17-0-15/19---|
---------------------------------------------------------------|
---------------------------------------------------------------|
---------------------------------------------------------------|
R
---------------------------------------------------------------|
---------------------------------------------------------------|
---------------------------------------------------------------|
-8--------*-*-*-*-*-*-*-*-*-*---8------*-*-*-*-*-*-*-----------|
-8--------8-8-8-8-8-8-8-8-8-8---8------8-8-8-8-8-8-8-----------|
-8--------8-8-8-8-8-8-8-8-8-8---8------8-8-8-8-8-8-8-----------|


2:17
B
---------------------------------------------------------------------|
---------------------------------------------------------------------|
---------------------------------------------------------------------|
5-5-8-8-1--*-*-*--5-5-8-8-1---5-5-8-8-1---*-*--*-*-*-*-5-5-5-8-8-1--1|
5-5-8-8-1--1-1-1--5-5-8-8-1---5-5-8-8-1---1-1--1-1-1-1-5-5-5-8-8-1--1|
5-5-8-8-1--1-1-1--5-5-8-8-1---5-5-8-8-1---1-1--1-1-1-1-5-5-5-8-8-1|-1|


2:27
B
-------------------------------------------------------|
-------------------------------------------------------|
7-7--7--7--7-------------------------------------------|
5-5--5--5--5--5-5--5--5--5--8-8--8--8--8---8-8--8--8--8|
5-5--5--5--5--3-3--3--3--3--6-6--6--6--6---6-6--6--6--6|
--------------5-5--5--5--5--8-8--8--8--8---8-8--8--8--8|

-------------------------------------------------------|
-------------------------------------------------------|
7-7--7--7--7-------------------------------------------|
5-5--5--5--5--5-5--5--5--5--8-8--8--8--8---8-8--8--8--8|
5-5--5--5--5--3-3--3--3--3--6-6--6--6--6---6-6--6--6--6|
--------------5-5--5--5--5--8-8--8--8--8---8-8--8--8--8|

2:36

SOLO/RYTHM KEEPS REPEATING
----------------------------------------------------------------6-10-6-|
---------------------------------------------------------10-8-10-------|
10-12--10-12-10----------------------------------5-7--7-8--------------|
---------------13-12-10-12-10---------------8-7-8---5------------------|
-----------------------------13-12-10---8-10---------------------------|
-----------------------------------------------------------------------|

2:41
----------------------------------------------------------------|
---------------------------------------------------15-13-15-16--|
-7-------7-------10-*-10-*-12---10---14-15-14-15-17-------------|
---8-7-8---8-7-8----8----8----*---------------------------------|
-----------------------------10---------------------------------|
----------------------------------------------------------------|
 
2:45
                                                        __
                           )(              ) (         /  \
-15----15-17-18-17-18-20-22--------------22----------18-20-18----|
----16------------------------23-20---23-------23-20----------20-|
-----------------------------------------------------------------|
-----------------------------------------------------------------|
-----------------------------------------------------------------|
-----------------------------------------------------------------|

 2:48
    __
---/  \----------------------------------------------|
-18-20-18--------------------------------------------|
----------20-19-------------20-19-------------20-19--|
----------------20-19-17-19-------20-17-19-20--------|
-----------------------------------------------------|
-----------------------------------------------------|


2:50
---------------^--------------^----------------------|
-------------15-13---^------15-13---^--------^-------|
-15--*-14--*-------14-15--*-------14-15--*-14-15-----|
----13----13-------------13-------------13-----------|
-----------------------------------------------------|
-----------------------------------------------------|

2:52 
                                   )(
-------13-10-------13-15-13-15-17-22---20--22--20--18----|
--^--11------11/15---------------------------------------|
10-12----------------------------------------------------|
---------------------------------------------------------|
---------------------------------------------------------|
---------------------------------------------------------|

2:54
B
----------------------------------------------------------------------|
----------------------------------------------------------------------|
----------------------------------------------------------------------|
5-5-5-8-8-1--*-*-*--5-5-5-8-8-1---5---8---1--*-*--*-*-*-*-5-5-5-8-8-1-|
5-5-5-8-8-1--1-1-1--5-5-5-8-8-1---5---8---1--1-1--1-1-1-1-5-5-5-8-8-1-|
5-5-5-8-8-1--1-1-1--5-5-5-8-8-1---5---8---1--1-1--1-1-1-1-5-5-5-8-8-1-|


3:04
L
------------------------------------------------------|
------------------------------------------------------|
------------------------------------------------------|
5--------------------------1--------------------------|
5--------------------------1--------------------------|
5--------------------------1--------------------------|
R
------------------------------------------------------|
------------------------------------------------------|
------------------------------------------------------|
*--****-*-****-*-****-***-*--****--*-****-*-****-***--|
5--5555-5-5555-5-5555-555-1--1111--1-1111-1-1111-111--|
5--5555-5-5555-5-5555-555-1--1111--1-1111-1-1111-111--|


L
------------------------------------------------------|
------------------------------------------------------|
------------------------------------------------------|
5--------------------------1--------------------------|
5--------------------------1--------------------------|
5--------------------------1--------------------------|
R
------------------------------------------------------|
------------------------------------------------------|
------------------------------------------------------|
*--****-*-****-*-****-***-*--****--*-****-*-****-***--|
5--5555-5-5555-5-5555-555-1--1111--1-1111-1-1111-111--|
5--5555-5-5555-5-5555-555-1--1111--1-1111-1-1111-111--|


3:16
L
------------------------------------------------------|
------------------------------------------------------|
---------------------------12--10-12-10-12/14-14-15---|
-10/12---10-12-10-12/15-15----------------------------|
------------------------------------------------------|
------------------------------------------------------|
R
------------------------------------------------------|
------------------------------------------------------|
------------------------------------------------------|
*--****-*-****-*-****-***-*--****--*-****-*-****-***--|
5--5555-5-5555-5-5555-555-1--1111--1-1111-1-1111-111--|
5--5555-5-5555-5-5555-555-1--1111--1-1111-1-1111-111--|


L                                                    __
---------------13----------22------22------22-------/  \-------|
-15-----15---------------------18------18------18/20----23--23-|
----15------15-------------------------------------------------|
---------------------------------------------------------------|
---------------------------------------------------------------|
---------------------------------------------------------------|
R
---------------------------------------------------------------|
---------------------------------------------------------------|
---------------------------------------------------------------|
*-*-*-*-*-*-*-*-*-*-*-*-*-*-*-*-*-*-*-*-*-*-*-*-*-*-*-*-*-*-*-*|
5-5-5-5-5-5-5-5-5-5-5-5-5-5-5-5-1-1-1-1-1-1-1-1-1-1-1-1-1-1-1-1|
5-5-5-5-5-5-5-5-5-5-5-5-5-5-5-5-1-1-1-1-1-1-1-1-1-1-1-1-1-1-1-1|


3:32
L
--------------------------------------------6-6-10-10-11-11----|
--------------------------------8-8-6-6-8-8--------------------|
-10-10----------------7-7---7-7--------------------------------|
-------8-8-7-7-5-5-8-8---8-8-----------------------------------|
---------------------------------------------------------------|
---------------------------------------------------------------|
R
---------------------------------------------------------------|
---------------------------------------------------------------|
---------------------------------------------------------------|
-*---*-*-*-*--*--*-*-*-*--*--*-*-*-*---*-*-*-*---*--*-*-*------|
-5---5-5-5-5--5--5-5-5-5--5--5-5-5-5---5-5-5-5---5--5-5-5------|
-5---5-5-5-5--5--5-5-5-5--5--5-5-5-5---5-5-5-5---5--5-5-5------|


L ^            ^            ^    ^    ^            ^            ^    ^
10-6--^---^--10-6--^---^--11-6-10-6-10-6--^---^--10-6--^---^--11-6-10-6|
----10-6-8-10----10-6-8-6---------------10-6-8-10----10-6-8-6----------|
-----------------------------------------------------------------------|
-----------------------------------------------------------------------|
-----------------------------------------------------------------------|
-----------------------------------------------------------------------|
R
---------------------------------------------------------------|
---------------------------------------------------------------|
---------------------------------------------------------------|
-*---*-*-*-*--*--*-*-*-*--*--*-*-*-*---*-*-*-*---*--*-*-*------|
-1---1-1-1-1--1--1-1-1-1--1--1-1-1-1---1-1-1-1---1--1-1-1------|
-1---1-1-1-1--1--1-1-1-1--1--1-1-1-1---1-1-1-1---1--1-1-1------|


L
--------------------------------------------6-6-10-10-11-11----|
--------------------------------8-8-6-6-8-8--------------------|
-10-10----------------7-7---7-7--------------------------------|
-------8-8-7-7-5-5-8-8---8-8-----------------------------------|
---------------------------------------------------------------|
---------------------------------------------------------------|
R
---------------------------------------------------------------|
---------------------------------------------------------------|
---------------------------------------------------------------|
-*---*-*-*-*--*--*-*-*-*--*--*-*-*-*---*-*-*-*---*--*-*-*------|
-5---5-5-5-5--5--5-5-5-5--5--5-5-5-5---5-5-5-5---5--5-5-5------|
-5---5-5-5-5--5--5-5-5-5--5--5-5-5-5---5-5-5-5---5--5-5-5------|


L ^            ^            ^    ^    ^            ^            ^    ^
10-6--^---^--10-6--^---^--11-6-10-6-10-6--^---^--10-6--^---^--11-6-10-6|
----10-6-8-10----10-6-8-6---------------10-6-8-10----10-6-8-6----------|
-----------------------------------------------------------------------|
-----------------------------------------------------------------------|
-----------------------------------------------------------------------|
-----------------------------------------------------------------------|

R
---------------------------------------------------------------|
---------------------------------------------------------------|
---------------------------------------------------------------|
-*---*-*-*-*--*--*-*-*-*--*--*-*-*-*---*-*-*-*---*--*-*-*------|
-1---1-1-1-1--1--1-1-1-1--1--1-1-1-1---1-1-1-1---1--1-1-1------|
-1---1-1-1-1--1--1-1-1-1--1--1-1-1-1---1-1-1-1---1--1-1-1------|


3:48

L
--------------------------------------------6-6-10-10-11-11----|
--------------------------------8-8-6-6-8-8--------------------|
-10-10----------------7-7---7-7--------------------------------|
-------8-8-7-7-5-5-8-8---8-8-----------------------------------|
---------------------------------------------------------------|
---------------------------------------------------------------|
HARMONY
------------------------------------------------------------------------|
----------------------------------------------8-8-11-11-8-8-11-11-13-13-|
----------------------------------8-8-7-7-8-8---------------------------|
12-12-------------5-5-8-8-5-5-8-8---------------------------------------|
-----10-10-8-8-6-6------------------------------------------------------|
------------------------------------------------------------------------|


R
---------------------------------------------------------------|
---------------------------------------------------------------|
---------------------------------------------------------------|
-*---*-*-*-*--*--*-*-*-*--*--*-*-*-*---*-*-*-*---*--*-*-*------|
-5---5-5-5-5--5--5-5-5-5--5--5-5-5-5---5-5-5-5---5--5-5-5------|
-5---5-5-5-5--5--5-5-5-5--5--5-5-5-5---5-5-5-5---5--5-5-5------|


L ^            ^            ^    ^    ^            ^            ^    ^
10-6--^---^--10-6--^---^--11-6-10-6-10-6--^---^--10-6--^---^--11-6-10-6|
----10-6-8-10----10-6-8-6---------------10-6-8-10----10-6-8-6----------|
-----------------------------------------------------------------------|
-----------------------------------------------------------------------|
-----------------------------------------------------------------------|
-----------------------------------------------------------------------|
HARMONY
  ^               ^                ^     ^     ^    
13-10--^-----^--13-10--^-----^---15-10-13-10-13-10-|
-----13-10-11-13-----13-10-11-10-------------------|
---------------------------------------------------|
---------------------------------------------------|
---------------------------------------------------|
---------------------------------------------------|

  ^               ^                ^     ^        
13-10--^-----^--13-10--^-----^---15-10-13-10-------|
-----13-10-11-13-----13-10-11-10-------------------|
---------------------------------------------------|
---------------------------------------------------|
---------------------------------------------------|
---------------------------------------------------|
R
---------------------------------------------------------------|
---------------------------------------------------------------|
---------------------------------------------------------------|
-*---*-*-*-*--*--*-*-*-*--*--*-*-*-*---*-*-*-*---*--*-*-*------|
-1---1-1-1-1--1--1-1-1-1--1--1-1-1-1---1-1-1-1---1--1-1-1------|
-1---1-1-1-1--1--1-1-1-1--1--1-1-1-1---1-1-1-1---1--1-1-1------|



L
--------------------------------------------6-6-10-10-11-11----|
--------------------------------8-8-6-6-8-8--------------------|
-10-10----------------7-7---7-7--------------------------------|
-------8-8-7-7-5-5-8-8---8-8-----------------------------------|
---------------------------------------------------------------|
---------------------------------------------------------------|
HARMONY
------------------------------------------------------------------------|
----------------------------------------------8-8-11-11-8-8-11-11-13-13-|
----------------------------------8-8-7-7-8-8---------------------------|
12-12-------------5-5-8-8-5-5-8-8---------------------------------------|
-----10-10-8-8-6-6------------------------------------------------------|
------------------------------------------------------------------------|


R
---------------------------------------------------------------|
---------------------------------------------------------------|
---------------------------------------------------------------|
-*---*-*-*-*--*--*-*-*-*--*--*-*-*-*---*-*-*-*---*--*-*-*------|
-5---5-5-5-5--5--5-5-5-5--5--5-5-5-5---5-5-5-5---5--5-5-5------|
-5---5-5-5-5--5--5-5-5-5--5--5-5-5-5---5-5-5-5---5--5-5-5------|


L ^            ^            ^    ^    ^            ^            ^    ^
10-6--^---^--10-6--^---^--11-6-10-6-10-6--^---^--10-6--^---^--11-6-10-6|
----10-6-8-10----10-6-8-6---------------10-6-8-10----10-6-8-6----------|
-----------------------------------------------------------------------|
-----------------------------------------------------------------------|
-----------------------------------------------------------------------|
-----------------------------------------------------------------------|
HARMONY
  ^               ^                ^     ^     ^    
13-10--^-----^--13-10--^-----^---15-10-13-10-13-10-|
-----13-10-11-13-----13-10-11-10-------------------|
---------------------------------------------------|
---------------------------------------------------|
---------------------------------------------------|
---------------------------------------------------|

  ^               ^                ^     ^         
13-10--^-----^--13-10--^-----^---15-10-13-10-------|
-----13-10-11-13-----13-10-11-10-------------------|
---------------------------------------------------|
---------------------------------------------------|
---------------------------------------------------|
---------------------------------------------------|
R
---------------------------------------------------------------|
---------------------------------------------------------------|
---------------------------------------------------------------|
-*---*-*-*-*--*--*-*-*-*--*--*-*-*-*---*-*-*-*---*--*-*-*------|
-1---1-1-1-1--1--1-1-1-1--1--1-1-1-1---1-1-1-1---1--1-1-1------|
-1---1-1-1-1--1--1-1-1-1--1--1-1-1-1---1-1-1-1---1--1-1-1------|

4:05

L ^            ^            ^    ^    ^            ^            ^   ^
10-6--^---^--10-6--^---^--11-6-10-6-10-6--^---^--10-6--^---^-11-6-10-6/15|
----10-6-8-10----10-6-8-6---------------10-6-8-10----10-6-8-6------------|
-------------------------------------------------------------------------|
-------------------------------------------------------------------------|
-------------------------------------------------------------------------|
-------------------------------------------------------------------------|
HARMONY
  ^               ^                ^     ^     ^    
13-10--^-----^--13-10--^-----^---15-10-13-10-13-10-|
-----13-10-11-13-----13-10-11-10-------------------|
---------------------------------------------------|
---------------------------------------------------|
---------------------------------------------------|
---------------------------------------------------|

  ^               ^                ^     ^         
13-10--^-----^--13-10--^-----^---15-10-13-10/15----|
-----13-10-11-13-----13-10-11-10-------------------|
---------------------------------------------------|
---------------------------------------------------|
---------------------------------------------------|
---------------------------------------------------|

--------------------------------------------|
--------------------------------------------|
--------------------------------------------|
-1---------------------------5--------------|
-1---------------------------5--------------|
-1|--------------------------5--------------|
comments
print report bad tab
1 comment total.
0 reply
andherembrace wrote on March 15 2012, 12:17 pm

1st part after the 5-5-7-7 the 3rd time get rid of the 0-0-3-3- on each part

I want to post or [tab]
guest
You may want to rate the tab now too:
select rating
Please do not post tabs as comments. Select "correction" instead!