Oops, an error
Loading. Please wait.

Paradox Tab

10,004 views 12 this week
1 commentread comment
1 2 3 4 5
excellent!
x 5
Autoscroll
+/-
esc
set tempo
stop
Contributor
Difficulty
Tuning
intermediate
C G C F A D
WARNING: You are trying to view
                                    content from Ultimate-Guitar.com
                                    in an unauthorized application,
                                    which is prohibited.

                                    Please use an official Ultimate
                                    Guitar Tabs application for iPhone,
                                    iPad or Android to access legitimate
                                    chords, guitar, bass, and drum tabs
                                    from Ultimate-Guitar.com database.

                                    Type "ultimate guitar tabs" in Apple
                                    App Store's or Android Market's
                                    search to find the application.
[Paradox]
[Constellations]
[August Burns Red]

Tuning: CGCFAD (Drop C or Drop D One Step Down)
joshuaoliveira@hotmail.com

[Riff 1] - [00:00] - [00:15]----------------------------------------| 2x
- ------------------------------------------------------------------|
- ------------------------------------------------------------------|
- ------------------------------------------------------------------|
- ---------------------------------8p0-5h8p0-5h8p0-8p5p0h5h8p0-5p0--|
- -8p0-5h8p0-5h8p0-8p5p0h5h8p0-5p0----------------------------------|
- ------------------------------------------------------------------|

- -----------------------------------------------------------------|
- -----------------------------------------------------------------|
- -----------------------------------------------------------------|
- -----------------------------------------------------------------|
- -8p0-5h8p0-5h8p0-8p5p0h5h8p0-5p0-7p0-4h7p0-4h7p0-7p4p0h4h5p0-1p0-|
- -----------------------------------------------------------------|

[Riff 2a] - [00:00] - [00:07]
- -------------|
- -------------|
- -------------|
- -7~-5~-7~-7~-|
- -5~-5~-5~-7~-|
- -0~-5~-0~-7~-|

[Riff 2b] - [00:07] - [00:15]
- ---------------------------------------------------------------------|
- ---------------------------------------------------------------------|
- ---------------------------------------------------------------------|
- -7----------------8----------------7----------------7----------------|
- -5-55555555555555-8-88888888888888-5-55555555555555-7-77777777777777-|
- -0-00000000000000-8-88888888888888-0-00000000000000-7-77777777777777-|
PM   ..............   ..............   ..............   ..............

----------------------------------------------------------------------------

[Riff 3, Guitar 1 & 2] - [00:15] - [00:30]
- -------------------------------------------------------------------| 1
- -------------------------------------------------------------------|
- -------------------------------------------------------------------|
- -7---3h7---3h7----7p3p0h3h7---3--12--8h12--8h12---12p8p0h8h12--8---|
- -------------------------------------------------------------------|
- ---0-----0-----0-------------0--0---0-----0-----0-------------0--0-|
PM   .     .     .             .  .   .     .     .             .  .
-
- -------------------------------------------------------------------|
- -------------------------------------------------------------------|
- -------------------------------------------------------------------|
- ----------------------------------8---5h8---5h8----8p5p0h5h8---5---|
- -8---5h8---5h8----8p5p0h5h8---5------------------------------------|
- ---0-----0-----0-------------0--0---0-----0-----0-------------0--0-|
PM   .     .     .             .  .   .     .     .             .  .


- -------------------------------------------------------------------| 2
- -------------------------------------------------------------------|
- -------------------------------------------------------------------|
- -7---3h7---3h7----7p3p0h3h7---3------------------------------------|
- ----------------------------------7---4h7---4h7----7p4p0h4h5---1---|
- ---0-----0-----0-------------0--0---0-----0-----0-------------0--0-|
PM   .     .     .             .  .   .     .     .             .  .
-
- -------------------------------------------------------------------|
- -------------------------------------------------------------------|
- -------------------------------------------------------------------|
- -------------------------------------------------------------------|
- -8---5h8---5h8----8p5p0h5h8---5--12--7h12--7h12---12p7p0h7h8---5---|
- ---0-----0-----0-------------0--0---0-----0-----0-------------0--0-|
PM   .     .     .             .  .   .     .     .             .  .


- -------------------------------------------------------------------| 3
- -------------------------------------------------------------------|
- -------------------------------------------------------------------|
- -7---3h7---3h7----7p3p0h3h7---3--12--8h12--8h12---12p8p0h8h12--8---|
- -------------------------------------------------------------------|
- ---0-----0-----0-------------0--0---0-----0-----0-------------0--0-|
PM   .     .     .             .  .   .     .     .             .  .
-
- -------------------------------------------------------------------|
- -------------------------------------------------------------------|
- -------------------------------------------------------------------|
- -12-7h12--7h12---12p7p0h7h12--7--15--12h15-12h5--15p12p0h12h15-12--|
- -------------------------------------------------------------------|
- ---0-----0-----0-------------0--0---0-----0-----0-------------0--0-|
PM   .     .     .             .  .   .     .     .             .  .


- -------------------------------------------------------------------| 4
- -------------------------------------------------------------------|
- -------------------------------------------------------------------|
- -7---3h7---3h7----7p3p0h3h7---3------------------------------------|
- ----------------------------------7---4h7---4h7----7p4p0h4h5---1---|
- ---0-----0-----0-------------0--0---0-----0-----0-------------0--0-|
PM   .     .     .             .  .   .     .     .             .  .
-
- -------------------------------------------------------------------|
- -------------------------------------------------------------------|
- -------------------------------------------------------------------|
- -12-12h15-12h15-15p12p0h12h15-12-----------------------------------|
- ---------------------------------12--7h12--7h12---12p7p0h7h8---5---|
- ---0-----0-----0-------------0--0---0-----0-----0-------------0--0-|
PM   .     .     .             .  .   .     .     .             .  .

----------------------------------------------------------------------------

[Riff 4] - [00:30] - [00:35]
- --------------------|
- --------------------|
- --------------------|
- -0~-----///---------|
- -0~-----///-15\-0---|
- -0~-----///-----0---|
PM                .

----------------------------------------------------------------------------

[Riff 5] - [00:35] - [00:41]
- ----------------------------------------------------------------------|
- ---------------------------------------10-----------------------------|
- -----7---9h10---7-----7---9h10---7----------10---9---7---7---9h10---7-|
- ----------------------------------------------------------------------|
- ----------------------------------------------------------------------|
- -0-0---0------0---0-0---0------0---0-0----0----0---0---0---0------0---|
PM ...   .      .   ...   .      .   ...    .    .   .   .   .      .

- -----------------------------------------------------|
- ----------------------10-----------------------------|
- -----7---9h10---7----------10---9---7---7---9h10---7-|
- -----------------------------------------------------|
- -----------------------------------------------------|
- -0-0---0------0---0-0----0----0---0---0---0------0---|
PM ...   .      .   ...    .    .   .   .   .      .

[Riff 6, Guitar 1 & 2] - [00:41] - [00:55]-------------------------------| 2x
- -----------------------------------------------------------------------|
- ---------------------------------------10------------------------------|
- ----7---9h10---7-----7---9h10---7-----------10--9---7---7---9h10---7---|
- -----------------------------------------------------------------------|
- -----------------------------------------------------------------------|
- -0-0---0------0---0-0---0------0---0-0----0----0---0---0---0------0----|
PM ...   .      .   ...   .      .   ...    .    .   .   .   .      .
-
- ----------------------------------------------------------------------|
- ---------------------------------------13-----------------------------|
- ----10--12h14--10----10--12h14--10----------14--12--10--10--12h14--10-|
- ----------------------------------------------------------------------|
- ----------------------------------------------------------------------|
- -0-0---0------0---0-0---0------0---0-0----0----0---0---0---0------0---|
PM ...   .      .   ...   .      .   ...    .    .   .   .   .      .


- ------------------------------------------------------|
- ----------------------10------------------------------|
- ----7---9h10---7-----------10--9---7---7---9h10---7---|
- ------------------------------------------------------|
- ------------------------------------------------------|
- -0-0---0------0---0-0----0----0---0---0---0------0----|
PM ...   .      .   ...    .    .   .   .   .      .
-
- -----------------------------------------------------|
- ----------------------13-----------------------------|
- ----10--12h14--10----------14--12--10--10--12h14--10-|
- -----------------------------------------------------|
- -----------------------------------------------------|
- -0-0---0------0---0-0----0----0---0---0---0------0---|
PM ...   .      .   ...    .    .   .   .   .      .

----------------------------------------------------------------------------

[Riff 7] - [00:55] - [01:18]---------| 3x
- -----------------------------------|
- -----------------------------------|
- -----------------------------------|
- -----------------------------------|
- -0000--0--0--00-0----00000000-000--|
- -0000--0--0--00-0----00000000-000--|
PM ................................

- ----------------------------------|
- ----------------------------------|
- ----------------------------------|
- ----------------------------------|
- -0000--0--0--00-0----00000000--0--|
- -0000--0--0--00-0----00000000--0--|
PM ................................


[Riff 8] - [01:03] - [01:18]-----------------------------------| 4x
- -------------------------------------------------------------|
- --------------------------------------------------------14---|
- -7--7--9--7--10--10--9--12--10--10--12--10--14--14--12-------|
- --0--0--0--0---0---0--0---0---0---0---0---0---0---0---0---0--|
- -------------------------------------------------------------|
- -------------------------------------------------------------|
PM  .  .  .  .   .   .  .   .   .   .   .   .   .   .   .   .

----------------------------------------------------------------------------

[Riff 9, Guitar 1 & 2] - [01:18] - [01:35]---------------------------| 2x
- -------------------------------------------------------------------|
- -------------------------------------------------------------------|
- -------------------------------------------------------------------|
- ---------------7p0-------------7----------------7---5--------------|
- -8---0---0h7h8-------0---0h7h8-------0----0h7h8-------8-7-8-7-5----|
- ---0---0-----------0---0---------0-0---0----------0-------------0--|
PM   .   .           .   .         ...   .          ...........   .
-
- ------------------------------------------------------------------|
- ------------------------------------------------------------------|
- ------------------------------------------------------------------|
- ---------------7p0-------------7----------------7---5-------------|
- -8---0---0h7h8-------0---0h7h8-------0----0h7h8-------8-7-8-7-5---|
- ---0---0-----------0---0---------0-0---0----------0-------------0-|
PM   .   .           .   .         ...   .          ...........   .


- -------------------------------------------------------------------------|
- -------------------------------------------------------------------------|
- -------------------------------------------------------------------------|
- ---------------7p0---------------7------------------7----5---------------|
- -8---0---0h7h8-------0---0h7h8----------0---0h7h8----------8-7--8--7-5---|
- ---0---0-----------0---0------------0-0---0------------0---------------0-|
PM   .   .           .   .            ...   .            .............   .
-
- -------------------------------------------------------------------------|
- -------------------------------------------------------------------------|
- -------------------------------------------------------------------------|
- ---------------3p0---------------10-----------------10---8-7----8--------|
- -5---0---0h3h5-------8---8h10h12--------8---8h10h12----------10---10-8---|
- ---0---0-----------0---0------------0-0---0------------0---------------0-|
PM   .   .           .   .            ...   .            .............   .

[Riff 10] - [01:27] - [01:34]
- -----------------------------------------------------------------|
- -----------------------------------------------------------------|
- -----------------------------------------------------------------|
- -----------------------------------------------------------------|
- -00000---00000---00000---0------0-0000---00000---00000---0-------|
- -00000---00000---00000---0------0-0000---00000---00000---0-------|
PM .........................................................

----------------------------------------------------------------------------

[Riff 11] - [01:35] - [01:51]
- -----------------------------------------------------------------|
- -----------------------------------------------------------------|
- -----------------------------------------------------------------|
- -8p0-5h8p0-5h8p0-8p5p0h5h8p0-5p0---------------------------------|
- ---------------------------------8p0-5h8p0-5h8p0-8p5p0h5h8p0-5p0-|
- -----------------------------------------------------------------|

- -----------------------------------------------------------------|
- -----------------------------------------------------------------|
- -----------------------------------------------------------------|
- -----------------------------------------------------------------|
- -7p0-4h7p0-4h7p0-7p4p0h4h7p0-4p0-8p0-5h8p0-5h8p0-8p5p0h5h8p0-5p0-|
- -----------------------------------------------------------------|

- --------------------------------------|
- --------------------------------------|
- --------------------------------------|
- -12p0-8h12p0-8h12p0-12p8p0h8h12p0-8p0-|
- --------------------------------------|
- --------------------------------------|

- -------------------------------------------|
- -------------------------------------------|
- -------------------------------------------|
- -15p0-12h15p0-12h15p0-15p12p0h12h15p0-12p0-|
- -------------------------------------------|
- -------------------------------------------|

- -------------------------------------------|
- -------------------------------------------|
- -------------------------------------------|
- -14p0-11h14p0-11h14p0-14p11p0h11h14p0-11p0-|
- -------------------------------------------|
- -------------------------------------------|

- -------------------------------------------|
- -------------------------------------------|
- --------------------------------------19\--|
- -19-0-15h19p0-15h19p0-19p15p0h15h19p0------|
- -------------------------------------------|
- -------------------------------------------|

[Riff 12a] - [01:35] - [01:43]
- --------------|
- --------------|
- -----7-----7--|
- -12--7--7--7--|
- -8---5--7--5--|
- -8---0--7--0--|

[Riff 12b] - [01:43] - [01:51]
- ---------------------------------------------------------------------|
- ---------------------------------------------------------------------|
- ---------------------------------------------------------------------|
- -8----------------7----------------7----------------7----------------|
- -8-88888888888888-5-55555555555555-7-77777777777777-5-55555555555555-|
- -8-88888888888888-0-00000000000000-7-77777777777777-0-00000000000000-|
PM   ..............   ..............   ..............   ..............

----------------------------------------------------------------------------

[Riff 13] - [01:51] - [01:58]
- ----------------------------------------------------------------------|
- ---------------------------------------------------10-----------------|
- -----7---9h10---7-----7---9h10---7----------------------10---9h10---7-|
- ----------------------------------------------------------------------|
- ----------------------------------------------------------------------|
- -0-0---0------0---0-0---0------0---0-0-0-0-0-0-0-0----0----0------0---|
PM ...   .      .   ...   .      .   ...............    .    .      .

- -----------------------------------------------------|
- ----------------------------------10-----------------|
- -----7---9h10---7----------------------10---9h10---7-|
- -----------------------------------------------------|
- -----------------------------------------------------|
- -0-0---0------0---0-0-0-0-0-0-0-0----0----0------0---|
PM ...   .      .   ...............    .    .      .

[Riff 14, Guitar 1 & 2] - [0158] - [02:06]
- ----------------------------------------------------------------------|
- ---------------------------------------------------10-----------------|
- -----7---9h10---7-----7---9h10---7----------------------10---9h10---7-|
- ----------------------------------------------------------------------|
- ----------------------------------------------------------------------|
- -0-0---0------0---0-0---0------0---0-0-0-0-0-0-0-0----0----0------0---|
PM ...   .      .   ...   .      .   ...............    .    .      .
-
- ----------------------------------------------------------------------|
- ---------------------------------------------------13-----------------|
- ----10--12h14--10----10--12h14--10----------------------14--12h14--10-|
- ----------------------------------------------------------------------|
- ----------------------------------------------------------------------|
- -0-0---0------0---0-0---0------0---0-0-0-0-0-0-0-0----0----0------0---|
PM ...   .      .   ...   .      .   ...............    .    .      .


- -----------------------------------------------------|
- ----------------------------------10-----------------|
- -----7---9h10---7----------------------10---9h10---7-|
- -----------------------------------------------------|
- -----------------------------------------------------|
- -0-0---0------0---0-0-0-0-0-0-0-0----0----0------0---|
PM ...   .      .   ...............    .    .      .
-
- -----------------------------------------------------|
- ----------------------------------13-----------------|
- ----10--12h14--10----------------------14--12h14--10-|
- -----------------------------------------------------|
- -----------------------------------------------------|
- -0-0---0------0---0-0-0-0-0-0-0-0----0----0------0---|
PM ...   .      .   ...............    .    .      .

[Riff 15] - [01:58] - [02:05]
- ----------------------------------------------------------|
- ----------------------------------------------------------|
- ----------------------------------------------------------|
- ----------------------------------------------------------|
- -0-----0---------00000000-------00-0-----000000000--------|
- -0-----0---------00000000-------00-0-----000000000--------|
PM .................................................

[Riff 6, Guitar 1 & 2] - [02:06] - [02:13]

----------------------------------------------------------------------------

[Riff 16] - [02:13] - [02:28] -| 4x
- -----------------------------|
- -----------------------------|
- -----------------------------|
- -----------------------------|
- -000--0-0000-0-000--0-0000-0-|
- -000--0-0000-0-000--0-0000-0-|
PM ...........................

[Riff 17] - [02:13] - [02:28]---------------------------------------| 4x
- ------------------------------------------------------------------|
- ---------10h11-------------------------------------10h11----------|
- ------10-------12p9h10----------------10h12p0------------12p9h10--|
- -12p0------------------12p10h12---------------0h12----------------|
- --------------------------------13p12-----------------------------|
- ------------------------------------------------------------------|

- ----------------|-----|
- ----------------|-----|
- ----------------|-10~-|   End on 10
- -12p10h12-------|-----|
- ----------13p12-|-----|
- ----------------|-----|

----------------------------------------------------------------------------

[Riff 16] - [02:28] - [02:35] - 2x

----------------------------------------------------------------------------

[Riff 17] - [02:35] - [03:19]-------------------------------| 6x
- ----------------------------------------------------------|
- ----------------------------------------------------------|
- ----------------------------------------------------------|
- ----------------------------------------------------------|
- -333--3-3333-3-333--3-3333-3-333--0-0000-0-000--0-0000-0--|
- -333--3-3333-3-333--3-3333-3-333--0-0000-0-000--0-0000-0--|
PM .......................................................

[Riff 18, Guitar 1] - [02:35] - [03:19]--------------------------------| 6x
- ---------------------------------------------------------------------|
- ---------------------------------------9-----------------------------|
- -----7---9h10---7-----7---9h10---7---------10---9---7---7-9h10---7---|
- -8-8---8------8---8-8---8------8---8-8---8----8---8---8--------8-----|
- ---------------------------------------------------------------------|
- ---------------------------------------------------------------------|
PM ...   .      .   ...   .      .   ...   .    .   .   .        .

- --------------------------------------------------|
- ----------------------9---------------------------|
- -----7---9h10---7---------10---9---7---7-9h10---7-|
- -8-8---8------8---8-8---8----8---8---8--------8---|
- --------------------------------------------------|
- --------------------------------------------------|
PM ...   .      .   ...   .    .   .   .        .

[Riff 18, Guitar 2] - [02:50] - [03:19]--------------------------------------| 4x
- ---------------------------------------------------------------------------|
- -------------------------------------------------------12------------------|
- -------10----12h14----10-------10----12h14----10-------------14----10------|
- -12-12----12-------12----12-12----12-------12----12-12----12----12----12---|
- ---------------------------------------------------------------------------|
- ---------------------------------------------------------------------------|
PM .....    ..       ..    .....    ..       ..    .....    ..    ..    ..

- -------------------------------------------------------------------------|
- -------------------------------------------------12----------------------|
- -10----12h14----10-------10----12h14----10-------------14----12----10----|
- ----12-------12----12-12----12-------12----12-12----12----12----12----12-|
- -------------------------------------------------------------------------|
- -------------------------------------------------------------------------|
PM    ..       ..    .....    ..       ..    .....    ..    ..    ..    ..

- -------------------|
- -------------------|
- -10----12h14----10-|
- ----12-------12----|
- -------------------|
- -------------------|
PM    ..       ..

----------------------------------------------------------------------------

Playing Riff 17:

the simple trick to playin the last breakdown is this. the actual riff
that is repeated is this over and over again:

- ---------------|
- ---------------|
- ---------------|
- ---------------|
- -xxx--x-xxxx-x-|
- -xxx--x-xxxx-x-|

and just change notes according to the lead riff. because the lead riff
is in 2/4 time and 14 beats long and the breakdown is in 7/8 time which is
a tricky 3.5 bets long it gets kinda hard. my gp will help show it better
if it gets accepted.

basically, notice the riff. and notice where the notes change:

[Riff 15] - [02:35] - [03:19]-------------------------------| 6x
- ----------------------------------------------------------|
- ------1-------------2-------------3-------------4---------|
-   ___________   ___________   ___________   ___________--
- -/           \ /           \ /           \ /           \-
- -333--3-3333-3-333--3-3333-3-333--0-0000-0-000--0-0000-0-|
- -333--3-3333-3-333--3-3333-3-333--0-0000-0-000--0-0000-0-|
PM .......................................................

and repeat! its not that hard trust me, try the end breakdown
for meddler.. thats some tricky shit :P
comments
print report bad tab
1 comment total.
+1 reply
iamghost wrote on March 31 2010, 09:03 am

ermmm... wow.

I want to post or [tab]
guest
You may want to rate the tab now too:
select rating
Please do not post tabs as comments. Select "correction" instead!