Oops, an error
Loading. Please wait.

Poor Millionaire Tab

ver1
ver1

Whole song

Interactive

More versions @911Tabs.com
6,420 views 12 this week
no commentswrite comment
1 2 3 4 5
excellent!
x 4
Autoscroll
+/-
esc
set tempo
stop
Contributor
Difficulty
Tuning
intermediate
C G C F A D
Hey! There's an official Ultimate Guitar app which is ideal
for learning songs when you're away from computer. Get the app
WARNING: You are trying to view
                                    content from Ultimate-Guitar.com
                                    in an unauthorized application,
                                    which is prohibited.

                                    Please use an official Ultimate
                                    Guitar Tabs application for iPhone,
                                    iPad or Android to access legitimate
                                    chords, guitar, bass, and drum tabs
                                    from Ultimate-Guitar.com database.

                                    Type "ultimate guitar tabs" in Apple
                                    App Store's or Android Market's
                                    search to find the application.
[Poor Millionaire]
[Leveler]
[August Burns Red]

Tuning: CGCFAD (Drop D / 1 Step Down From Drop D)
joshuaoliveira@hotmail.com

As Requested By: JRohrer14

[Riff 1] - [00:06] - [00:12]
- -----------------------------------------------------------------|
- -----------------------------------------------------------------|
- -----------------------------------------------------------------|
- -0~--------------------------------------------------------------|
- -0~--------------------------------------------------------------|
- -0~--------------------------------------------------------------|

----------------------------------------------------------------------------

[Riff 2, Guitar 1 & 2] - [00:12] - [00:25]
- -------------------------------------------------------------------------|
- -------------------------------------------------------------------------|
- -------------------------------------------------------------------------|
- -0~----------------------------------------------------------------------|
- -0~------------------------------------------------------------000-------|
- -0~------------------------------------------------------------000-------|
PM                                                               ...
-
- -------------------------------------------------------------------------|
- -------------------------------------------------------------------------|
- --------------------------------------------------10-6-----7-6-----------|
- -7-----8-8-7---------------------5-----7-----8-8-7-----7-8-----7---7-8---|
- -7-000-------000-10-10-8-000-1/5---4p0-7-000---------------------8-----7-|
- -7-000-------000---------000-----------7-000-----------------------------|
PM   ...       ...         ...             ...

guitar two played twice

----------------------------------------------------------------------------

[Riff 2, Guitar 2] - [00:25] - [00:38] - [2x]

----------------------------------------------------------------------------

[Riff 3] - [00:38] - [00:50------------------------------------------------| - [2x]
- -------------------------------------------------------------------------|
- -------------------------------------------------------------------------|
- --------------------------------------------10-10-10-6-----7-6-----------|
- -7-----8-8-7-----------------5-------------------------7-8-----7---7-8---|
- -7-000-------0-00-0-0000-1/5---4p0-7700-0-0----------------------8----7--|
- -7-000-------0-00-0-0000-----------7700-0-0------------------------------|
PM   ...       ...........           ........

----------------------------------------------------------------------------

[Riff 4] - [00:50] - [01:03-----------------------------------------| - [2x]
- ------------------------------------------------------------------|
- ------------------------------------------------------------------|
- ------------------------------------------------------------------|
- -0---0-0---0---0-0---0-0-0---0-0-0---0-0---0---0-0---0-0-0---8-5--|
- -0-000-0-0-0-000-0-000-0-0-000-0-0-000-0-0-0-000-0-000-0-0-008-5--|
- -0-000-0-0-0-000-0-000-0-0-000-0-0-000-0-0-0-000-0-000-0-0-008-5--|
PM   ..    .   ..    ..      ..      ..    .   ..    ..      ..

[Riff 5] - [01:03] - [01:16]
- -----------------------------------------------------------------|
- -----------------------------------------------------------------|
- -----------------------------------------------------------------|
- -0---0-0---0---0-0-----------8-5-0---0-0---0---0-0---0-0-0---0-0-|
- -0-000-0-0-0-000-0---------008-5-0-000-0-0-0-000-0-000-0-0-000-0-|
- -0-000-0-0-0-000-0---------008-5-0-000-0-0-0-000-0-000-0-0-000-0-|
PM   ..    .   ..            ..      ..    .   ..    ..      ..

- -----------------------------------------------------------------|
- -----------------------------------------------------------------|
- -----------------------------------------------------------------|
- -0---0-0---0---0-0-----------8-5-0---0-0---0---0-0---0-0-0---8-5-|
- -0-000-0-0-0-000-0---------008-5-0-000-0-0-0-000-0-000-0-0-008-5-|
- -0-000-0-0-0-000-0---------008-5-0-000-0-0-0-000-0-000-0-0-008-5-|
PM   ..    .   ..            ..      ..    .   ..    ..      ..

----------------------------------------------------------------------------

[Riff 6, Guitar 1 & 2] - [01:16] - [01:36---------------------------| - [3x]
- ------------------------------------------------------------------|
- ------------------------------------------------------------------|
- ------------------------------------------------------------------|
- -----------------------------------------------------------5------|
- ----1-----------------------1-------1------------------114---4-0--|
- -022-320200--000---000---022-3202022-320200--000---000------------|
PM ... ....................... ....... .................
-
- -----------------------------------------------------------------|
- -----------------------------------------------------------------|
- -----------------------------------------------------------------|
- -----------------------------------------------------------8-----|
- ----1-----------------------1-------1------------------447---7-4-|
- -022-320200--000---000---022-3202022-320200--000---000-----------|
PM ... ....................... ....... .................

[Riff 7] - [01:30] - [01:43]
- -------------------------------------------------|
- -------------------------------------------------|
- -14----14----14-12----15-------15----15-12----12-|
- ----12----12-------12-------12----12-------12----|
- -------------------------------------------------|
- -------------------------------------------------|

- ----------------------------------------18-------|
- ----------------------------15-18-15-18----15----|
- -14----14----14-12----15----------------------18-|
- ----12----12-------12----------------------------|
- -------------------------------------------------|
- -------------------------------------------------|

- -------------------------------------------------|
- -22----22----22-20----23-------23----23-20----20-|
- ----19----19-------19-------19----19-------19----|
- -------------------------------------------------|
- -------------------------------------------------|
- -------------------------------------------------|

- -------------------------------24----------------|
- -22----22----22-20----23-------------------18/22-|
- ----19----19-------19-------19----19-22-19-------|
- -------------------------------------------------|
- -------------------------------------------------|
- -------------------------------------------------|

[Riff 8, Guitar 1 & 2] - [01:36] - [01:43]
- -----------------------------------------------------------------|
- -----------------------------------------------------------------|
- -----------------------------------------------------------------|
- ---------------------------------------------------------7-7-----|
- ----1-----------------------1-------1------------------------5-5-|
- -022-320200--000---000---022-3202022-320200--000---000-0---------|
PM ... ....................... ....... .................
-
- -----------------------------------------------------------------|
- -----------------------------------------------------------------|
- -----------------------------------------------------------------|
- -----------------------------------------------------------------|
- ----1-----------------------1-------1------------------5-8-8-8-8-|
- -022-320200--000---000---022-3202022-320200--000---000-----------|
PM ... ....................... ....... .................

----------------------------------------------------------------------------

[Riff 1] - [01:43] - [01:46]

----------------------------------------------------------------------------

[Riff 9a] - [01:46] - [01:59]
- ------------------------------------------------------------------|
- ------------------------------------------------------------------|
- ------------------------------------------------------------------|
- -0~--------------5~--------------12~-----11~-----0~----------\\\\-|
- -0~--------------5~--------------8~------7~------0~----------\\\\-|
- -0~--------------5~--------------8~------7~------0~----------\\\\-|

[Riff 9b] - [01:46] - [01:59]
- -----------------------------------------------------------------|
- -----------------------------------------------------------------|
- ---------------------------------------------------------7-------|
- ---------------------------------3/5-5-5---------8-8-8-8---------|
- -3/5-5-5---------8-8-8-8-8---------------------------------------|
- -----------------------------------------------------------------|

- -----------------5-5-5-5-5-5-5-5-|
- -6-6-6-6-6-----------------------|
- ---------------------------------|
- ---------------------------------|
- ---------------------------------|
- ---------------------------------|

- -10p5-----------------------------------------|
- ------6/10------14p10----------11-------------|
- -----------9/12-------12p10h12----9h10--------|
- ---------------------------------------12p10--|
- ----------------------------------------------|
- ----------------------------------------------|

----------------------------------------------------------------------------

[Riff 10a] - [01:59] - [02:12]
- -----------------------------------------------------------------|
- -----------------------------------------------------------------|
- -----------------------------------------------------------------|
- -----------------------------------------------------------------|
- -000-0-0-0-0-000-000-0-0-0-0-0-0-555-5-5-5-5-555-555-5-5-5-5-5-5-|
- -000-0-0-0-0-000-000-0-0-0-0-0-0-555-5-5-5-5-555-555-5-5-5-5-5-5-|
PM ...............................................................

- -----------------------------------------------------------------|
- ---------------------------------6-6-6-6-6-6-6-6-6-6-6-6-6-6-6-6-|
- ---------------------------------7-7-7-7-7-7-7-7-7-7-7-7-7-7-7-7-|
- ---------------------------------7-7-7-7-7-7-7-7-7-7-7-7-7-7-7-7-|
- -3-3-3-3-3-3-3-3-7-7-7-7-7-7-7-7-5-5-5-5-5-5-5-5-5-5-5-5-5-5-5-5-|
- -3-3-3-3-3-3-3-3-7-7-7-7-7-7-7-7---------------------------------|
PM ...............................

[Riff 10b] - [01:59] - [02:12]
- -----------------------------------------------|
- -----------------------------------------13----|
- ------------10---------------------10-------10-|
- -12-0-10-12----12-10-12-12-0-10-12----12-------|
- -----------------------------------------------|
- -----------------------------------------------|

- -----------------------------------------10----|
- ------------11---------------------11-------11-|
- -12-0-10-12----12-10-12-12-0-10-12----12-------|
- -----------------------------------------------|
- -----------------------------------------------|
- -----------------------------------------------|

- -13-10----------10----10-------------------------|
- -------13----13----13----------14----14----------|
- ----------10-------------12h14----14----14-12h14-|
- -------------------------------------------------|
- -------------------------------------------------|
- -------------------------------------------------|

- -------------------------------------12----------|
- -------------10----------11-------------10-------|
- -------------------------------------------12-10-|
- -12-12-10-12----12-10-12----12-10-12-------------|
- -------------------------------------------------|
- -------------------------------------------------|

----------------------------------------------------------------------------

[Riff 11a] - [02:12] - [02:25]
- -------------------|
- -6-6-----------6-6-|
- -7-7-----------7-7-| strum for 1 bar each
- -7-7-8-8-10-11-7-7-|
- -5-5-5-5-8--7--5-5-|
- -----5-5-8--7------|

[Riff 11b] - [02:12] - [02:25]
- --------------------------------------------|
- ------13-----------13-10--------------------|
- -7/10----9-10-7/10-------10-9-10-9----------|
- -----------------------------------12-10/12-|
- --------------------------------------------|
- --------------------------------------------|

- ------------------------12br--10h15----|
- ----------8---10---11---------------13-|
- ---9-10-----9----9----9----------------|
- -8------8------------------------------|
- ---------------------------------------|
- ---------------------------------------|

- ---------------------------------------------|
- ------13-----------13-10---------------17~---|
- -7/10----9-10-7/10-------10-9/14-18-14-------|
- ---------------------------------------------|
- ---------------------------------------------|
- ---------------------------------------------|

- -------------18-17-------------20----22~---|
- -18-15-18/22-------20/22-22-18----18-------|
- -------------------------------------------|
- -------------------------------------------|
- -------------------------------------------|
- -------------------------------------------|

----------------------------------------------------------------------------

[Riff 12a] - [02:25] - [02:37]
- ------------------------------------------------------------------|
- ------------------------------------------------------------------|
- ------------------------------------------------------------------|
- -0---0---0---0---0---0---0---0---8---8---8---8---8---8---8---8----|
- -0-000-000-000-000-000-000-000-005-555-555-555-555-555-555-555-55-|
- -0-000-000-000-000-000-000-000-005-555-555-555-555-555-555-555-55-|
PM   ..  ..  ..  ..  ..  ..  ..  ..  ..  ..  ..  ..  ..  ..  ..  ..

- ------------------------------------------------------------------|
- ------------------------------------------------------------------|
- ------------------------------------------------------------------|
- -10--1010101010--11--11--11--11--0~--------------12~-----11-------|
- -8-888-8-8-8-8-887-777-777-777-770~--------------8~------7-000-00-|
- -8-888-8-8-8-8-887-777-777-777-770~--------------8~------7-000-00-|
PM   ..          ..  ..  ..  ..  ..                          ......

[Riff 12b] - [02:25] - [02:37]
- -----------------------------------------------|
- -----------------------------------------------|
- -12br-10-------------10h12br-10-------14----14-|
- ---------12---------------------12-------------|
- -----------------------------------------12----|
- -----------------------------------------------|
PM                                         ..

- -------------------------------------------------|
- ----------------------15----13----18----------\--|
- -14brbr------12-12h14----------------------------|
- -------------------------------------------------|
- -------------------------------------------------|
- -------------------------------------------------|

- --------------------------------------15br---------------------|
- ----10------10------15----14-------------------15------15------|
- -------9h10----10p9-------------12-------------17b-----17b-----|
- -10------------------------------------------------------------|
- ---------------------------------------------------------------|
- ---------------------------------------------------------------|

----------------------------------------------------------------------------

[Riff 13, Guitar 1 & 2] - [02:37] - [03:04--------------------------| - [4x]
- ------------------------------------------------------------------|
- ------------------------------------------------------------------|
- ------------------------------------------------------------------|
- -0-----0---------0-----0-----8-7-0-----0---------0-----0---8-8-7--|
- -0---000---000---0---000---008-7-0---000---000-000---000-008-8-7--|
- -0---000---000---0---000---008-7-0---000---000-000---000-008-8-7--|
PM     ..    ...       ..    ..        ..    ......    ..  ..
-
- -----------------------------------------------------------------|
- -----------------------------------------------------------------|
- -----------------------------7-6---------------------------7-7-6-|
- -0-----0---------0-----0-----x-x-0-----0---------0-----0---x-x-x-|
- -0---000---000---0---000---005-4-0---000---000-000---000-005-5-4-|
- -0---000---000---0---000---00----0---000---000-000---000-00------|
PM     ..    ...       ..    ..        ..    ......    ..  ..

[Riff 14] - [02:51] - [03:04]
- ------------------------------------------------------------------|
- ------------------------------------------------------------------|
- -7-7-7-7-7-7-7-7-7-7-7-7-7-7-6-6-7-7-7-7-7-7-7-7-1010101010101212-|
- -x-x-x-x-x-x-x-x-x-x-x-x-x-x-x-x-x-x-x-x-x-x-x-x-x-x-x-x-x-x-x-x--|
- -5-5-5-5-5-5-5-5-5-5-5-5-5-5-4-4-5-5-5-5-5-5-5-5-8-8-8-8-8-8-1010-|
- ------------------------------------------------------------------|

- ------------------------------------------------------------------|
- ------------------------------------------------------------------|
- -1414141414141414141414141414141419191919191919191919191919191919-|
- -x-x-x-x-x-x-x-x-x-x-x-x-x-x-x-x-x-x-x-x-x-x-x-x-x-x-x-x-x-x-x-x--|
- -1212121212121212121212121212121217171717171717171717171717171717-|
- ------------------------------------------------------------------|

pickscrape into riff 14

----------------------------------------------------------------------------

[Riff 15, Guitar 1 & 2] - [03:04] - [03:10]
- -------------------------------------------------------------------------|
- -------------------------------------------------------------------------|
- -------------------------------------------------------------------------|
- -0~------------------------------------------------------------0---------|
- -0~------------------------------------------------------------0---------|
- -0~------------------------------------------------------------0---------|
-
- -------------------------------------------------------------------------|
- -------------------------------------------------------------------------|
- --------------------------------------------------10-6-----7-6-----------|
- -7-----8-8-7---------------------5-----7-----8-8-7-----7-8-----7---7-8---|
- -7-000-------000-10-10-8-000-1/5---4p0-7-000---------------------8-----7-|
- -7-000-------000---------000-----------7-000-----------------------------|
PM   ...       ...         ...             ...

----------------------------------------------------------------------------

[Riff 2, Guitar 2] - [03:10] - [03:23] - [2x]

----------------------------------------------------------------------------

[Riff 1] - [03:23] - [03:36]

[Riff 16] - [03:23] - [03:31]
- -----------------------------------------------------------------|
- -------------------------------6~--------------------------------|
- ---------------------------9~------------------------------------|
- -----------------------------------------------------------------|
- -----------------------------------------------------------------|
- -----------------------------------------------------------------|

[Riff 17] - [03:31] - [03:49--------------------------------| - [3x]
- ----------------------------------------------------------|
- -----6-----6-------6-----6-------6-----6-------6-----6----|
- ---9-----9---9---9-----9---9---9-----9---9---9-----9---9--|
- -7-----7-------7-----7-------7-----7-------7-----7--------|
- ----------------------------------------------------------|
- ----------------------------------------------------------|

its in 7/8 time. the pattern is the first 7 notes.

[Riff 18] - [03:36] - [03:43]
- ---------------------------------------------------------|
- ---------------------------------------------------------|
- ---------------------------------------------------------|
- ---------------------------------------------------------|
- -0-0-0000---------0000-0-----0-0-0000---------0000-0-----|
- -0-0-0000---------0000-0-----0-0-0000---------0000-0-----|
PM ...................................................

[Riff 19, Guitar 1 & 2] - [03:43] - [03:49]
- ---------------------------------------------------------|
- ---------------------------------------------------------|
- ---------------------------------------------------------|
- ---------------------------------------------------------|
- -0-0-0000---------0000-0-----0-0-0000---------0000-0-----|
- -0-0-0000---------0000-0-----0-0-0000---------0000-0-----|
PM ...................................................
-
- ---------------------------------------------------------|
- ---------------------------------------------------------|
- ---------------------------------------------------------|
- ---------------------------------------------------------|
- -0-0-0000-00-0000-0000-0-000-0-0-0000-00-0000-0000-0-000-|
- -0-0-0000-00-0000-0000-0-000-0-0-0000-00-0000-0000-0-000-|
PM .......................................................

----------------------------------------------------------------------------

[Riff 19, Guitar 2] - [03:49] - [04:01] - [4x]

----------------------------------------------------------------------------

[Riff 20] - [04:01] - [04:10--------------------------------| - [1.5x]
- ----------------------------------------------------------|
- ----------------------------------------------------------|
- ----------------------------------------------------------|
- ----------------------------------------------------------|
- -0-0-0000---------0000-0-000-0-0-0000---------0000-0-000--|
- -0-0-0000---------0000-0-000-0-0-0000---------0000-0-000--|
PM .......................................................

[Riff 21] - [04:01] - [04:10------------------| - [4x]
- -------13-------13----------13-------13-----|
- ----17-------17----17----17-------17----17--|
- -14-------14----------14-------14-----------|
- --------------------------------------------|
- --------------------------------------------|
- --------------------------------------------|

[Riff 22, Guitar 1 & 2] - [04:10] - [04:14]
- -------------------------------------------------------------|
- -------------------------------------------------------------|
- -------------------------------------------------------------|
- -------------------------------------------------------------|
- -0-0-0000---------0000-0-000-0-0-0000---------0000-0-000-000-|
- -0-0-0000---------0000-0-000-0-0-0000---------0000-0-000-000-|
PM ...........................................................
-
- -----13----13------13----13------13----13------13----13--13---|
- ---17----17--17--17----17--17--17----17--17--17----17--17--17-|
- -14----14------14----14------14----14------14----14-----------|
- --------------------------------------------------------------|
- --------------------------------------------------------------|
- --------------------------------------------------------------|

----------------------------------------------------------------------------

[Riff 1] - [04:14] - [04:29]

----------------------------------------------------------------------------

[Symbols]

PM... Palm Mute notes with (...) under them
\\\\  Pick Slide
/     Slide Up
\     Slide Down
h     Hammer On
p     Pull Off
b     Bend
r     Release
~     Let Ring
x     Dead Note

:)
comments
print report bad tab
I want to post or [tab]
guest
You may want to rate the tab now too:
select rating
Please do not post tabs as comments. Select "correction" instead!