Oops, an error
Loading. Please wait.

Salt And Light Tab

ver2
ver2

Whole song

Interactive

More versions @911Tabs.com
4,932 views 15 this week
no commentswrite comment
1 2 3 4 5
accurate
x 3
Autoscroll
+/-
esc
set tempo
stop
Contributor
Difficulty
Tuning
intermediate
C G C F A D
Hey! There's an official Ultimate Guitar app which is ideal
for learning songs when you're away from computer. Get the app
WARNING: You are trying to view
                                    content from Ultimate-Guitar.com
                                    in an unauthorized application,
                                    which is prohibited.

                                    Please use an official Ultimate
                                    Guitar Tabs application for iPhone,
                                    iPad or Android to access legitimate
                                    chords, guitar, bass, and drum tabs
                                    from Ultimate-Guitar.com database.

                                    Type "ultimate guitar tabs" in Apple
                                    App Store's or Android Market's
                                    search to find the application.

AUGUST BURNS RED

SALT & LIGHT

CGCFAD

TABBED BY andherembrace






1
------------------------------------------------------------------------|
---------------------------------------------------------)(------)(-----|
--------------------------------------------------------6-------6-------|
------------------------------------------0----------4------------------|
-----0---0-----0---0---0-----4--------4-----4---4-555-5-----555---------|
-444---4---444---4---4---2/4---7--777---7-----7---------------------777-|
 ***   *   ***   *   *            ***   *     *   *** *     ***     *** 
2
------------------------------------------------------------------------|
--------------------------------------------------5---------------------|
--------------------------------------------------6---------------------|
--------------------------------------------------7---------------------|
-444-------444--------------------777-------------5-----------------777-|
-444-------444--------------------777-------------0-----------------777-|
 ***       ***                    ***                               ***


1
------------------------------------------------------------------------|
---------------------------------------------------------)(------)(-----|
--------------------------------------------------------6-------6-------|
-----------------------0-------------------^---------4------------------|
-----0---0-----0---0---0-----4--------4---5-4---4-555-5-----555---------|
-444---4---444---4---4---2/4---7--777---7-----7---------------------777-|
 ***   *   ***   *   *            ***   *     *   *** *     ***     *** 
2
------------------------------------------------------------------------|
--------------------------------------------------5---------------------|
--------------------------------------------------6---------------------|
--------------------------------------------------7---------------------|
-444-------444--------------------777-------------5-----------------777-|
-444-------444--------------------777-------------0-----------------777-|
 ***       ***                    ***                               ***



1
------------------------------------------------------------------------|
---------------------------------------------------------)(------)(-----|
--------------------------------------------------------6-------6-------|
------------------------------------------0----------4------------------|
-----0---0-----0---0---0-----4--------4-----4---4-555-5-----555---------|
-444---4---444---4---4---2/4---7--777---7-----7---------------------777-|
 ***   *   ***   *   *            ***   *     *   *** *     ***     *** 
2
---------------------------------------------------------)(------)(-----|
--------------------------------------------------------5-------5-------|
------------------------------------------------------------------------|
------------------------------------------0----------4------------------|
-----0---0-----0---0---0-----4--------4-----4---4-555-5-----555---------|
-444---4---444---4---4---2/4---7--777---7-----7---------------------777-|
 ***   *   ***   *   *            ***   *     *   *** *     ***     *** 

1
--------------------------------------------------------------------------|
--------------------------------------------------------)(------)(--------|
-------------------------------------------------------6-------6----------|
-----------------------------------------0----------4---------------------|
----0---0-----0---0---0-----4--------4-----4---4-555-5-----555------------|
444---4---444---4---4---2/4---7--777---7-----7---------------------777-444|
***   *   ***   *   *            ***   *     *   *** *     ***     *** ***
2
--------------------------------------------------------)(------)(--------|
-------------------------------------------------------5-------5----------|
--------------------------------------------------------------------------|
-----------------------------------------0----------4---------------------|
----0---0-----0---0---0-----4--------4-----4---4-555-5-----555------------|
444---4---444---4---4---2/4---7--777---7-----7---------------------777-444|
***   *   ***   *   *            ***   *     *   *** *     ***     *** ***



B
---------------------------------------------------------------|
---------------------------------------------------------------|
---------------------------------------------------------------|
---------------------------------------------------------------|
------------------------------------------4-------------4------|
-2244---2244444---22444-777-777---000-000-7-000-000-000-7-000--|
 ****   *******   ***** *** ***   *** ***   *** *** ***   ***

---------------------------------------------------------------|
---------------------------------------------------------------|
---------------------------------------------------------------|
---------------------------------------------------------------|
------------------------------------------4-------------4------|
-2244---2244444---22444-777-777---000-000-7-000-000-000-7-000--|
 ****   *******   ***** *** ***   *** ***   *** *** ***   ***



1
----------------------------------------------------------------------|
----------------------------------------------------------------------|
-6------6------6----9---7-9---7-9/14-11--------11--14--------11--11---|
---7------7------7----7-----7----------12-11-12--12--12-11-12--12--12-|
-----9------9---------------------------------------------------------|
----------------------------------------------------------------------|
2
---------------------------------------------------------------|
---------------------------------------------------------------|
---------------------------------------------------------------|
---------------------------------------------------------------|
------------------------------------------4-------------4------|
-2244---2244444---22444-777-777---000-000-7-000-000-000-7-000--|
 ****   *******   ***** *** ***   *** ***   *** *** ***   ***


1
------------------------------------------------------------------------|
------------------------------------------------------------------------|
6-----6-----6----9---7-9---7-9/14-11--------11--14--------11--11--------|
--7-----7-----7----7-----7----------12-11-12--12--12-11-12--12--12-11-12|
----9-----9-------------------------------------------------------------|
------------------------------------------------------------------------|
2
------------------------------------------------------------------|
------------------------------------------------------------------|
------------------------------------------------------------------|
------------------------------------------------------------------|
------------------------------------------4-------------4---------|
-2244---2244444---22444-777-777---000-000-7-000-000-000-7-000-000-|
 ****   *******   ***** *** ***   *** ***   *** *** ***   *** ***



1           
---------9---------------9---------------9---------------9---------|
-----------10--------------10--------------10--------------10------|
-11-7-11------11-11-7-11------11-11-7-11------11-11-7-11------11---|
-------------------------------------------------------------------|
-------------------------------------------------------------------|
-------------------------------------------------------------------|

2
----------12----------------12----------------12-------------12------|
-------------14----------------14----------------14-------------14---|
-14-11-14-------14-14-11-14-------14-14-11-14-------14-11-14------14-|
---------------------------------------------------------------------|
---------------------------------------------------------------------|
---------------------------------------------------------------------|
3
-----------------------------------------------------------------------|
-----------------------------------------------------------------------|
-----------------------------------------------------------------------|
-0---------------------------------------------------------------------|
-0---------------------------------------------------------------------|
-0---------------------------------------------------------------------|




1
-----------------------------------------------------------|
-----------------------------------------------------------|
-6-----6--------9---7-9---7-9-6-----6----------------------|
---7-----7----7---7-----7-------7-----7---7-6---7-9-6------|
-----9-----9----------------------7-----7-----7-------7----|
--------------------------------------------------------9--|
2
-----------------------------------------------------------|
-----------------------------------------------------------|
-----------------------------------------------------------|
-----------------------------------------------------------|
-4---------------------------------------------------------|
-4-|-------------------------------------------------------|

1
-----------------------------------------------------------|
-----------------------------------------------------------|
-6-----6--------9---7-9---7-9-6-----6----------------------|
---7-----7----7---7-----7-------7-----7---7-6---7-9-6------|
-----9-----9----------------------7-----7-----7-------7----|
--------------------------------------------------------9--|
2
-H---------------------------------------------------------|
L4----SWELL------------------------------------------------|
R4---------------------------------------------------------|
-H---------------------------------------------------------|
-----------------------------------------------------------|
-----------------------------------------------------------|


1
-----------------------------------------------------------|
-----------------------------------------------------------|
-6-----6--------9---7-9---7-9-6-----6----------------------|
---7-----7----7---7-----7-------7-----7---7-6---7-9-6------|
-----9-----9----------------------7-----7-----7-------7----|
--------------------------------------------------------9--|
2
----------------------------------------------------------|
----------------------------------------------------------|
-2-------------2-------------6-------------1--------------|
-4-------------0-------------7-------------2--------------|
-4-4-4-4-4-4-4-0-0-0-0-0-0-0-7-7-7-7-7-7-7-2-2-2-2-2-2-2--|
-4-4-4-4-4-4-4-0-0-0-0-0-0-0-7-7-7-7-7-7-7-2-2-2-2-2-2-2--|
   * * * * * *   * * * * * *   * * * * * *   * * * * * *

1
-------------------------------------------------------------|
-------------------------------------------------------------|
-6-----6--------9---7-9---7-9-6-----6------------------------|
---7-----7----7---7-----7-------7-----7---7-6---7-9-6-------6|
-----9-----9----------------------7-----7-----7-------7---7--|
--------------------------------------------------------9----|
2
-------------------------------------------------------------|
-------------------------------------------------------------|
-2-------------2-------------6-------------1-----------------|
-4-------------0-------------7-------------2-----------------|
-4-4-4-4-4-4-4-0-0-0-0-0-0-0-7-7-7-7-7-7-7-2-2-2-2-2-2-2-2-2-|
-4-4-4-4-4-4-4-0-0-0-0-0-0-0-7-7-7-7-7-7-7-2-2-2-2-2-2-2-2-2-|
   * * * * * *   * * * * * *   * * * * * *   * * * * 


B
--------------------------------------------------------------------|
--------------------------------------------------------------------|
--------------------------------------------------------------------|
--------------------------------------------------------------------|
-0000--0000--00000000--0000--0000--4444--4444--44442222--2-2-222222-|
-4444--4444--44440000--0000--0000--4444--4444--44442222--2-2-222222-|
 ****  ****  ********  ****  ****  ****  ****  ********  * * ******

--------------------------------------------------------------------|
--------------------------------------------------------------------|
--------------------------------------------------------------------|
----------------------------------------------------------------2---|
-0000--0000--00000000--0000--0000--4444--4444--44442222--2-2-22-2-2-|
-4444--4444--44440000--0000--0000--4444--4444--44442222--2-2-22-2-2-|
 ****  ****  ********  ****  ****  ****  ****  ********  * * **   *


1
--------------------------------------------------------------------|
--------------------------------------------------------------------|
-6------6------6----9---7-9---7-9---9---6-9---6-9-------------------|
---7------7------7----7-----7-----7---7-----7-----7-9-6---6-7-6---9-|
-----9------9-------------------------------------------7-------7---|
--------------------------------------------------------------------|
2
-----------------------------------------------------------------|
-----------------------------------------------------------------|
-----------------------------------------------------------------|
-----------------------------------------------------------------|
-0-0-0-0-0-0-0-0-0-0-0-0-0-0-0-0-7-7-7-7-7-7-7-7-7-7-7-7-7-7-7-7-|
-4-4-4-4-4-4-4-0-0-0-0-0-0-0-0-0-4-4-4-4-4-4-4-9-9-9-9-9-9-9-9-9-|
 * * * * * * * * * * * * * * * * * * * * * * * * * * * * * * * * 


1
---------------------------------------------------------------------|
-------------------------------------14----14----14--12----12----12--|
-6------6------6----9---7-9---7-9------14----14----14--13----13----13|
---7------7------7----7-----7-----7------14----14--------14----14----|
-----9------9--------------------------------------------------------|
---------------------------------------------------------------------|
2
-----------------------------------------------------------------|
-----------------------------------------------------------------|
-----------------------------------------------------------------|
-----------------------------------------------------------------|
-0-0-0-0-0-0-0-0-0-0-0-0-0-0-0-0-4-4-4-4-4-4-4-2-2-2-2-2-2-2-2-2-|
-4-4-4-4-4-4-4-0-0-0-0-0-0-0-0-0-7-7-7-7-7-7-7-2-2-2-2-2-2-2-2-2-|
 * * * * * * * * * * * * * * * * * * * * * * * * * * * * * * * * 


1
-------------------------------|
-------------------------------|
-------------------------------|
--------------------p----------|
-12------------------s---------|
-12----------------------------|

--------------------------------|
--------------------------------|
--------------------------------|
--------------------------------|
-5-5-5--5-5-5--5--9-9-9-9-9-----|
-7-7-7--7-7-7--7--7-7-7-7-7-----|
  


---------------------------------------------------------|
---------------------------------------------------------|
-2-2-2--2-2-2--2-2-2--2-2-2--6-6-6--6-6-6--1-2-2--1-1-1--|
-4-4-4--4-4-4--0-0-0--0-0-0--7-7-7--7-7-7--2-2-2--2-2-2--|
-4-4-4--4-4-4--0-0-0--0-0-0--7-7-7--7-7-7--2-2-2--2-2-2--|
-4-4-4--4-4-4--0-0-0--0-0-0--7-7-7--7-7-7--2-2-2--2-2-2--|

---------------------------------------------------------|
---------------------------------------------------------|
-2-2-2--2-2-2--2-2-2--2-2-2--6-6-6--9-9-9--1-2-2--1-1-1--|
-4-4-4--4-4-4--0-0-0--0-0-0--7-7-7--7-7-7--2-2-2--2-2-2--|
-4-4-4--4-4-4--0-0-0--0-0-0--7-7-7--7-7-7--2-2-2--2-2-2--|
-4-4-4--4-4-4--0-0-0--0-0-0--7-7-7--7-7-7--2-2-2--2-2-2--|


1                                  /\                       /\
-------------------9----9---------9109-12-----12------16--191716---------|
-------------10-10--10---10--------------10/14--14/17---17------17-15----|
----------9-9---------11---11-9-11-----------------------------------16--|
-----11-11-------------------------------------------------------------18|
12-12--------------------------------------------------------------------|
-------------------------------------------------------------------------|
 *  * *  ** *
2
---------------------------------------------------------|
---------------------------------------------------------|
-2-2-2--2-2-2--2-2-2--2-2-2--6-6-6--6-6-6--1-1-1--4-4-4--|
-4-4-4--4-4-4--0-0-0--0-0-0--7-7-7--7-7-7--2-2-2--2-2-2--|
-4-4-4--4-4-4--0-0-0--0-0-0--7-7-7--7-7-7--2-2-2--2-2-2--|
-4-4-4--4-4-4--0-0-0--0-0-0--7-7-7--7-7-7--2-2-2--2-2-2--|


1                   ^             T
12-12-14-12-17-12-12-14-17-14-12-22--21-21-17-17-|
-------------------------------------------------|
-------------------------------------------------|
-------------------------------------------------|
-------------------------------------------------|
-------------------------------------------------|
cont.           __
---------------/  \-------------------------------------|
-21-21-17-17-15-17-15-19--------------------------------|
-------------------------18/19-16-----------------------|
----------------------------------18--------------------|
------------------------------------19-16~-16/19-19~19~\|
--------------------------------------------------------|


2
----------------------------------------------------------|
----------------------------------------------------------|
-2-2-2--2-2-2--2-2-2--2-2-2--6-6-6--9-9-9--1-1-1--4-4-4---|
-4-4-4--4-4-4--0-0-0--0-0-0--7-7-7--7-7-7--2-2-2--2-2-2--0|
-4-4-4--4-4-4--0-0-0--0-0-0--7-7-7--7-7-7--2-2-2--2-2-2--0|
-4-4-4--4-4-4--0-0-0--0-0-0--7-7-7--7-7-7--2-2-2--2-2-2--0|




1
--0----0-------0----0-------0----0-------0----0----|
--0----0-------0----0-------0----0-------0----0----|
--2----2-------6----1-------2----2-------6----1----|
--4----0-------7----2-------4----0-------7----2----|
--4----0-------7----2-------4----0-------7----2----|
--4----0-------7----2-------4----0-------7----2----|



-------------------------------------------------|
--------------------------------0----------------|
--6-----6-----6---9~----------6---6--------------|
----7-----7-----7-----------7-------7------4/6---|
------9-----9-------------0--------------2-------|
---------------------------------------2---------|


-------------------------------------------------|
--------------------------------0----------------|
--6-----6-----6---9~----------6---6--------------|
----7-----7-----7-----------7-------7------4/6---|
------9-----9-------------0--------------2-------|
---------------------------------------2---------|

-------------------------------------------------|
--------------------------------0----------------|
--6-----6-----6---9~----------6---6--------------|
----7-----7-----7-----------7-------7------4/6---|
------9-----9-------------0--------------2-------|
---------------------------------------2---------|


-------------------------------------------------|
--------------------------------0----------------|
--6-----6-----6---9~----------6---6--------------|
----7-----7-----7-----------7-------7------4/6---|
------9-----9-------------0--------------2-------|
---------------------------------------2---------|


------------------------------------------------------------------|
---------------------------------14----14----14---12----12----12--|
-6-----6-----6---9---7-9---7-9-----14----14----14---13----13----13|  
---7-----7-----7---7-----7-----------14----14---------14----14----|
-----9-----9------------------------------------------------------|
------------------------------------------------------------------|

------------------------------------------------------------------|
---------------------------------14----14----14---12----12----12--|
-6-----6-----6---9---7-9---7-9-----14----14----14---13----13----13|  
---7-----7-----7---7-----7-----------14----14---------14----14----|
-----9-----9------------------------------------------------------|
------------------------------------------------------------------|




-12-----12----12---10----10----10---9----9----9---7-----7-----7---|
---10-----10----10---10----10----10--10---10---10---9-----9-----9-|
-----9------9----------9-----9---------9----9---------9-----9-----|
------------------------------------------------------------------|
------------------------------------------------------------------|
------------------------------------------------------------------|

-12-----12----12---10----10----10---9----9----9---7-----7-----7---|
---10-----10----10---10----10----10--10---10---10---9-----9-----9-|
-----9------9----------9-----9---------9----9---------9-----9-----|
------------------------------------------------------------------|
------------------------------------------------------------------|
------------------------------------------------------------------|





1
-12-----12----12---10----10----10---9----9----9---7-----7-----7---|
---10-----10----10---10----10----10--10---10---10---9-----9-----9-|
-----9------9----------9-----9---------9----9---------9-----9-----|
------------------------------------------------------------------|
------------------------------------------------------------------|
------------------------------------------------------------------|

w/ same rythm as before filled in


1
-12-----12----12---10----10----10---9----9----9---7-----7-----7---|
---10-----10----10---10----10----10--10---10---10---9-----9-----9-|
-----9------9----------9-----9---------9----9---------9-----9-----|
------------------------------------------------------------------|
------------------------------------------------------------------|
------------------------------------------------------------------|




1
-12-----12----12---10----10----10---9----9----9---7-----7-----7---|
---10-----10----10---10----10----10--10---10---10---9-----9-----9-|
-----9------9----------9-----9---------9----9---------9-----9-----|
------------------------------------------------------------------|
------------------------------------------------------------------|
------------------------------------------------------------------|




1
-12-----12----12---10----10----10---9----9----9---7-----7-----7---|
---10-----10----10---10----10----10--10---10---10---9-----9-----9-|
-----9------9----------9-----9---------9----9---------9-----9-----|
------------------------------------------------------------------|
------------------------------------------------------------------|
------------------------------------------------------------------|



1
---------------------------------------------------------------|
--14-----------------------------------------------------------|
---------------------------------------------------------------|
-------------14------------------------------------------------|
---------------------------------------------------------------|
---------------------------------------------------------------|
2
---------------------------------------------------------------|
---------------------------------------------------------------|
--2----------6-------------------------------------------------|
--0----------7-------------------------------------------------|
--0----------7-------------------------------------------------|
--0----------7-------------------------------------------------|








comments
We did not receive enough feedback on this tab! Please rate:
print report bad tab
1 2 3 4 5
I want to post or [tab]
guest
You may want to rate the tab now too:
select rating
Please do not post tabs as comments. Select "correction" instead!