Oops, an error
Loading. Please wait.

Salt And Light Tab

ver3
ver3

Whole song

Interactive

More versions @911Tabs.com
4,769 views 1 this week
2 commentsread comments
1 2 3 4 5
excellent!
x 3
Autoscroll
+/-
esc
set tempo
stop
Contributor
Difficulty
Tuning
intermediate
C G C F A D
Hey! There's an official Ultimate Guitar app which is ideal
for learning songs when you're away from computer. Get the app
WARNING: You are trying to view
                                    content from Ultimate-Guitar.com
                                    in an unauthorized application,
                                    which is prohibited.

                                    Please use an official Ultimate
                                    Guitar Tabs application for iPhone,
                                    iPad or Android to access legitimate
                                    chords, guitar, bass, and drum tabs
                                    from Ultimate-Guitar.com database.

                                    Type "ultimate guitar tabs" in Apple
                                    App Store's or Android Market's
                                    search to find the application.
[Salt & Light]
[Leveler]
[August Burns Red]

Tuning: CGCFAD (Drop C / 1 Step Down From Drop D)
joshuaoliveira@hotmail.com

As Requested By: JRohrer14

[Riff 1, Guitar 1 & 2] - [00:00] - [00:13----------------------------| - [2x]
- -------------------------------------------------------------------|
- -------------------------------------------------------------------|
- ---------------------------------------------------------6br-------|
- -----------------------------------------0-----------4-------------|
- -----0---0-----0---0---------4-0-----4-----4---4-555---5-------55--|
- -444---4---444---4---4-0-2-4-----777---7-----7---------------------|
PM ...   .   ...   .   .           ...   .     .   ...   .       ..
-
- -------------------------------------------------------------------|
- -------------------------------------------------------------------|
- -------------------------------------------------------------------|
- -------------------------------------------------0~----------------|
- -444-------444-------------------777-------------0~----------------|
- -444-------444-------------------777-------------0~----------------|
PM ...................................


- -------------|
- -------------|
- ---6br-------|
- -------------|
- -5-----------|
- ---------777-|
PM .       ...
-
- -------------|
- -------------|
- -------------|
- -------------|
- ---------777-|
- ---------777-|
PM         ...


[Riff 2, Guitar 1 & 2] - [00:13] - [00:19]
- ------------------------------------------------------------------|
- ------------------------------------------------------------------|
- ---------------------------------------------------------6br------|
- -----------------------------------------0-----------4------------|
- -----0---0-----0---0---------4-0-----4-----4---4-555---5-------55-|
- -444---4---444---4---4-0-2-4-----777---7-----7--------------------|
PM ...   .   ...   .   .           ...   .     .   ...   .       ..
-
- ------------------------------------------------------------------|
- ---------------------------------------------------------5br------|
- ------------------------------------------------------------------|
- -----------------------------------------0-----------4------------|
- -----0---0-----0---0---------4-0-----4-----4---4-555---5-------55-|
- -444---4---444---4---4-0-2-4-----777---7-----7--------------------|
PM ...   .   ...   .   .           ...   .     .   ...   .       ..


- -------------|
- -------------|
- ---6br-------|
- -------------|
- -5-----------|
- ---------777-|
PM .       ...
-
- -------------|
- ---5br-------|
- -------------|
- -------------|
- -5-----------|
- ---------777-|
PM .       ...


[Riff 3, Guitar 1 & 2] - [00:19] - [00:26]
- ------------------------------------------------------------------|
- ------------------------------------------------------------------|
- ---------------------------------------------------------6br------|
- -----------------------------------------0-----------4------------|
- -----0---0-----0---0---------4-0-----4-----4---4-555---5-------55-|
- -444---4---444---4---4-0-2-4-----777---7-----7--------------------|
PM ...   .   ...   .   .           ...   .     .   ...   .       ..
-
- ------------------------------------------------------------------|
- ---------------------------------------------------------5br------|
- ------------------------------------------------------------------|
- -----------------------------------------0-----------4------------|
- -----0---0-----0---0---------4-0-----4-----4---4-555---5-------55-|
- -444---4---444---4---4-0-2-4-----777---7-----7--------------------|
PM ...   .   ...   .   .           ...   .     .   ...   .       ..


- -----------------|
- -----------------|
- ---6br-----------|
- -----------------|
- -5---------------|
- ---------777-444-|
PM .       .......
-
- -----------------|
- ---5br-----------|
- -----------------|
- -----------------|
- -5---------------|
- ---------777-444-|
PM .       .......

----------------------------------------------------------------------------

[Riff 4] - [00:26] - [00:42-------------------------------------| - [3x]
- --------------------------------------------------------------|
- --------------------------------------------------------------|
- --------------------------------------------------------------|
- --------------------------------------------------------------|
- -2244--2244444-----22444-777-777-000-000-4-000-000-000-4-000--|
- -2244--2244444-----22444-777-777-000-000-7-000-000-000-7-000--|
PM .......................................   ...........   ...

[Riff 5] - [00:37] - [00:48]
- ------------------------------------------------------------------------|
- -----------------------------5/10--------------10-----------------------|
- -6-----6-----6---9---7-9---7-----11--------11------------11--11---------|
- ---7-----7-----7---7-----7---------12-11-12--12--12-11-12--12--12-11-12-|
- -----9-----9------------------------------------------------------------|
- ------------------------------------------------------------------------|

- ------------------------------------------------------------------------|
- -----------------------------5/10--------------10-----------------------|
- -6-----6-----6---9---7-9---7-----11--------11------------11--11---------|
- ---7-----7-----7---7-----7---------12-11-12--12--12-11-12--12--12-11-12-|
- -----9-----9------------------------------------------------------------|
- ------------------------------------------------------------------------|

- -------|
- -------|
- -------|
- -11-12-|
- -------|
- -------|

[Riff 6] - [00:42] - [00:48]
- -----------------------------------------------------------------|
- -----------------------------------------------------------------|
- -----------------------------------------------------------------|
- -----------------------------------------------------------------|
- -2244--2244444-----22444-777-777-000-000-4-000-000-000-4-000-000-|
- -2244--2244444-----22444-777-777-000-000-7-000-000-000-7-000-000-|
PM .......................................   ...........   .......

----------------------------------------------------------------------------

[Riff 7a] - [00:48] - [00:53]
- -------------------|
- -------------------|
- -------------------|
- -0~----------------|
- -0~----------------|
- -0~----------------|

[Riff 7b] - [00:48] - [00:53-| - [4x]
- ---------------------------|
- ----------14-10------------|
- -11----11-------11---------|
- ----12---------------------|
- ---------------------------|
- ---------------------------|

[Riff 7c] - [00:48] - [00:53-| - [4x]
- ----------12-9-------------|
- -10----10-------10---------|
- ----11---------------------|
- ---------------------------|
- ---------------------------|
- ---------------------------|

----------------------------------------------------------------------------

[Riff 8] - [00:53] - [01:08---------------------------------| - [3x]
- ----------------------------------------------------------|
- ----------------------------------------------------------|
- -6-----6-------9---7-9---7-9-6-----6----------------------|
- ---7-----7---7---7-----7-------7-----7--/7-6---7-9-6------|
- -----9-----9---------------------7-----7-----7-------7----|
- -------------------------------------------------------9--|

[Riff 9] - [01:03] - [01:08]
- ---------------------------------------------------------|
- ---------------------------------------------------------|
- ---------------------------------------------------------|
- -4-------------0-------------7-------------2-------------|
- -4-4-4-4-4-4-4-0-0-0-0-0-0-0-7-7-7-7-7-7-7-2-2-2-2-2-2-2-|
- -4-4-4-4-4-4-4-0-0-0-0-0-0-0-7-7-7-7-7-7-7-2-2-2-2-2-2-2-|
PM   ...........   ...........   ...........   ...........

[Riff 9, Guitar 1 & 2] - [01:08] - [01:13]
- -------------------------------------------------------------|
- -------------------------------------------------------------|
- -------------------------------------------------------------|
- -4-------------0-------------7-------------2---------2-2-2-2-|
- -4-4-4-4-4-4-4-0-0-0-0-0-0-0-7-7-7-7-7-7-7-2-2-2-2-2-2-2-2-2-|
- -4-4-4-4-4-4-4-0-0-0-0-0-0-0-7-7-7-7-7-7-7-2-2-2-2-2-2-2-2-2-|
PM   ...........   ...........   ...........   .......
-
- -------------------------------------------------------------|
- -------------------------------------------------------------|
- -6-----6-------9---7-9---7-9-6-----6-----------------9-------|
- ---7-----7---7---7-----7-------7-----7--/7-6---7-9-6---9---6-|
- -----9-----9---------------------7-----7-----7-----------7---|
- -------------------------------------------------------------|

----------------------------------------------------------------------------

[Riff 10] - [01:13] - [01:25]
- ------------------------------------------------------------------|
- ------------------------------------------------------------------|
- ------------------------------------------------------------------|
- ------------------------------------------------------------------|
- -4444--4444--44440000--0000--00004444--4444--44442222--2-2-222222-|
- -4444--4444--44440000--0000--00004444--4444--44442222--2-2-222222-|
PM ................................................................

- -----------------------------------------------------------------|
- -----------------------------------------------------------------|
- -----------------------------------------------------------------|
- -------------------------------------------------------------2---|
- -4444--4444--44440000--0000--00004444--4444--44442222--2-2-222-2-|
- -4444--4444--44440000--0000--00004444--4444--44442222--2-2-222-2-|
PM ............................................................  .

----------------------------------------------------------------------------

[Riff 11] - [01:25] - [01:37----------------------------------------| - [2x]
- ------------------------------------------------------------------|
- ------------------------------------------------------------------|
- ------------------------------------------------------------------|
- ------------------------------------------------------------------|
- -0-0-0-0-0-0-0-0-0-0-0-0-0-0-0-0-4-4-4-4-4-4-4-2-2-2-2-2-2-2-2-2--|
- -4-4-4-4-4-4-4-0-0-0-0-0-0-0-0-0-7-7-7-7-7-7-7-2-2-2-2-2-2-2-2-2--|
PM ...............................................................

[Riff 12] - [01:25] - [01:37]
- -----------------------------------------------------------------|
- -----------------------------------------------------------------|
- -6-----6-----6---9---7-9---7-9---9---6-9---6-9-------------------|
- ---7-----7-----7---7-----7-----7---7-----7-----7-------6-7-6---9-|
- -----9-----9-------------------------------------7---7-------7---|
- ---------------------------------------------------9-------------|

- ---------------------------------9------9------9----7-----7-----7---|
- -----------------------------------10-----10-----10---9-----9-----9-|
- -6-----6-----6---9---7-9---7-9--------9------9----------9-----9-----|
- ---7-----7-----7---7-----7-----7------------------------------------|
- -----9-----9--------------------------------------------------------|
- --------------------------------------------------------------------|

----------------------------------------------------------------------------

[Riff 13] - [01:37] - [01:39]
- ---------------------------------|
- ---------------------------------|
- ---------------------------------|
- -0~--------------\\\\\\\\--------|
- -0~--------------\\\\\\\\--------|
- -0~--------------\\\\\\\\--------|

----------------------------------------------------------------------------

[Riff 14] - [01:39] - [01:59----------------------------------------| - [2x]
- ------------------------------------------------------------------|
- ------------------------------------------------------------------|
- ------------------------------------------------------------------|
- -7-7-7-7-7-7-7-7-6-7-7-7-7-7-7-7-11111111111111117-7-7-6-6-6-6-6--|
- -4-4-4-4-4-4-4-4-0-0-0-0-0-0-0-0-7-7-7-7-7-7-7-7-2-2-2-2-2-2-2-2--|
- -4-4-4-4-4-4-4-4-0-0-0-0-0-0-0-0-7-7-7-7-7-7-7-7-2-2-2-2-2-2-2-2--|

- -----------------------------------------------------------------|
- -----------------------------------------------------------------|
- ---------------------------------------9-9-9-9-9-----------------|
- -7-7-7-7-7-7-7-7-6-7-7-7-7-7-7-7-1111117-7-7-7-7-7-7-7-6-6-6-6-6-|
- -4-4-4-4-4-4-4-4-0-0-0-0-0-0-0-0-7-7-7-7-7-7-7-7-2-2-2-2-2-2-2-2-|
- -4-4-4-4-4-4-4-4-0-0-0-0-0-0-0-0-7-7-7-7-7-7-7-7-2-2-2-2-2-2-2-2-|

obviously not noting any strum pattern this is just if the riff was played
in 8ths how it would look. learn it like this first then learn it
strummed, i just did it like this to show where everything falls into
place timing wise.

[Riff 15] - [01:49] - [02:02]
- -----------------------9-------9------------|
- -----------------10-10---10------10---------|
- -------------9-9------------11------11-9/11-|
- -------11-11--------------------------------|
- -12-12--------------------------------------|
- --------------------------------------------|

- -9h10p9-12-------12-------16----19p17p16-------------|
- -----------10/14----14/17----17----------17-15-------|
- -----------------------------------------------16----|
- --------------------------------------------------18-|
- -----------------------------------------------------|
- -----------------------------------------------------|

- -------------17-------------------22~-------|
- -17-17-19-17----17-17-19/22-19--------------|
- -------------------------------21-----------|
- --------------------------------------------|
- --------------------------------------------|
- --------------------------------------------|

- -21-21-17-17---------------------------------------|
- -------------21-21-17-17-15h1715-19-14/15----------|
- ------------------------------------------16-------|
- ---------------------------------------------18----|
- ------------------------------------------------19-|
- ---------------------------------------------------|

- ---------------------------------|
- ---------------------------------|
- ---------------------------------|
- ---------------------------------|
- -16----------16/-19----------19\-|
- ---------------------------------|

[Riff 16] - [01:59] - [02:02]
- ---------------------------------|
- ---------------------------------|
- ---------------------------------|
- -0~------------------------------|
- -0~------------------------------|
- -0~------------------------------|

----------------------------------------------------------------------------

[Riff 17, Guitar 1 & 2] - [02:02] - [02:13-| - [2x]
- -0~-0~-0~-0~-----------------------------|
- -0~-0~-0~-0~-----------------------------|
- -2~-2~-6~-4~-----------------------------|
- ----0~-7~-6~-----------------------------|
- ----------7~-----------------------------|
- -----------------------------------------|
-
- -------------|
- -------------|
- -------6~----|
- -7~-------6~-|
- -------------|
- -------------|

[Riff 18] - [02:13] - [02:37----------------------------------------| - [4x]
- -----------------0~-----------------------------------------------|
- ---------------------------------------0~-------------------------|
- -6-----6-----6-----------------------6-----6----------------------|
- ---7-----7-------------------------7---------7p6-----4h6~---------|
- -----9-----9---9-----------------0---------------7----------------|
- ---------------------------------------------------9--------------|

[Riff 19] - [02:37] - [02:49----------------------------------------| - [2x]
- ---------------------------------9-----9-----9---7-----7-----7----|
- -----------------5-----5-----5-----10----10----10--9-----9-----9--|
- -6-----6-----6-------7-----7---7-----9-----9---------9-----9------|
- ---7-----7-----7---7-----7----------------------------------------|
- -----9-----9------------------------------------------------------|
- ------------------------------------------------------------------|

[Riff 20] - [02:49] - [03:01----------------------------------------| - [2x]
- -12----12----12--10----10----10--9-----9-----9---7-----7-----7----|
- ---10----10----10--10----10----10--10----10----10--7-----7-----9--|
- -----9-----9---------9-----9---------9-----9---------9-----9------|
- ------------------------------------------------------------------|
- ------------------------------------------------------------------|
- ------------------------------------------------------------------|

----------------------------------------------------------------------------

[Riff 20] - [03:01] - [03:25] - [4x]

[Riff 21] - [03:01] - [03:25-| - [4x]
- ---------------------------|
- ---------------------------|
- ---------------------------| strum for 1 bar each
- -7-4-11-6------------------|
- -4-0-7--2------------------|
- -4-0-7--2------------------|

[Rifff 22] - [03:13] - [03:25---------------------------------------| - [2x]
- -9-----9-----9---7-----7-----7---5-----5-----5---4-----4-----4----|
- ---7-----7-----7---7-----7-----7---5-----5-----5---5-----5-----5--|
- -----6-----6---------6-----6---------6-----6---------4-----4------|
- ------------------------------------------------------------------|
- ------------------------------------------------------------------|
- ------------------------------------------------------------------|

----------------------------------------------------------------------------

[Riff 23a] - [03:25] - [03:28]
- ---------------------------------|
- ---------------------------------|
- ---------------------------------|
- -0~------------------------------|
- -0~------------------------------|
- -0~------------------------------|

[Riff 23b] - [03:25] - [03:28]
- -9~------------------------------|
- ---------------------------------|
- ---------------------------------|
- ---------------------------------|
- ---------------------------------|
- ---------------------------------|

[Riff 23c] - [03:25] - [03:28]
- -5~------------------------------|
- ---------------------------------|
- ---------------------------------|
- ---------------------------------|
- ---------------------------------|
- ---------------------------------|

[Riff 24, Guitar 1 & 2] - [03:28] - [03:40]
- -------------------------------------------------------------------|
- -------------------------------------------------------------------|
- -------------------------------------------------------------------|
- -7~----------------------------------------------------------------|
- -7~----------------------------------------------------------------|
- -7~----------------------------------------------------------------|
-
- -------------------------------------------------------------------|
- -5~----------------------------------------------------------------|
- -------------------------------------------------------------------|
- -------------------------------------------------------------------|
- -------------------------------------------------------------------|
- -------------------------------------------------------------------|

----------------------------------------------------------------------------

[Symbols]

PM... Palm Mute notes with (...) under them
b     Bend
r     Release Bend
/     Slide Up
\     Slide Down
h     Hammer On
p     Pull Off
~     Let Ring
\\\\  Pickslide

:)
comments
We did not receive enough feedback on this tab! Please rate:
print report bad tab
1 2 3 4 5
2 comments total.
+1 reply
JRohrer14 wrote on July 6 2011, 01:17 am

Balls on accurate. Thank you so much!

0 reply
josh-josh-josh wrote on July 9 2011, 05:58 pm

aha np mann!

I want to post or [tab]
guest
You may want to rate the tab now too:
select rating
Please do not post tabs as comments. Select "correction" instead!