Oops, an error
Loading. Please wait.

Seventh Trumpet Tab

ver1
ver1

Whole song

Interactive

More versions @911Tabs.com
7,559 views 12 this week
2 commentsread comments
1 2 3 4 5
excellent!
x 3
Autoscroll
+/-
esc
set tempo
stop
Contributor
Difficulty
Tuning
intermediate
C G C F A D
Hey! There's an official Ultimate Guitar app which is ideal
for learning songs when you're away from computer. Get the app
WARNING: You are trying to view
                                    content from Ultimate-Guitar.com
                                    in an unauthorized application,
                                    which is prohibited.

                                    Please use an official Ultimate
                                    Guitar Tabs application for iPhone,
                                    iPad or Android to access legitimate
                                    chords, guitar, bass, and drum tabs
                                    from Ultimate-Guitar.com database.

                                    Type "ultimate guitar tabs" in Apple
                                    App Store's or Android Market's
                                    search to find the application.
                               THE SEVENTH TRUMPET
                         As recorded by August Burns Red
                       (From the 2005 Album THRILL SEEKER)

Transcribed by Colin Cyr

Gtr I (C G C F A D) - 'Untitled'
Gtr II (C G C F A D) - 'Untitled'
Gtr III (C G C F A D) - 'Untitled'
Gtr IV (C G C F A D) - 'Untitled'

 Intro
  Q=175
 4/4
  Gtrs I, II
                                                   PM
  W          +H     +Q.   E   +W           +H.     E E
|----------|----------------|------------|-------------|
|----------|----------------|------------|-----------6-|
|----------|----------------|------------|-----------9-|
|-0--------|-(0)----(0)---0-|-(0)--------|-(0)---------|
|-0--------|-(0)----(0)---0-|-(0)--------|-(0)-----0---|
|-0--------|-(0)----(0)---0-|-(0)--------|-(0)-----0---|


  PM|   PM      PM----|   PM|   PM  PM--|   PM      PM--|     PM|   PM  PM|
  E E E E E E E S S   E E E E E E E E   E E E E E E S S E   E E E E E E E E
|-------------------|-----------------|-------------------|-----------------|
|-----6-------6-----|---6-----6---6---|---6-------6-------|-6-----6---6-----|
|-----9-----9-------|---9-----9---9---|---9-----9---------|-9-----9---9-----|
|---------7---------|-----------------|-------7-----------|-----------------|
|-0-0---0-------0-0-|-0---0-0---0---0-|-0---0-------0-0-0-|---0-0---0---0-0-|
|-0-0---0-------0-0-|-0---0-0---0---0-|-0---0-------0-0-0-|---0-0---0---0-0-|


    PM      PM--|     PM|   PM  PM|     PM      PM----------|   PM|   PM
  E E E E E S S E E   E E E E E E E E   E E E E S S q E   q E E E E E E
|-------------------|-----------------|-----------------|---------------|
|-6-------6-------6-|-----6---6-----6-|-------6---------|-----6-----6---|
|-9-----9---------9-|-----9---9-----9-|-----9-----------|-----9-----9---|
|-----7-------------|-----------------|---7-------------|---------------|
|---0-------0-0-0---|-0-0---0---0-0---|-0-------0-0-0-0-|-0-0---0-0---0-|
|---0-------0-0-0---|-0-0---0---0-0---|-0-------0-0-0-0-|-0-0---0-0---0-|


        PM--|   PM|     PM  PM|   PM        PM--|   PM|     PM  PM|   PM
  E E E S S E E E E   E E E E E E E E   E E S S E E E E E   E E E E E E E E
|-------------------|-----------------|-------------------|-----------------|
|-----6-------6-----|-6---6-----6-----|---6-------6-----6-|---6-----6-------|
|---9---------9-----|-9---9-----9-----|-9---------9-----9-|---9-----9-----9-|
|-7-----------------|---------------7-|-------------------|-------------7---|
|-------0-0-0---0-0-|---0---0-0---0---|-----0-0-0---0-0---|-0---0-0---0-----|
|-------0-0-0---0-0-|---0---0-0---0---|-----0-0-0---0-0---|-0---0-0---0-----|


    PM--|   PM|   PM    PM|   PM        PM--|   PM|   PM    PM|   PM      PM|
  E S S E E E E E E   E E E E E E E E   S S E E E E E E E   E E E E E E E S S
|-------------------|-----------------|-------------------|--------------------|
|-6-------6-----6---|-6-----6-------6-|-------6-----6---6-|-----6-------6------|
|---------9-----9---|-9-----9-----9---|-------9-----9---9-|-----9-----9--------|
|-------------------|-----------7-----|-------------------|---------7----------|
|---0-0-0---0-0---0-|---0-0---0-------|-0-0-0---0-0---0---|-0-0---0-------0-0--|
|---0-0-0---0-0---0-|---0-0---0-------|-0-0-0---0-0---0---|-0-0---0-------0-0--|


  PM    PM------------------------|       PM-------------|
  E  E  E  E  S S S  e.  S S   S  q +s    S S S S S S S  e.
|----------------------------|---------------------------------|
|----6-----------------------|---------------------------------|
|----9-----------------------|---------------------------------|
|----------------------------|---------------------------------|
|-0-----0--0--0-0-0--0---0-0-|-0--0-(0)---0-0-0-0-0-0-0--0-----|
|-0-----0--0--0-0-0--0---0-0-|-0--0-(0)---0-0-0-0-0-0-0--0-----|


   "The moon glows..."
    Gtr I
         PM|       PM|         PM|
    E  E E E  E  E E E    E  E E E  E  E  E  E
||---------------------|-----------------------|
||o--------------------|-----------------------|
||--------------15-----|----14--------14-15-12-|
||--7-12-----12--------|-11--------12----------|
||o------0-0-------0-0-|-------0-0-------------|
||-------0-0-------0-0-|-------0-0-------------|
|
|   Gtr II
|        PM|       PM|       PM-----------------
|   E  E E E  Q    E E    Q  E E Q  S  S  S  S
||---------------------|-----------------------|
||o--------------------|-----------------------|
||---------------------|-----------------------|
||--7-12---------------|-----------------------|
||o------0-0-------0-0-|-----0-0----0--0--0--0-|
||-------0-0-------0-0-|-----0-0----0--0--0--0-|


       PM|       PM|
  E  E E E  E  E E E      E  E  E  E  E  E E  E  4x
|----------------------|-------------------------||
|----------------------|------------------------o||
|-------------14-------|-------------------9-10--||
|-7-11-----11----------|-------14-15-11-12-------||
|------0-0-------0-0---|-12-13------------------o||
|------0-0-------0-0---|-------------------------||
|
|-------------|    PM|
| S  S S S  E  E Q E E    E  E  E  E  E  E E  E  4x
|----------------------|-------------------------||
|----------------------|------------------------o||
|----------------------|-------------------9-10--||
|----------------------|-------14-15-11-12-------||
|-0--0-0-0--0--0---0-0-|-12-13------------------o||
|-0--0-0-0--0--0---0-0-|-------------------------||


       PM|       PM|         PM|
  E  E E E  E  E E E    E  E E E  E  E  E    E
|--------------------|---------------------------|
|--------------------|---------------------------|
|-------------15-----|----14--------14-15---12---|
|-7-12-----12--------|-11--------12--------------|
|------0-0-------0-0-|-------0-0-----------------|
|------0-0-------0-0-|-------0-0-----------------|
|
|      PM|       PM|         PM-------------------
| Q    E E  Q    E E    Q    E E  Q     S S  S S
|--------------------|---------------------------|
|--------------------|---------------------------|
|--------------------|---------------------------|
|--------------------|---------------------------|
|------0-0-------0-0-|-------0-0--------0-0--0-0-|
|------0-0-------0-0-|-------0-0--------0-0--0-0-|


           PM|       PM|
  E    E   E E  E  E E E    E  E  E  E  E  E E  E
|------------------------|------------------------|
|------------------------|------------------------|
|-----------------14-----|-------------------9-10-|
|-7---11-------11--------|-------14-15-11-12------|
|----------0-0-------0-0-|-12-13------------------|
|----------0-0-------0-0-|------------------------|
|
|------------|       PM|
| S S  S S E E  Q    E E    E  E  E  E  E  E E  E
|------------------------|------------------------|
|------------------------|------------------------|
|------------------------|-------------------9-10-|
|------------------------|-------14-15-11-12------|
|-0-0--0-0-0-0-------0-0-|-12-13------------------|
|-0-0--0-0-0-0-------0-0-|------------------------|


 "Something big is going..."
  Q=150
 4/4
  Gtrs I, II
    PM--------|     PM----------|    PM------|   PM----------------|    PM--|
  E E E E E E E E   E E E S E S E  E E   E E E E E E E E   E S E S E  E E E E
|-----------------|--------------------|-----------------|---------------------|
|-----------------|----------------8---|-----------------|------------8--------|
|-2---------------|---------------11---|-------2---------|-----------11--------|
|-2---------------|--------------------|-------2---------|---------------------|
|-0-3-2-0-5-3-2---|-0-2-3-0-0-0-0----0-|-4-3-0-0-3-2-0-2-|-3-0-0-0-0----0-4-3--|
|---3-2-0-5-3-2---|-0-2-3-0-0-0-0----0-|-4-3-0---3-2-0-2-|-3-0-0-0-0----0-4-3--|


  PM  PM----------|       PM|    PM----|
  E E E E E E E S S   +S  S E  E E E E E E
|-------------------|----------------------|
|-------------------|----------8-----------|
|---2---------------|---------11---------2-|
|---2---------------|--------------------2-|
|-0-0-3-2-0-2-3-0-0-|-(0)-0-0----0-4-3-0-0-|
|-0---3-2-0-2-3-0-0-|-(0)-0-0----0-4-3-0---|


  PM--------------|      PM----|   PM|
  E E E E E S E S E    E E E E E E E E
|-------------------|-------------------|
|-------------------|--8----------------|
|-------------------|-11---------2------|
|-------------------|------------2------|
|-3-2-0-2-3-0-0-0-0-|----0-4-3-0-0-3-2--|
|-3-2-0-2-3-0-0-0-0-|----0-4-3-0---3-2--|


   Breakdown
    Q=160
    PM--------------------------------------------------------|
    s  e  s  e  s  e.  s s s e.    s s s  e.   s s s s s s s  e.
||-------------------------------|--------------------------------||
||o------------------------------|-------------------------------o||
||-------------------------------|--------------------------------||
||-------------------------------|--------------------------------||
||o-0--0--0--0--0--0---0-0-0-0---|-0-0-0--0----0-0-0-0-0-0-0--0--o||
||--0--0--0--0--0--0---0-0-0-0---|-0-0-0--0----0-0-0-0-0-0-0--0---||


  PM--------------------------------------------------------|
  s e s e  s s  s e  s e  s s    +e  s s  s e.  s s s e.  s s
|------------------------------|---------------------------------|
|------------------------------|---------------------------------|
|------------------------------|---------------------------------|
|------------------------------|---------------------------------|
|-0-0-0-0--0-0--0-0--0-0--0-0--|-(0)-0-0--0-0---0-0-0-0---0-0----|
|-0-0-0-0--0-0--0-0--0-0--0-0--|-(0)-0-0--0-0---0-0-0-0---0-0----|


  PM--------------------------------------------------------------|
  s s s s s e.  s  e    s  e  s  s   +e   s s s e.   s s s  e.  s s
|----------------------------------|------------------------------------|
|----------------------------------|------------------------------------|
|----------------------------------|------------------------------------|
|----------------------------------|------------------------------------|
|-0-0-0-0-0-0---0--0----0--0--0--0-|-(0)--0-0-0-0----0-0-0--0---0-0-----|
|-0-0-0-0-0-0---0--0----0--0--0--0-|-(0)--0-0-0-0----0-0-0--0---0-0-----|
|
| Gtr II
| H             E     E    E     E    E   E   E    E   E    E   E   E
|----------------------------------|------------------------------------|
|----------------------------------|------------------------------------|
|--------------------10----9-------|------9---7------------10-------9---|
|---------------7---------------10-|--6------------9---7--------6-------|
|----------------------------------|------------------------------------|
|----------------------------------|------------------------------------|


  PM-----------------------------------------------------------------|
  s s s s s e.    s e   s e   s  s      +e   s s s e.   s s s  e.  s s
|-----------------------------------|-------------------------------------|
|-----------------------------------|-------------------------------------|
|-----------------------------------|-------------------------------------|
|-----------------------------------|-------------------------------------|
|-0-0-0-0-0-0-----0-0---0-0---0--0--|---(0)--0-0-0-0----0-0-0--0---0-0----|
|-0-0-0-0-0-0-----0-0---0-0---0--0--|---(0)--0-0-0-0----0-0-0--0---0-0----|
|
| E   E   E     E   E   E   E    E       E   E   E    E   E    E   E   E
|-----------------------------------|-------------------------------------|
|-----------------------------------|-------------------------------------|
|-----9--------10------10---9-------|--------9---7------------10-------9--|
|-6-------7---------7-----------10--|----6------------9---7--------6------|
|-----------------------------------|-------------------------------------|
|-----------------------------------|-------------------------------------|


    PM--------------|                            PM
    s  s  s  s  s   s   E    E      E      E     E
|---------------------------------------------------|
|---------------------------------------------------|
|----------------------------------15-----14--------|
|---------------------------12----------------------|
|---0--0--0--0--0---0----------------------------0--|
|---0--0--0--0--0---0----------------------------0--|
|
| E       E       E     E                        H
|---------------------------------------------------|
|---------------------------------------------------|
|---------9-----------------------------------------|
|-6---------------7---------------------------------|
|---------------------------------------------------|
|---------------------------------------------------|


 "What have you all done"
  Gtr I
  PM               PM              PM            PM----------|
  E Q.  E   E   E  E    E   E   E  E   E   E   E S S   +S  S E E E  E  E  E  E
|--------------------|-------------------------------|-------------------------|
|--------------------|-------------------------------|-------------------------|
|----------15--14----|-----14--12---------15--14-----|----------------15----14-|
|------12------------|-11-------------12-------------|-------------12----11----|
|-0----------------0-|-------------0-------------0-0-|-(0)-0-0-0---------------|
|-0----------------0-|-------------0-------------0-0-|-(0)-0-0-0---------------|


  PM|               PM           PM
  S E Q  S  E  E  E E    E  E  E E  E  E  E  E
|---------------------|------------------------|
|---------------------|------------------------|
|-------------15-14---|----14-12------15----14-|
|----------12---------|-11---------12----11----|
|-0-0---------------0-|----------0-------------|
|-0-0---------------0-|----------0-------------|
|
| Gtr II
|           PM----------------------------------
|   H       E  E  E E    E  E  E E  E  E  E  E
|---------------------|------------------------|
|---------------------|------------------------|
|---------------------|------------------------|
|---------------------|------------------------|
|-----------5--5--5-5-|--4--4--4-4--1--1--1--1-|
|---------------------|------------------------|


  PM         PM           PM            PM
  E  E  E  E E  E  E  E   E  E  E  E  E E  E  E
|-----------------------|------------------------|
|-----------------------|------------------------|
|------15-14------14-12-|------15----14------15--|
|---12---------11-------|---12----11------12-----|
|-0----------0----------|-0-------------0--------|
|-0----------0----------|-0-------------0--------|
|
|--------------------------------------------|
| E  E  E  E E  E  E  E   E  E  E  E  E E  E  E
|-----------------------|------------------------|
|-----------------------|------------------------|
|-----------------------|------------------------|
|-----------------------|------------------------|
|-0--5--5--5-5--4--4--4-|-4--1--1--1--1-0--5--5--|
|-0---------------------|---------------0--------|


     PM           PM                PM           PM
   E E  E  E    E E  E  E      E  E E  E    E  E E  E
|--------------------------|---------------------------|
|--------------------------|---------------------------|
|-14------14---12------15--|-----14--------15-14-------|
|------11-----------12-----|--11------12-----------11--|
|----0------------0--------|--------0------------0-----|
|----0------------0--------|--------0------------0-----|
|
|    PM-------------------------------------------------
|    E  E  E E  E E  E  E      E  E E  E E  E  E E
|--------------------------|---------------------------|
|--------------------------|---------------------------|
|--------------------------|---------------------------|
|--------------------------|---------------------------|
|----5--5--4-4--4-4--1--1--|---1--1-0--5-5--5--5-4-----|
|--------------------------|--------0------------------|


                          Gtrs I, II
          PM              PM
     E  E E  E    E  E  E E
|-----------------------------|
|-----------------------------|
|---14-12--------15----14-----|
|-----------12------11--------|
|---------0---------------0---|
|---------0---------------0---|
|
|----------------|
| E  E  E E  E E  E  E
|-----------------------------|
|-----------------------------|
|-----------------------------|
|-----------------------------|
|-4--4--4-1--1-1--1-----------|
|-----------------------------|


    Gtrs I, II
    PM--|             PM------|             PM-
    E E E  E  E  E  E E   E E E  E  E  E  E E
||--------10-10-10-10---|-------12-12-12-12---|
||o-------10-10-10-10---|-------10-10-10-10---|
||---------7--7--7--7---|--------7--7--7--7---|
||----------------------|---------------------|
||o-0-0-0-------------0-|-0-0-0-------------0-|
||--0-0-0-------------0-|-0-0-0-------------0-|


 -----|             PM------|             PM|
  E E E  E  E  E  E E   E E E  E  E  E  E S S
|-------13-13-13-13---|-------15-15-15-15-----|
|-------10-10-10-10---|-------14-14-14-14-----|
|--------7--7--7--7---|-------12-12-12-12-----|
|---------------------|-----------------------|
|-0-0-0-------------0-|-0-0-0-------------8-8-|
|-0-0-0-------------0-|-0-0-0-------------8-8-|


  PM--|             PM--------|             PM-
  E E E  E  E  E  E S S   E E E  E  E  E  E E
|-------10-10-10-10-----|-------10-10-10-10---|
|-------11-11-11-11-----|-------11-11-11-11---|
|-----------------------|---------------------|
|--------8--8--8--8-----|--------8--8--8--8---|
|-8-8-8-------------8-8-|-8-8-8-------------7-|
|-8-8-8-------------8-8-|-8-8-8-------------7-|


 -----|             PM--------|                   PM
  E E E  E  E  E  E S S   E E E  S  S S S S S S S E
|--------9--9--9--9-----|----------------------------||
|-------10-10-10-10-----|-------10-10-8-8-6-6-5-5---o||
|-----------------------|----------------------------||
|--------7--7--7--7-----|----------------------------||
|-7-7-7-------------7-7-|-7-7-7-------------------0-o||
|-7-7-7-------------7-7-|-7-7-7-------------------0--||


                                          Q=2
                                          Gtr
  PM--|                                   PM
  E E E  E  E  E  +Q      +H.         +E  E
|-------10-10-10-(10)--|-(10)--------(10)---|
|-------10-10-10-(10)--|-(10)--------(10)---|
|--------7--7--7--(7)--|--(7)---------(7)---|
|----------------------|--------------------|
|-0-0-0----------------|------------------0-|
|-0-0-0----------------|------------------0-|


 00
  I
    PM  PM  PM|     PM  PM  PM|   PM
  E E E E E E E E   E E E E E E E E
|-----------------|-----------------|
|-----------------|-----------------|
|-----------------|-----------------|
|-7---8---7-----7-|---8---7-----7---|
|---0---0---0-0---|-0---0---0-0---0-|
|---0---0---0-0---|-0---0---0-0---0-|


  Gtr I
    PM  PM|   PM    PM  PM|   PM  PM    PM|   PM  PM    PM|   PM  PM  PM
  E E E E E E E E   E E E E E E E E   E E E E E E E E   E E E E E E E E
|-----------------|-----------------|-----------------|-----------------|
|-----------------|-----------------|-----------------|-----------------|
|-----------------|-----------------|-----------------|-----------------|
|-8---7-----7---8-|---7-----7---8---|-7-----7---8---7-|-----7---8---7---|
|---0---0-0---0---|-0---0-0---0---0-|---0-0---0---0---|-0-0---0---0---0-|
|---0---0-0---0---|-0---0-0---0---0-|---0-0---0---0---|-0-0---0---0---0-|
|
| Gtr II
|       W             H     E E E E   E Q   E E E E E   Q   E E E E E E
|-----------------|-----------------|-----------------|-----------------|
|-----------------|-----------------|-----------------|-----------------|
|-----------------|---------7---6---|-7-----7---6---7-|-----7---6---7---|
|-----------------|-----------------|-----------------|-----------------|
|-----------------|-----------------|-----------------|-----------------|
|-----------------|-----------------|-----------------|-----------------|


  PM  PM  PM  PM|     PM  PM  PM|     PM  PM   PM|    PM     PM  PM|    PM
  E E E E E E E E   E E E E E E E E   E E E  E E E  E E    E E E E E  E E E
|-----------------|-----------------|-------------------|-------------------|
|-----------------|-----------------|--------6------8---|--6----------------|
|-----------------|---------------9-|---7---------------|------9-----10---9-|
|---7---8---7-----|-7---8---7-------|-------------------|-------------------|
|-0---0---0---0-0-|---0---0---0-0---|-0---0----0-0----0-|----0---0-0----0---|
|-0---0---0---0-0-|---0---0---0-0---|-0---0----0-0----0-|----0---0-0----0---|
|
| E E E E E E Q     E E E E E Q   E   E E E  E Q    E E    E E E Q    E E E
|-----------------|-----------------|-------------------|-------------------|
|-----------------|---------------8-|---6---10-----11---|-10---8-----10---8-|
|---7---6---7-----|-7---6---7-------|-------------------|-------------------|
|-----------------|-----------------|-------------------|-------------------|
|-----------------|-----------------|-------------------|-------------------|
|-----------------|-----------------|-------------------|-------------------|


  PM   PM|   PM  PM    PM|   PM  PM     PM|    PM   PM  PM--|    PM  PM   PM|
  E  E E E E E E E   E E E E E E E  E   E E  E E  E E E E   E  E E E E  E E E
|------------------|------------------|-------------------|-------------------|
|---10-------------|----------------6-|------8----6-------|------------10-----|
|------------------|-------9---7------|---------------9---|---10---9----------|
|----------7---8---|-7----------------|-------------------|-------------------|
|-0----0-0---0---0-|---0-0---0---0----|-0-0----0----0---0-|-0----0---0----0-0-|
|-0----0-0---0---0-|---0-0---0---0----|-0-0----0----0---0-|-0----0---0----0-0-|
|
| E  E Q   E E E E   E Q   E E E E  E   Q    E E  E E E E   E  E E E E  E Q
|----9-------------|------------------|-------------------|-------------9-----|
|------------------|-------8---6---10-|-----11---10---8---|---10---8----------|
|----------7---6---|-7----------------|-------------------|-------------------|
|------------------|------------------|-------------------|-------------------|
|------------------|------------------|-------------------|-------------------|
|------------------|------------------|-------------------|-------------------|


    PM  PM  PM|     PM  PM   PM|    PM     PM  PM|    PM    PM   PM|   PM  PM
  E E E E E E E E   E E E  E E E  E E    E E E E E  E E E   E  E E E E E E E
|-----------------|-------------------|-------------------|------------------|
|-----------------|--------6------8---|--6----------------|---10-------------|
|---------------9-|---7---------------|------9-----10---9-|------------------|
|-7---8---7-------|-------------------|-------------------|----------7---8---|
|---0---0---0-0---|-0---0----0-0----0-|----0---0-0----0---|-0----0-0---0---0-|
|---0---0---0-0---|-0---0----0-0----0-|----0---0-0----0---|-0----0-0---0---0-|
|
| E E E E E Q   E   E E E  E Q    E E    E E E Q    E E E   E  E Q   E E E E
|-----------------|-------------------|-------------------|----9-------------|
|---------------8-|---6---10-----11---|-10---8-----10---8-|------------------|
|-7---6---7-------|-------------------|-------------------|----------7---6---|
|-----------------|-------------------|-------------------|------------------|
|-----------------|-------------------|-------------------|------------------|
|-----------------|-------------------|-------------------|------------------|


    PM|   PM  PM     PM|    PM   PM  PM-
  E E E E E E E  E   E E  E E  E E E E
|------------------|-------------------|
|----------------6-|------8----6-------|
|-------9---7------|---------------9---|
|-7----------------|-------------------|
|---0-0---0---0----|-0-0----0----0---0-|
|---0-0---0---0----|-0-0----0----0---0-|
|
| E Q   E E E E  E   Q    E E  E E E E
|------------------|-------------------|
|-------8---6---10-|-----11---10---8---|
|-7----------------|-------------------|
|------------------|-------------------|
|------------------|-------------------|
|------------------|-------------------|


             Q=160
                                       Gtr III
 -|    PM  PM
  E  E E E E  E  +Q      +H      +Q.   E
|---------------------|----------------0-|
|------------10-(10)--|-(10)----(10)---6-|
|---10---9------------|----------------9-|
|---------------------|----------------7-|
|-0----0---0----------|------------------|
|-0----0---0----------|------------------|
|
|                                      Gtr IV
| E  E E E E  E  +Q      +H      +Q.   E
|-------------9--(9)--|--(9)-----(9)-----|
|---10---8------------|------------------|
|---------------------|------------------|
|---------------------|------------------|
|---------------------|------------------|
|---------------------|------------------|


 "I am now convinced..."
  E E E E E E E E   E E E E E E E E   E E E E E E E E   E E E E  E E E  E
|-0-0-0-0-0-0-0-0-|-0-0-0-0-0-0-0-9-|-9-9-9-9-9-9-9-9-|-9-9-9-9--9-9-9--0-|
|-6-6-6-6-6-6-6-6-|-6-6-6-6-6-6-6-8-|-8-8-8-8-8-8-8-8-|-8-8-8-8--8-8-8--6-|
|-9-9-9-9-9-9-9-9-|-9-9-9-9-9-9-9-6-|-6-6-6-6-6-6-6-6-|-6-6-6-6--6-6-6--9-|
|-7-7-7-7-7-7-7-7-|-7-7-7-7-7-7-7-7-|-7-7-7-7-7-7-7-7-|-7-7-7-7--7-7-7--7-|
|-----------------|-----------------|-----------------|-------------------|
|-----------------|-----------------|-----------------|-------------------|
|
|       W                 W                 W                 H.     E  E
|-----------------|-----------------|-----------------|-------------------|
|-----------------|-----------------|-----------------|----------------10-|
|-----------------|-----------------|-----------------|----------------14-|
|-----------------|-----------------|-----------------|----------------12-|
|-----------------|-----------------|-----------------|-------------------|
|-----------------|-----------------|-----------------|-------------------|


     E  E  E  E  E  E  E  E    E  E  E  E  E  E  E  E
||---0--0--0--0--0--0--0--0-|--0--0--0--0--0--0--0--9-|
||o--6--6--6--6--6--6--6--6-|--6--6--6--6--6--6--6--8-|
||---9--9--9--9--9--9--9--9-|--9--9--9--9--9--9--9--6-|
||---7--7--7--7--7--7--7--7-|--7--7--7--7--7--7--7--7-|
||o-------------------------|-------------------------|
||--------------------------|-------------------------|
|
|    E  E  E  E  E  E  E  E    E  E  E  E  E  E  E  E
||--------------------------|-------------------------|
||o-10-10-10-10-10-10-10-10-|-10-10-10-10-10-10-10-11-|
||--14-14-14-14-14-14-14-14-|-14-14-14-14-14-14-14-14-|
||--12-12-12-12-12-12-12-12-|-12-12-12-12-12-12-12-12-|
||o-------------------------|-------------------------|
||--------------------------|-------------------------|


   E  E  E  E  E  E  E  E    E  E  E  E  E  E  E  E   4x
|--9--9--9--9--9--9--9--9-|--9--9--9--9--9--9--9--0---||
|--8--8--8--8--8--8--8--8-|--8--8--8--8--8--8--8--6--o||
|--6--6--6--6--6--6--6--6-|--6--6--6--6--6--6--6--9---||
|--7--7--7--7--7--7--7--7-|--7--7--7--7--7--7--7--7---||
|-------------------------|--------------------------o||
|-------------------------|---------------------------||
|
|  E  E  E  E  E  E  E  E    E  E  E  E  E  E  E  E   4x
|-------------------------|---------------------------||
|-11-11-11-11-11-11-11-11-|-11-11-11-11-11-11-11-10--o||
|-14-14-14-14-14-14-14-14-|-14-14-14-14-14-14-14-14---||
|-12-12-12-12-12-12-12-12-|-12-12-12-12-12-12-12-12---||
|-------------------------|--------------------------o||
|-------------------------|---------------------------||


   E  E  E  E  E  E  E  E    E  E  E  E  E  E  E  E
|--0--0--0--0--0--0--0--0-|--0--0--0--0--0--0--0--9-|
|--6--6--6--6--6--6--6--6-|--6--6--6--6--6--6--6--8-|
|--9--9--9--9--9--9--9--9-|--9--9--9--9--9--9--9--6-|
|--7--7--7--7--7--7--7--7-|--7--7--7--7--7--7--7--7-|
|-------------------------|-------------------------|
|-------------------------|-------------------------|
|
|  E  E  E  E  E  E  E  E    E  E  E  E  E  E  E  E
|-------------------------|-------------------------|
|-10-10-10-10-10-10-10-10-|-10-10-10-10-10-10-10-11-|
|-14-14-14-14-14-14-14-14-|-14-14-14-14-14-14-14-14-|
|-12-12-12-12-12-12-12-12-|-12-12-12-12-12-12-12-12-|
|-------------------------|-------------------------|
|-------------------------|-------------------------|


   E  E  E  E  E  E  E  E    E  E  E  E  E  E  E  E
|--9--9--9--9--9--9--9--9-|--9--9--9--9--9--9--9--9-|
|--8--8--8--8--8--8--8--8-|--8--8--8--8--8--8--8--8-|
|--6--6--6--6--6--6--6--6-|--6--6--6--6--6--6--6--6-|
|--7--7--7--7--7--7--7--7-|--7--7--7--7--7--7--7--7-|
|-------------------------|-------------------------|
|-------------------------|-------------------------|
|
|  E  E  E  E  E  E  E  E    E  E  E  E  E  E  E  E
|-------------------------|-------------------------|
|-11-11-11-11-11-11-11-11-|-11-11-11-11-11-11-11-11-|
|-14-14-14-14-14-14-14-14-|-14-14-14-14-14-14-14-14-|
|-12-12-12-12-12-12-12-12-|-12-12-12-12-12-12-12-12-|
|-------------------------|-------------------------|
|-------------------------|-------------------------|


                                 Gtr I
                                  PM|
  W                  H     Q.     S S
|------------|------------------------|
|------------|------------------------|
|------------|------------------------|
|------------|------------------------|
|------------|--------------------0-0-|
|------------|--------------------0-0-|
|
| W                  H     Q.     E
|------------|------------------------|
|------------|-------------------10---|
|------------|-------------------14---|
|------------|-------------------12---|
|------------|------------------------|
|------------|------------------------|


   "The stars begin to fall"
      PM----------------|     PM----------------------------------------|
      S    e.  S  S  S  S  Q  S S S  S    S  S  S   e. S S S e. S  S  S  S
||-------------------------------------|-----------------------------------|
||o------------------------------------|-----------------------------------|
||-------------------------------------|-----------------------------------|
||-------------------------------------|-----------------------------------|
||o---0----0---0--0--0--0-----0-0-0--0-|--0--0--0---0--0-0-0-0--0--0--0--0-|
||----0----0---0--0--0--0-----0-0-0--0-|--0--0--0---0--0-0-0-0--0--0--0--0-|
|
|    +E    E   E  E  E     Q         E    E  E  E   Q              E  E  E
||-------------------------------------|-----------12-------------12-12-12-|
||o-(10)--10--10-10-10----11--------11-|-11-11-11--11-------------11-11-11-|
||--(14)--14--14-14-14----14--------14-|-14-14-14--14-------------14-14-14-|
||--(12)--12--12-12-12----12--------12-|-12-12-12--12-------------12-12-12-|
||o------------------------------------|-----------------------------------|
||-------------------------------------|-----------------------------------|


         PM---------------------|
   Q     S S S S  S  S  S  e. S S        7x
|----------------------------------------||
|---------------------------------------o||
|----------------------------------------||
|----------------------------------------||
|--------0-0-0-0--0--0--0--0--0-0-------o||
|--------0-0-0-0--0--0--0--0--0-0--------||
|
|  E   Q          E  E  E  E       E     7x
|-12--12---------12-12-12-12-------------||
|-11--11---------11-11-11-11------10----o||
|-14--14---------14-14-14-14------14-----||
|-12--12---------12-12-12-12------12-----||
|---------------------------------------o||
|----------------------------------------||


    PM---------------|       PM--------
    S  e.     S S  S S  Q    S S  S S
|-------------------------------------|
|-------------------------------------|
|-------------------------------------|
|-------------------------------------|
|---0--0------0-0--0-0-------0-0--0-0-|
|---0--0------0-0--0-0-------0-0--0-0-|
|
|  +E      E  E    E    E  Q      E
|-------------------------------------|
|-(10)----10-10---10---10-11-----11---|
|-(14)----14-14---14---14-14-----14---|
|-(12)----12-12---12---12-12-----12---|
|-------------------------------------|
|-------------------------------------|


 ------------------------------------|         PM-----------------------|
   S S  S e.     S S S e.     S S  S S    Q    S S  S S  S S  S e.    S S
|--------------------------------------|------------------------------------|
|--------------------------------------|------------------------------------|
|--------------------------------------|------------------------------------|
|--------------------------------------|------------------------------------|
|--0-0--0-0------0-0-0-0------0-0--0-0-|-------0-0--0-0--0-0--0-0-----0-0---|
|--0-0--0-0------0-0-0-0------0-0--0-0-|-------0-0--0-0--0-0--0-0-----0-0---|
|
|  E    E     E  Q         E  E    E      E  Q      E    E    E     E   E
|---------------12--------12-12---12---|-12-12-----12---12---12----12-------|
|-11---11----11-11--------11-11---11---|-11-11-----11---11---11----11-------|
|-14---14----14-14--------14-14---14---|-14-14-----14---14---14----14-------|
|-12---12----12-12--------12-12---12---|-12-12-----12---12---12----12-------|
|--------------------------------------|------------------------------------|
|--------------------------------------|------------------------------------|


  Gtrs I, II
  PM---------|    PM--------------------------------|
  S e. S S S S Q  S S S S   S S S e. S S S e. S S S S
|-------------------------|---------------------------|
|-------------------------|---------------------------|
|-------------------------|---------------------------|
|-------------------------|---------------------------|
|-0-0--0-0-0-0----0-0-0-0-|-0-0-0-0--0-0-0-0--0-0-0-0-|
|-0-0--0-0-0-0----0-0-0-0-|-0-0-0-0--0-0-0-0--0-0-0-0-|


     PM-----------------|
  Q  S S S S S S S e. S S
|--------------------------|
|--------------------------|
|--------------------------|
|--------------------------|
|----0-0-0-0-0-0-0-0--0-0--|
|----0-0-0-0-0-0-0-0--0-0--|


  PM---------|    PM--------------------------------|
  S e. S S S S Q  S S S S   S S S e. S S S e. S S S S
|-------------------------|---------------------------|
|-------------------------|---------------------------|
|-------------------------|---------------------------|
|-------------------------|---------------------------|
|-0-0--0-0-0-0----0-0-0-0-|-0-0-0-0--0-0-0-0--0-0-0-0-|
|-0-0--0-0-0-0----0-0-0-0-|-0-0-0-0--0-0-0-0--0-0-0-0-|
|
|          W                           W
|-------------------------|---------------------------|
|-------------------------|---------------------------|
|-------------------------|---------------------------|
|-------------------------|---------------------------|
|-------------------------|---------------------------|
|-------------------------|---------------------------|


                       Gtr I
     PM-------------------|
  Q  S S S S S  S S e.  S S
|----------------------------|
|----------------------------|
|----------------------------|
|----------------------------|
|----0-0-0-0-0--0-0-0---0-0--|
|----0-0-0-0-0--0-0-0---0-0--|
|
|                      Gtr IV
|            H.   E     E
|----------------------------|
|----------------------10----|
|----------------------14----|
|----------------------12----|
|----------------------------|
|----------------------------|


    PM---------------|       PM--------
    S  e.     S S  S S  Q    S S  S S
|-------------------------------------|
|-------------------------------------|
|-------------------------------------|
|-------------------------------------|
|---0--0------0-0--0-0-------0-0--0-0-|
|---0--0------0-0--0-0-------0-0--0-0-|
|
|  +E      E  E    E    E  Q      E
|-------------------------------------|
|-(10)----10-10---10---10-11-----11---|
|-(14)----14-14---14---14-14-----14---|
|-(12)----12-12---12---12-12-----12---|
|-------------------------------------|
|-------------------------------------|


 ------------------------------------|         PM------------------------|
   S S  S e.     S S S e.     S S  S S    Q    S S  S S  S S  S e.     S S
|--------------------------------------|-------------------------------------|
|--------------------------------------|-------------------------------------|
|--------------------------------------|-------------------------------------|
|--------------------------------------|-------------------------------------|
|--0-0--0-0------0-0-0-0------0-0--0-0-|-------0-0--0-0--0-0--0-0------0-0---|
|--0-0--0-0------0-0-0-0------0-0--0-0-|-------0-0--0-0--0-0--0-0------0-0---|
|
|  E    E     E  Q         E  E    E      E  Q      E    E    E     E  E
|---------------12--------12-12---12---|-12-12-----12---12---12----12--------|
|-11---11----11-11--------11-11---11---|-11-11-----11---11---11----11-10-----|
|-14---14----14-14--------14-14---14---|-14-14-----14---14---14----14-14-----|
|-12---12----12-12--------12-12---12---|-12-12-----12---12---12----12-12-----|
|--------------------------------------|-------------------------------------|
|--------------------------------------|-------------------------------------|


   PM--------------|       PM--------------------------------------------|
   S e.     S S  S S  Q    S S  S S    S S  S e.     S S S e.     S S  S S
|-----------------------------------|--------------------------------------|
|-----------------------------------|--------------------------------------|
|-----------------------------------|--------------------------------------|
|-----------------------------------|--------------------------------------|
|--0-0------0-0--0-0-------0-0--0-0-|--0-0--0-0------0-0-0-0------0-0--0-0-|
|--0-0------0-0--0-0-------0-0--0-0-|--0-0--0-0------0-0-0-0------0-0--0-0-|
|
|  E     E  E    E    E  Q      E      E    E     E  Q         E  E    E
|-----------------------------------|---------------12--------12-12---12---|
|-10----10-10---10---10-11-----11---|-11---11----11-11--------11-11---11---|
|-14----14-14---14---14-14-----14---|-14---14----14-14--------14-14---14---|
|-12----12-12---12---12-12-----12---|-12---12----12-12--------12-12---12---|
|-----------------------------------|--------------------------------------|
|-----------------------------------|--------------------------------------|


        PM------------------------|
   Q    S S  S S  S S  S e.     S S
|-------------------------------------|
|-------------------------------------|
|-------------------------------------|
|-------------------------------------|
|-------0-0--0-0--0-0--0-0------0-0---|
|-------0-0--0-0--0-0--0-0------0-0---|
|
|  E  Q      E    E    E     E  E
|-12-12-----12---12---12----12--------|
|-11-11-----11---11---11----11--------|
|-14-14-----14---14---14----14--------|
|-12-12-----12---12---12----12-12-----|
|-------------------------------------|
|-------------------------------------|


     PM--------------|        PM---------------------------------------------|
     S e.     S S  S S  Q     S S  S S    S S  S e.     S S  S e.     S S  S S
||-------------------------------------|---------------------------------------|
||o------------------------------------|---------------------------------------|
||-------------------------------------|---------------------------------------|
||-------------------------------------|---------------------------------------|
||o--0-0------0-0--0-0--------0-0--0-0-|--0-0--0-0------0-0--0-0------0-0--0-0-|
||---0-0------0-0--0-0--------0-0--0-0-|--0-0--0-0------0-0--0-0------0-0--0-0-|
|
|    E     E  E    E    E  E  E    E      E    E     E  E    E     E  E    E
||-------------------------------------|--------------------12------------12---|
||o-10------------10---------11--------|------11------------------11-----------|
||--------14-----------14---------14---|------------14-------------------------|
||-----------12-----------12-----------|-12------------12------------12--------|
||o------------------------------------|---------------------------------------|
||-------------------------------------|---------------------------------------|


         PM------------------------|
   Q     S S  S S  S S  S e.     S S   3x
|--------------------------------------||
|-------------------------------------o||
|--------------------------------------||
|--------------------------------------||
|--------0-0--0-0--0-0--0-0------0-0--o||
|--------0-0--0-0--0-0--0-0------0-0---||
|
|  E  E  E    E    E    E     E  E     3x
|-------12-------------12--------------||
|-11---------11--------------11-------o||
|--------------------------------------||
|----12-----------12------------12-----||
|-------------------------------------o||
|--------------------------------------||


   PM--------------|        PM---------------------------------------------|
   S e.     S S  S S  Q     S S  S S    S S  S e.     S S  S e.     S S  S S
|------------------------------------|---------------------------------------|
|------------------------------------|---------------------------------------|
|------------------------------------|---------------------------------------|
|------------------------------------|---------------------------------------|
|--0-0------0-0--0-0--------0-0--0-0-|--0-0--0-0------0-0--0-0------0-0--0-0-|
|--0-0------0-0--0-0--------0-0--0-0-|--0-0--0-0------0-0--0-0------0-0--0-0-|
|
|  E     E  E    E    E  E  E    E      E    E     E  E    E     E  E    E
|------------------------------------|--------------------12------------12---|
|-10------------10---------11--------|------11------------------11-----------|
|-------14-----------14---------14---|------------14-------------------------|
|----------12-----------12-----------|-12------------12------------12--------|
|------------------------------------|---------------------------------------|
|------------------------------------|---------------------------------------|


         PM-----------------------|
   Q     S S  S S  S S  S e.    S S
|-------------------------------------|
|-------------------------------------|
|-------------------------------------|
|-------------------------------------|
|--------0-0--0-0--0-0--0-0-----0-0---|
|--------0-0--0-0--0-0--0-0-----0-0---|
|
|  E  E  E    E    E    E     E E
|-------12-------------12-------------|
|-11---------11--------------11-------|
|-------------------------------------|
|----12-----------12------------------|
|-------------------------------------|
|-------------------------------------|


    Gtrs I, II
    PM---------|    PM-------
    S e. S S S S Q  S S S S
||--------------------------|
||o-------------------------|
||--------------------------|
||--------------------------|
||o-0-0--0-0-0-0----0-0-0-0-|
||--0-0--0-0-0-0----0-0-0-0-|


 -------------------------|      PM-----------------|
  S S S e. S S S e. S S S S   Q  S S S S S S S e. S S  3x
|---------------------------|--------------------------||
|---------------------------|-------------------------o||
|---------------------------|--------------------------||
|---------------------------|--------------------------||
|-0-0-0-0--0-0-0-0--0-0-0-0-|----0-0-0-0-0-0-0-0--0-0-o||
|-0-0-0-0--0-0-0-0--0-0-0-0-|----0-0-0-0-0-0-0-0--0-0--||


  PM---------|    PM-------
  S e. S S S S Q  S S S S
|-------------------------|
|-------------------------|
|-------------------------|
|-------------------------|
|-0-0--0-0-0-0----0-0-0-0-|
|-0-0--0-0-0-0----0-0-0-0-|


 -------------------------|      PM---------------|
  S S S e. S S S e. S S S S   Q  S S S S S S S e. E
|---------------------------|-------------------------|
|---------------------------|-------------------------|
|---------------------------|-------------------------|
|---------------------------|-------------------------|
|-0-0-0-0--0-0-0-0--0-0-0-0-|----0-0-0-0-0-0-0-0--0---|
|-0-0-0-0--0-0-0-0--0-0-0-0-|----0-0-0-0-0-0-0-0--0---|


  H  E Q.     +W           +W           +W
|-----------|------------|------------|--------*|
|-----------|------------|------------|--------*|
|-----------|------------|------------|--------*|
|------0----|-(0)--------|-(0)--------|-(0)----*|
|------0----|-(0)--------|-(0)--------|-(0)----*|
|------0----|-(0)--------|-(0)--------|-(0)----*|


Duration Legend
---------------
W - whole; H - half; Q - quarter; E - 8th; S - 16th; T - 32nd; X - 64th; a - acciaccatura
+ - note tied to previous; . - note dotted; .. - note double dotted
Uncapitalized letters represent notes that are staccato (1/2 duration)
Irregular groupings are notated above the duration line
Duration letters will always appear directly above the note/fret number it represents the
duration for.  Duration letters with no fret number below them represent rests.  Multi-
bar rests are notated in the form Wxn, where n is the number of bars to rest for.  Low
melody durations appear below the staff

Tablature Legend
----------------
 h   - hammer-on
 p   - pull-off
 b   - bend
 pb  - pre-bend
 r   - bend release (if no number after the r, then release immediately)
 /\  - slide into or out of (from/to "nowhere")
 s   - legato slide
 S   - shift slide
  - natural harmonic
[n]  - artificial harmonic
n(n) - tapped harmonic
 ~   - vibrato
 tr  - trill
 T   - tap
 TP  - trem. picking
 PM  - palm muting
\n/  - tremolo bar dip; n = amount to dip
 \n  - tremolo bar down
 n/  - tremolo bar up
/n\  - tremolo bar inverted dip
 =   - hold bend; also acts as connecting device for hammers/pulls
 <>  - volume swell (louder/softer)
 x   - on rhythm slash represents muted slash
 o   - on rhythm slash represents single note slash

Misc Legend
-----------
 |  - bar
||  - double bar
||o - repeat start
o|| - repeat end
*|  - double bar (ending)
 :  - bar (freetime)
 $  - Segno
 &  - Coda
Tempo markers -  = BPM(8/16=s8/s16), where s8 = swing 8ths, s16 = swing 16ths


***************************************************************************************
* Generated using Power Tab Editor by Brad Larsen - http://powertab.guitarnetwork.org *
***************************************************************************************
comments
We did not receive enough feedback on this tab! Please rate:
print report bad tab
1 2 3 4 5
2 comments total.
0 reply
Trevinder123 wrote on July 13 2007, 12:18 pm

This Tabs friggen perfect 5 Stars!

0 reply
~LΣGACY~ wrote on June 30 2011, 11:59 pm

S.I.C.K. HOLY CRAP

I want to post or [tab]
guest
You may want to rate the tab now too:
select rating
Please do not post tabs as comments. Select "correction" instead!