Oops, an error
Loading. Please wait.

Speech Impediment Bass Tab

ver1
ver1

Whole song

Interactive

More versions @911Tabs.com
2,159 views 6 this week
1 commentread comment
1 2 3 4 5
excellent!
x 1
Autoscroll
+/-
esc
set tempo
stop
Contributor
Hey! There's an official Ultimate Guitar app which is ideal
for learning songs when you're away from computer. Get the app
WARNING: You are trying to view
                                    content from Ultimate-Guitar.com
                                    in an unauthorized application,
                                    which is prohibited.

                                    Please use an official Ultimate
                                    Guitar Tabs application for iPhone,
                                    iPad or Android to access legitimate
                                    chords, guitar, bass, and drum tabs
                                    from Ultimate-Guitar.com database.

                                    Type "ultimate guitar tabs" in Apple
                                    App Store's or Android Market's
                                    search to find the application.
Bass
                                     E  E  E  E  E  E  E  E   
D||-------|-------|-------|-------|--------------------------|
A||-------|-------|-------|-------|--------------------------|
F||-------|-------|-------|-------|--------------------------|
C||-------|-------|-------|-------|--------------------------|
G||-------|-------|-------|-------|--------------------------|
C||-------|-------|-------|-------|--8--8--8--8--8--8--8--8--|


  E  E  E  E  E  E  E  E     E  E  E  E  E  E  E  E   
--------------------------|--------------------------|
--------------------------|--------------------------|
--------------------------|--------------------------|
--------------------------|--------------------------|
--------------------------|--------------------------|
--8--8--8--8--3--2--0--7--|--0--0--0--0--0--0--0--0--|


  E  E  E  E  E  E  E  E     E  E  E  E  E  E  E  E   
--------------------------|--------------------------|
--------------------------|--------------------------|
--------------------------|--------------------------|
--------------------------|--------------------------|
--------------------------|--------------------------|
--3--3--3--3--5--5--5--5--|--8--8--8--8--8--8--8--8--|


  E  E  E  E  E  E  E  E     E  E  E  E  E  E  E  E   
--------------------------|--------------------------|
--------------------------|--------------------------|
--------------------------|--------------------------|
--------------------------|--------------------------|
--------------------------|--------------------------|
--8--8--8--8--3--2--0--7--|--0--0--0--0--0--0--0--0--|


  E  E  E  E  E  E  E  E     W                   H        E  E  E  E   
--------------------------|-------------------|-----------------------|
--------------------------|-------------------|-----------------------|
--------------------------|-------------------|-----------------------|
--------------------------|-------------------|--L--------------------|
--------------------------|-------------------|-----------------------|
--3--3--3--3--5--5--5--5--|--8----------------|--L--------3--2--0--7--|


  W                   H        H           W                 
-------------------|--------------------|-------------------|
-------------------|--------------------|-------------------|
-------------------|--------------------|-------------------|
-------------------|--------------------|-------------------|
-------------------|--------------------|-------------------|
--0----------------|--3--------5--------|--8----------------|


  H        E  E  E  E     W                   H         H          
-----------------------|-------------------|----------------------|
-----------------------|-------------------|----------------------|
-----------------------|-------------------|----------------------|
--L--------------------|-------------------|----------------------|
-----------------------|-------------------|----------------------|
--L--------3--2--0--7--|--0----------------|--3--------12S--------|


  S S S S E  E  S S S S E  E     S S S S S S S S  S  S E  E  E   
------------------------------|---------------------------------|
------------------------------|---------------------------------|
------------------------------|--7-7-6-6-9-9-7-7-10-10----------|
----------2--3----------5--7--|------------------------8--7--5--|
------------------------------|---------------------------------|
--0-0-0---------0-0-0---------|---------------------------------|


  E  E  E  E  E  E  E  E     S S S S E  E  S S S S E  E   
--------------------------|------------------------------|
--------------------------|------------------------------|
-----------------5--3--2--|------------------------------|
--3-----------5-----------|----------2--3----------5--7--|
--------5--7--------------|------------------------------|
-----0--------------------|--0-0-0---------0-0-0---------|


  S S S S S S S S  S  S E  E  E     E  E  E  E  E  E  E  E   
---------------------------------|--------------------------|
---------------------------------|--------------------------|
--7-7-6-6-9-9-7-7-10-10----------|-----------------5--3--2--|
------------------------8--7--5--|--3-----------5-----------|
---------------------------------|--------5--7--------------|
---------------------------------|-----0--------------------|


  S S S S E  E  S S S S E  E     S S S S S S S S  S  S E  E  E   
------------------------------|---------------------------------|
------------------------------|---------------------------------|
------------------------------|--7-7-6-6-9-9-7-7-10-10----------|
----------2--3----------5--7--|------------------------8--7--5--|
------------------------------|---------------------------------|
--0-0-0---------0-0-0---------|---------------------------------|


  E  E  E  E  E  E  E  E     Q    Q     E   E   E   E   
--------------------------|----------------------------|
--------------------------|----------------------------|
-----------------5--3--2--|------------14--12----------|
--3-----------5-----------|--------------------14--15--|
--------5--7--------------|----------------------------|
-----0--------------------|----------------------------|


    E  S S E  E  E  E.  S S S    E  S S. E  E  S S S. E  E   
|-----------------------------|-----------------------------|
|-----------------------------|-----------------------------|
|*----------------------------|-----------------------------|
|*----------------------------|-----------------------------|
|-----------------------------|-----------------------8--4--|
|---0--0-0-0--0-----------0-0-|--0--0-0-----0----0-0--------|


  E  S S E  E  E  E.  S S S    E  S S. E  E  S S S. Q       
----------------------------|-----------------------------||
----------------------------|-----------------------------||
----------------------------|----------------------------*||
----------------------------|----------------------------*||
----------------------------|-----------------------------||
--0--0-0-0--0-----------0-0-|--0--0-0-----0----0-0--8-----||


   E  S S E  E  E  E.  S S S    E  S S. E  E  S S S. E  E   
-----------------------------|-----------------------------|
-----------------------------|-----------------------------|
*----------------------------|-----------------------------|
*----------------------------|-----------------------------|
-----------------------------|-----------------------8--4--|
---0--0-0-0--0-----------0-0-|--0--0-0-----0----0-0--------|


  E  S S E  E  E  E.  S S S    E  S S. E  E  S S S. Q       
----------------------------|-----------------------------||
----------------------------|-----------------------------||
----------------------------|----------------------------*||
----------------------------|----------------------------*||
----------------------------|-----------------------------||
--0--0-0-0--0-----------0-0-|--0--0-0-----0----0-0--8-----||


   E  E  E  E  E  E  E  E     E  E  E  E  E  E  E  E   
---------------------------|--------------------------|
---------------------------|--------------------------|
*--------------------------|--------------------------|
*--------------------------|--------------------------|
---5--5--5--5--5--5--5--5--|--5--5--5--5--5--5--5--5--|
---------------------------|--------------------------|


  E  E  E  E  E  E  E  E     E  E  E  E  E  E  E  E     
--------------------------|---------------------------||
--------------------------|---------------------------||
--------------------------|--------------------------*||
--------------------------|--------------------------*||
--------------------------|---------------------------||
--8--8--8--8--8--8--8--8--|--8--8--8--8--8--8--8--8---||


  E  E  E  E  E  E  E  E     E  E  E  E  E  E  E  E   
--------------------------|--------------------------|
--------------------------|--------------------------|
--------------------------|--------------------------|
--------------------------|--------------------------|
-----------5-----------5--|--------------------------|
--0--0--0-----0--0--0-----|--0--0-----------------8--|


  E  E  E  E  E  E  E  E     E  E  E  E  E  E  E  E   
--------------------------|--------------------------|
--------------------------|--------------------------|
--------------------------|--------------------------|
--------------------------|--------------------------|
--------------------------|--------------------------|
--8--8--8--8--8--8--8--8--|--8--8--8--8--8--8--8--8--|


  E  E  E  E  E  E  E  E     E  E  E  E  E  E  E  E   
--------------------------|--------------------------|
--------------------------|--------------------------|
--------------------------|--------------------------|
--------------------------|--------------------------|
-----------5-----------5--|--------------------------|
--0--0--0-----0--0--0-----|--0--0-----------------8--|


  E  E  E  E  E  E  E  E     E  E  E  E  E  E  E  E   
--------------------------|--------------------------|
--------------------------|--------------------------|
--------------------------|--------------------------|
--------------------------|--------------------------|
--------------------------|--------------------------|
--8--8--8--8--8--8--8--8--|--8--8--8--8--8--8--8--8--|


  |----3----|    |----3----|       |----3----|    |----3----|     
  Q    Q    Q    Q    Q    Q       Q    Q    Q    Q    Q    Q     
--------------------------------|--------------------------------|
--------------------------------|--------------------------------|
--------------------------------|--------------------------------|
--------------------------------|--------------------------------|
--------------------------------|--------------------------------|
--0----0----0----0----0----0----|--0----0----0----0----0----0----|


  |----3----|    |----3----|       |----3----|    |----3----|     
  Q    Q    Q    Q    Q    Q       Q    Q    Q    Q    Q    Q     
--------------------------------|--------------------------------|
--------------------------------|--------------------------------|
--------------------------------|--------------------------------|
--------------------------------|--------------------------------|
--------------------------------|--------------------------------|
--3----3----3----3----3----3----|--3----3----3----3----3----3----|


  |----3----|    |----3----|       |----3----|    |----3----|     
  Q    Q    Q    Q    Q    Q       Q    Q    Q    Q    Q    Q     
--------------------------------|--------------------------------|
--------------------------------|--------------------------------|
--------------------------------|--------------------------------|
--------------------------------|--------------------------------|
--------------------------------|--------------------------------|
--5----5----5----5----5----5----|--5----5----5----5----5----5----|


                               |--3--|  |--3--|  |--3--|  |--3--|   
  S S S S E  E  E  E  E  E     E  E  E  E  E  E  E  E  E  E  E  E   
----------------------------|--------------------------------------|
----------------------------|--------------------------------------|
----------------------------|--------------------------------------|
----------------5--8--7--0--|--7--8--0--5--7--0--3--5--0--2--3--5--|
----------7--8--------------|--------------------------------------|
--0-0-0---------------------|--------------------------------------|


  |----3----|    |----3----|       |----3----|    |----3----|     
  Q    Q    Q    Q    Q    Q       Q    Q    Q    Q    Q    Q     
--------------------------------|--------------------------------|
--------------------------------|--------------------------------|
--------------------------------|--------------------------------|
--------------------------------|--------------------------------|
--------------------------------|--------------------------------|
--0----0----0----0----0----0----|--0----0----0----0----0----0----|


  |----3----|    |----3----|       |----3----|    |----3----|     
  Q    Q    Q    Q    Q    Q       Q    Q    Q    Q    Q    Q     
--------------------------------|--------------------------------|
--------------------------------|--------------------------------|
--------------------------------|--------------------------------|
--------------------------------|--------------------------------|
--------------------------------|--------------------------------|
--3----3----3----3----3----3----|--3----3----3----3----3----3----|


  |----3----|    |----3----|       |----3----|    |----3----|     
  Q    Q    Q    Q    Q    Q       Q    Q    Q    Q    Q    Q     
--------------------------------|--------------------------------|
--------------------------------|--------------------------------|
--------------------------------|--------------------------------|
--------------------------------|--------------------------------|
--------------------------------|--------------------------------|
--5----5----5----5----5----5----|--5----5----5----5----5----5----|


  S S S S E  E  E  E  E  E     S S S S E  E  E  E  E  E   
----------------------------|----------------------------|
----------------------------|----------------------------|
----------------------------|----------------------------|
----------------5--8--7--0--|----------------5--8--7--0--|
----------7--8--------------|----------7--8--------------|
--0-0-0---------------------|--0-0-0---------------------|


                               |--3--|  |--3--|  |--3--|  |--3--|   
  S S S S E  E  E  E  E  E     E  E  E  E  E  E  E  E  E  E  E  E   
----------------------------|--------------------------------------|
----------------------------|--------------------------------------|
----------------------------|--------------------------------------|
----------------5--8--7--0--|--7--8--0--5--7--0--3--5--0--2--3--5--|
----------7--8--------------|--------------------------------------|
--0-0-0---------------------|--------------------------------------|


  S S S S E  E  E  E  E  E     S S S S E  E  E  E  E  E   
----------------------------|----------------------------|
----------------------------|----------------------------|
----------------------------|----------------------------|
----------------5--8--7--0--|----------------5--8--7--0--|
----------7--8--------------|----------7--8--------------|
--0-0-0---------------------|--0-0-0---------------------|


                               |--3--|  |--3--|  |--3--|  |--3--|           
  S S S S E  E  E  E  E  E     E  E  E  E  E  E  E  E  E  E  E  E           
----------------------------|--------------------------------------|-------|
----------------------------|--------------------------------------|-------|
----------------------------|--------------------------------------|-------|
----------------5--8--7--0--|--7--8--0--5--7--0--3--5--0--2--3--5--|-------|
----------7--8--------------|--------------------------------------|-------|
--0-0-0---------------------|--------------------------------------|-------|


  S S S S E  S S S E  E  E  S    E  E  E  E  E  E  E  E   
------------------------------|--------------------------|
------------------------------|--------------------------|
------------------------------|--------------------------|
------------------------------|--------------------------|
------------------------------|--------------------------|
--0-0-0-0----0-0-0------------|-----0-----------0--0--0--|


  Q    E  E  S S S S S E  S    E  S S S S S Q    S S S S S  
----------------------------|------------------------------|
----------------------------|------------------------------|
----------------------------|------------------------------|
----------------------------|------------------------------|
----------------------------|------------------------------|
-------0-----0-0-0-0-0------|-----0-0---0-0--------0-0-0-0-|


  S S S S E  S S S E  E  E  S    E  E  E  E  E  E  E  E   
------------------------------|--------------------------|
------------------------------|--------------------------|
------------------------------|--------------------------|
------------------------------|--------------------------|
------------------------------|--------------------------|
--0-0-0-0----0-0-0------------|-----0-----------0--0--0--|


  Q    E  E  S S S S S E  S    E  S S S S S Q    S S S S S  
----------------------------|------------------------------|
----------------------------|------------------------------|
----------------------------|------------------------------|
----------------------------|------------------------------|
----------------------------|------------------------------|
-------0-----0-0-0-0-0------|-----0-0---0-0--------0-0-0-0-|


  S S S S E  S S S E  E  E  S    E  E  E  E  E  E  E  E   
------------------------------|--------------------------|
------------------------------|--------------------------|
------------------------------|--------------------------|
------------------------------|--------------------------|
------------------------------|--------------------------|
--0-0-0-0----0-0-0------------|-----0-----------0--0--0--|


  Q    E  E  S S S S S E  S    E  S S S S S Q    S S S S S  
----------------------------|------------------------------|
----------------------------|------------------------------|
----------------------------|------------------------------|
----------------------------|------------------------------|
----------------------------|------------------------------|
-------0-----0-0-0-0-0------|-----0-0---0-0--------0-0-0-0-|


  S S S S E  S S S S S S S S S S    S S S E  S E  S S S S S S S S  
---------------------------------|--------------------------------|
---------------------------------|--------------------------------|
---------------------------------|--------------------------------|
---------------------------------|--------------------------------|
---------------------------------|--------------------------------|
--0-0-0-0----0---0-0-0---0-0-0---|----0-0----0----0-0-0---0-0-0---|


  S S S S E  S S S S S S S S S S     W                  
---------------------------------|---------------------|
---------------------------------|---------------------|
---------------------------------|---------------------|
---------------------------------|---------------------|
---------------------------------|--12-----------------|
--0-0-0-0----0---0-0-0---0-0-0---|--12\----------------|


  S S S S E  S S S S S S S S S S    S S S E  S E  S S S S S S S S  
---------------------------------|--------------------------------|
---------------------------------|--------------------------------|
---------------------------------|--------------------------------|
---------------------------------|--------------------------------|
---------------------------------|--------------------------------|
--0-0-0-0----0---0-0-0---0-0-0---|----0-0----0----0-0-0---0-0-0---|


  S S S S E  S S S S S S S S S S     W                  
---------------------------------|---------------------|
---------------------------------|---------------------|
---------------------------------|---------------------|
---------------------------------|---------------------|
---------------------------------|--12-----------------|
--0-0-0-0----0---0-0-0---0-0-0---|--12\----------------|


  S S S S E  S S S S S S S S S S    S S S E  S E  S S S S S S S S  
---------------------------------|--------------------------------|
---------------------------------|--------------------------------|
---------------------------------|--------------------------------|
---------------------------------|--------------------------------|
---------------------------------|--------------------------------|
--0-0-0-0----0---0-0-0---0-0-0---|----0-0----0----0-0-0---0-0-0---|


  S S S S E  S S S E  E  E  S    E  E  E  E  E  E  E  E   
------------------------------|--------------------------|
------------------------------|--------------------------|
------------------------------|--------------------------|
------------------------------|--------------------------|
------------------------------|--------------------------|
--0-0-0-0----0-0-0------------|-----0-----------0--0--0--|


  Q    E  E  S S S S S E  S    S S S S E  E  S S S S E  E   
----------------------------|------------------------------|
----------------------------|------------------------------|
----------------------------|------------------------------|
----------------------------|----------2--3----------5--7--|
----------------------------|------------------------------|
-------0-----0-0-0-0-0------|--0-0-0---------0-0-0---------|


  S S S S S S S S  S  S E  E  E     E  E  E  E  E  E  E  E   
---------------------------------|--------------------------|
---------------------------------|--------------------------|
--7-7-6-6-9-9-7-7-10-10----------|-----------------5--3--2--|
------------------------8--7--5--|--3-----------5-----------|
---------------------------------|--------5--7--------------|
---------------------------------|-----0--------------------|


  Q    Q     E   E   E   E     W                   H        E  E  E  E   
----------------------------|-------------------|-----------------------|
----------------------------|-------------------|-----------------------|
------------14--12----------|-------------------|-----------------------|
--------------------14--15--|-------------------|-----------------------|
----------------------------|-------------------|-----------------------|
----------------------------|--8----------------|--L--------3--2--0--7--|


  W                   H        H           W                 
-------------------|--------------------|-------------------|
-------------------|--------------------|-------------------|
-------------------|--------------------|-------------------|
-------------------|--------------------|-------------------|
-------------------|--------------------|-------------------|
--0----------------|--3--------5--------|--8----------------|


  H        E  E  E  E     W                   H        H         
-----------------------|-------------------|--------------------|
-----------------------|-------------------|--------------------|
-----------------------|-------------------|--------------------|
-----------------------|-------------------|--------------------|
-----------------------|-------------------|--------------------|
--L--------3--2--0--7--|--0----------------|--3--------5--------|


  E  E  E  E  E  E  E  E     E  E  E  E  E  E  E  E   
--------------------------|--------------------------|
--------------------------|--------------------------|
--------------------------|--------------------------|
--------------------------|--------------------------|
--------------------------|--------------------------|
--8--8--8--8--8--8--8--8--|--8--8--8--8--3--2--0--7--|


  E  E  E  E  E  E  E  E     E  E  E  E  E  E  E  E   
--------------------------|--------------------------|
--------------------------|--------------------------|
--------------------------|--------------------------|
--------------------------|--------------------------|
--------------------------|--------------------------|
--0--0--0--0--0--0--0--0--|--3--3--3--3--5--5--5--5--|


  E  E  E  E  E  E  E  E     E  E  E  E  E  E  E  E   
--------------------------|--------------------------|
--------------------------|--------------------------|
--------------------------|--------------------------|
--------------------------|--------------------------|
--------------------------|--------------------------|
--8--8--8--8--8--8--8--8--|--8--8--8--8--3--2--0--7--|


  E  E  E  E  E  E  E  E     S S S S S S H        E   
--------------------------|--------------------------|
--------------------------|--------------------------|
--------------------------|--------------------------|
--------------------------|--------------------------|
--------------------------|--------------------------|
--0--0--0--0--0--0--0--0--|--0-0-0-0-0-0-------------|


  S S S S S S E  E  S S S S S S    S S S S E  E  E  E  E  E   
--------------------------------|----------------------------|
--------------------------------|----------------------------|
--------------------------------|----------------------------|
--------------------------------|----------------------------|
--------------------------------|----------------------8--4--|
--0-0-0-0-0-0-------0---0-0-0---|--0---0------0--0--0--------|


  S S S S S S E  E  S S S S S S    S S S S S S E  E  S S S S S S  
--------------------------------|--------------------------------|
--------------------------------|--------------------------------|
--------------------------------|--------------------------------|
--------------------------------|--------------------------------|
--------------------------------|--------------------------------|
--0-0-0-0-0-0-------0---0-0-0---|--0-0-0-0-0-0-------0---0-0-0---|


  S S S S E  E  E  E  E  E     S S S S S S E  S S S S S S E   
----------------------------|--------------------------------|
----------------------------|--------------------------------|
----------------------------|--------------------------------|
----------------------------|--------------------------------|
----------------------8--4--|--------------------------------|
--0---0------0--0--0--------|--0-0-0-0-0-0----0-0-0-0-0-0----|


  E  S S S S S S S S S E.  E     E  E  E  E  S S S S S S E   
------------------------------|-----------------------------|
------------------------------|-----------------------------|
------------------------------|-----------------------------|
------------------------------|-----------------------------|
------------------------------|--------8--4-----------------|
-----0---0-0-0---0---0-----0--|--0--0--------0-0-0-0-0-0----|


  E  S S S S S S S S S E.  E     E  E  E  E  S S S S S S E   
------------------------------|-----------------------------|
------------------------------|-----------------------------|
------------------------------|-----------------------------|
------------------------------|-----------------------------|
------------------------------|--------8--4-----------------|
-----0---0-0-0---0---0-----0--|--0--0--------0-0-0-0-0-0----|


  E  S S S S S S S S S S S S S S    E   E  S S S S S S S S E   E   
---------------------------------|--------------------------------|
---------------------------------|--------------------------------|
---------------------------------|--------------------------------|
---------------------------------|--------------------------------|
---------------------------------|--7--12------------------7--12--|
-----0---0-0-0-------------------|---------0---0-0---0-0----------|


  Q    S S S S S S S S E  E     E  S S S S S S S S S S E  E   
-----------------------------|-------------------------------|
-----------------------------|-------------------------------|
-----------------------------|-------------------------------|
-----------------------------|-------------------------------|
--8--------------------8--7--|--4----------------------1-----|
-------0---0-0---0-0---------|-----0-0-0---0-0---0-0------0--|


  E  E  S S E  S S E  E  E     E  E  E  E  E  E  S S S S  
----------------------------|----------------------------|
----------------------------|----------------------------|
---------------3-3-2--------|-----------2----------------|
----------------------3-----|--------------3-------------|
--------4-4-5---------------|-----------------4----------|
--3--2-------------------0--|--2--3--5-----------0---0-0-|


  S S S S E   E  Q    S S S S    S S S S E  E  E  S S S S S S  
------------------------------|-------------------------------|
------------------------------|-------------------------------|
------------------------------|-------------------------------|
------------------------------|-------------------------------|
----------7--12--8------------|----------8--7--4--------------|
----0-0---------------0---0-0-|----0-0------------0-0-0---0-0-|


  S S S S E  E  E  E  S S E     S S E  E  E  E  E  E  E   
-----------------------------|---------------------------|
-----------------------------|---------------------------|
-----------------------------|--3-3-2-----------------2--|
-----------------------------|---------3-----------------|
----------1-----------4-4-5--|---------------------------|
----0-0------0--3--2---------|------------0--2--3--5-----|


  E  E  S S S S S S S Q    S    E  E  S S S S S S S Q    S  
-----------------------------|-----------------------------|
-----------------------------|-----------------------------|
-----------------------------|-----------------------------|
--3--------------------------|-----------------------------|
-----4-----------------------|-----------------------------|
--------0---0-0---0-0--------|--------0---0-0---0-0--------|


  S S S S S S S S S S Q    E     E  E  S S E  S S E  E  E   
------------------------------|----------------------------|
------------------------------|----------------------------|
------------------------------|---------------3-3-2--------|
------------------------------|----------------------3-----|
------------------------------|--------4-4-5---------------|
----0-0-0---0-0---0-0------0--|--3--2-------------------0--|


  E  E  E  E  E  E  S S S S    S S S E  E.  Q    S S S S  
----------------------------|----------------------------|
----------------------------|----------------------------|
-----------2----------------|----------------------------|
--------------3-------------|----------------------------|
-----------------4----------|----------------------------|
--2--3--5-----------0---0-0-|----0-0-------------0---0-0-|


  S S S Q    E.  S S S S S S    S S S E.  E  E  E  S S E   
-----------------------------|----------------------------|
-----------------------------|----------------------------|
-----------------------------|----------------------------|
-----------------------------|----------------------------|
-----------------------------|---------------------4-4-5--|
----0-0----------0-0-0---0-0-|----0-0-----0--3--2---------|


  S S E  E  E  E  E  E  E     E  E  H        Q      
---------------------------|----------------------||
---------------------------|----------------------||
--3-3-2-----------------2--|----------------------||
---------3-----------------|--3-------------------||
---------------------------|-----4----------------||
------------0--2--3--5-----|----------------------||




Duration Legend
---------------
W - whole
H - half
Q - quarter
E - 8th
S - 16th
T - 32nd
X - 64th
. - note dotted
|-n-|  - n-tuplets


Tablature Legend
----------------
L - tied note
x - dead note
g - grace note
(n) - ghost note
> - accentuded note
NH - natural harmonic
AH - artificial harmonic
TH - tapped harmonic
SH - semi harmonic
PH - pitch harmonic
h - hammer on
p - pull off
b - bend
br - bendRelease
pb - preBend
pbr - preBendRelease
brb - bendReleaseBend
\n/ - tremolo bar dip
\n - tremolo bar dive
-/n - tremolo bar Release up
/n\ - tremolo bar inverted dip
/n - tremolo bar return
-\n - tremolo bar Release down
S - shift slide
s - legato slide
/ -  slide into from below or out of upwards
\ -  slide into from above or out of downwards
~ - vibrato
W - wide vibrato
tr - trill
TP - tremolo picking
T - tapping
S - slap
P - pop
< - fade in
^ - brush up
v - brush down
comments
We did not receive enough feedback on this tab! Please rate:
print report bad tab
1 2 3 4 5
1 comment total.
0 reply
JonnyH92 wrote on September 1 2007, 06:36 pm

wow, perfect! 5* easily!

I want to post or [tab]
guest
You may want to rate the tab now too:
select rating
Please do not post tabs as comments. Select "correction" instead!