Oops, an error
Loading. Please wait.

The Crack From Which Gold Pours Tab

837 views 1 this week
1 commentread comment
1 2 3 4 5
excellent!
x 5
add to favorites launch autoscroll
font size
0
reset
Autoscroll
+/-
esc
set tempo
stop
Contributor
Difficulty
Tuning
novice
C G C F A D
WARNING: You are trying to view
                                    content from Ultimate-Guitar.com
                                    in an unauthorized application,
                                    which is prohibited.

                                    Please use an official Ultimate
                                    Guitar Tabs application for iPhone,
                                    iPad or Android to access legitimate
                                    chords, guitar, bass, and drum tabs
                                    from Ultimate-Guitar.com database.

                                    Type "ultimate guitar tabs" in Apple
                                    App Store's or Android Market's
                                    search to find the application.
Band: August Burns Red
Album: August Burns Red
Song: The Crack From Which Gold Pours


Tabbed by: wtflolbbq

Tuning:Drop C

a really unappreciated song... prolly not even get rated :P prove me wrong!

*EDIT 6/2/12* Decided to revisit this song and clean a few things up.



D|-7-7-10-7-7-10-7-7-10-7-7-10-7-7-10-7-7-7-10-7-7-10-7-7--------------------|
A|--------------------------------------------------------5-5-5/8-8-8-8-8-8--|
F|---------------------------------------------------------------------------|
c|------------------------------------------------------------------------x3-|
G|---------------------------------------------------------------------------|
C|---------------------------------------------------------------------------|
 |                                                                 
D|-7------7------7----7------7------7----7------7------7---7-7-7-8-8-8-10-8--|
A|---8------8------8----8------8------8----8------8------8-------------------|
F|-----9------9-----------9------9-----------9------9------------------------|
c|------------------------------------------------------------------------x3-|
G|---------------------------------------------------------------------------|
C|---------------------------------------------------------------------------|

 Guitar 1
D|----------------------------------------------------------|
A|----------------------------------------------------------|
F|----------------------------------------------------------|
c|----------------------------------------------------------|
G|-0-000-0-0--0-0-000-0-0-0-3-333-3-3--3-3-333-3-3-3--------|
C|-0-000-0-0--0-0-000-0-0-0-3-333-3-3--3-3-333-3-3-3--------|
   . ... . .  . . ... . . . . ... . .  . . ... . . .
 
D|-----------------------------------------------------x3--|
A|---------------------------------------------------------|
F|---------------------------------------------------------|
c|---------------------------------------------------------|
G|-0-000-0-0--0-0-000-0-0-0-3-333-3-3--3-3-333-3-3-3-------|
C|-0-000-0-0--0-0-000-0-0-0-3-333-3-3--3-3-333-3-3-3-------|
 | . ... . .  . . ... . . . . ... . .  . . ... . . .       
 |                                                                     
D|-7-7-7-8-8-8-10-8-7-7-7-8-8-8-10-8-------------------x6--|
A|---------------------------------------------------------|
F|---------------------------------------------------------|
c|---------------------------------------------------------|
G|---------------------------------------------------------|
C|---------------------------------------------------------|


D|---------------------------------------------------x2-|-------|
A|------------------------------------------------------|-------|
F|------------------------------------------------------|-------|
c|------------------------------------------------------|--0----|
G|-0-000-0-0--0-0-000-0-0-0-0-000-0-0--0-0-000-0-0-0----|--0----|
C|-0-000-0-0--0-0-000-0-0-0-0-000-0-0--0-0-000-0-0-0----|--0----|
 | . ... . .  . . ... . . . . ... . .  . . ... . . .              
 |
D|---------------------------------------------------x2-|-------|
A|------------------------------------------------------|-------|
F|------------------------------------------------------|-------|
c|------------------------------------------------------|--0----|
G|-0-000-0-0--0-0-000-0-0-0-0-000-0-0--0-0-000-0-0-0----|--0----|
C|-0-000-0-0--0-0-000-0-0-0-0-000-0-0--0-0-000-0-0-0----|--0----|
   . ... . .  . . ... . . . . ... . .  . . ... . . .

D|--------------------------------------------------------|
A|--------------------------------------------------------|
F|--------------------------------------------------------|
c|---------7----------7-7---------7----------7h8p7--------|
G|-5-5-5-5----5-5-5-5-----8-8-8-8----8-8-8-8--------------|
C|--------------------------------------------------------|
 | . . . .    . . . .     . . . .    . . . . 
 |
D|--------------------------------------------------------|
A|--------------------------------------------------------|
F|--------------------------------------------------------|
c|-0------------------------------------------------------|
G|-0------------------------------------------------------|
C|-0------------------------------------------------------|


D|--------------------------------------------------------|
A|--------------------------------------------------------|
F|--------------------------------------------------------|
c|---------7-----------7-7---------7-----------7h8p7------|
G|-5-5-5-5----5--5-5-5-----8-8-8-8----8--8-8-8------------|
C|--------------------------------------------------------|
 | . . . .    .  . . .     . . . .    .  . . .
 |
D|--------------------------------------------------------|
A|--------------------------------------------------------|
F|--------------------------------------------------------|
c|--------------------------------------------------------|
G|-0-0-0------0--0-0-------3-3-3------3--3-3--------------|
C|-0-0-0------0--0-0-------3-3-3------3--3-3--------------|
   . . .      .  . .       . . .      .  . . 

D|-----------------------------------------------------x3-|
A|--------------------------------------------------------|
F|--------------------------------------------------------|
c|---------7-----------7-7---------7-----------7h8p7------|
G|-5-5-5-5----5--5-5-5-----8-8-8-8----8--8-8-8------------|
C|--------------------------------------------------------|
 | . . . .    .  . . .     . . . .    .  . . .
 |
D|-----------------------------------------------------x3-|
A|--------------------------------------------------------|
F|--------------------------------------------------------|
c|---------------------------------3-----------3-3--------|
G|-0-0-0-0-5--0--0-0-0-5-5-3-3-3-3----3--3-3-3------------|
C|-0-0-0-0----0--0-0-0-----3-3-3-3----3--3-3-3------------|
   . . . .    .  . . .     . . . .    .  . . .
  
  Guitar 1 & 2
D|------------------------------------------|
A|------------------------------------------|
F|------------------------------------------|
c|-0-0-0--0-0-0--0-0-0--0-0-0-0-0-0-0-0-----|
G|-0-0-0--0-0-0--0-0-0--0-0-0-0-0-0-0-0-----|
C|-0-0-0--0-0-0--0-0-0--0-0-0-0-0-0-0-0-----|
   . . .  . . .  . . .  . . . . . . . . 

  Guitar 1
D|---------------------------------------------------------------x1--|
A|-------------------------------------------------------------------|
F|-------------------------------------------------------------------|
c|-0--0--0---------0--0--0---------0--0--0---------0-0-0-0-0-0-0-0---|
G|-0--0--0---------0--0--0---------0--0--0---------0-0-0-0-0-0-0-0---|
C|-0--0--0---------0--0--0---------0--0--0---------0-0-0-0-0-0-0-0---|
 | .  .  .         .  .  .         .  .  .         . . . . . . . .
 |Guitar 2
D|---------------------------------------------------------------x1--|
A|-------------------------------------------------------------------|
F|-------------------------------------------------------------------|
c|-0--0--0---------0--0--0---------0--0--0---------0-0-0-0-0-0-0-0---|
G|-0--0--0---------0--0--0---------0--0--0---------0-0-0-0-0-0-0-0---|
C|-0--0--0---------0--0--0---------0--0--0---------0-0-0-0-0-0-0-0---|
 | .  .  .         .  .  .         .  .  .         . . . . . . . .
 |Guitar 3
D|---------------------------------------------------------------x1--|
A|-------------------------------------------------------------------|
F|-------------------------------------------------------------------|
c|-0h2-0h2-0h3-0h2-0h2-0h2-0h3-0h2-0h2-0h2-0h3-0h2-0h3-0h2-0h3-0h2---|
G|-------------------------------------------------------------------|
C|-------------------------------------------------------------------|

  Guitar 1 & 2
D|------------------------------------------|
A|------------------------------------------|
F|------------------------------------------|
c|-0-0-0--0-0-0--0-0-0--0-0-0-0-0-0-0-0-----|
G|-0-0-0--0-0-0--0-0-0--0-0-0-0-0-0-0-0-----|
C|-0-0-0--0-0-0--0-0-0--0-0-0-0-0-0-0-0-----|
   . . .  . . .  . . .  . . . . . . . . 

  Guitar 1
D|---------------------------------------------------------------------------|
A|---------------------------------------------------------------------------|
F|---------------------------------------------------------------------------|
c|-3-3-3--3-3-3--3-3-3--3-3-3-3--7-7-7--7-7-7--7-7-7--7-7-7-7----------------|
G|-3-3-3--3-3-3--3-3-3--3-3-3-3--7-7-7--7-7-7--7-7-7--7-7-7-7----------------|
C|-3-3-3--3-3-3--3-3-3--3-3-3-3--7-7-7--7-7-7--7-7-7--7-7-7-7----------------|
   . .    . .    . .             . .    . .    . .   

D|-------------------------------------------------------------------------x3-|
A|----------------------------------------------------------------------------|
F|----------------------------------------------------------------------------|
c|-3-3-3--3-3-3--3-3-3--3-3-3-3--7-7-7--7-7-7--7-7-7--7-7-7-7-----------------|
G|-3-3-3--3-3-3--3-3-3--3-3-3-3--7-7-7--7-7-7--7-7-7--7-7-7-7-----------------|
C|-3-3-3--3-3-3--3-3-3--3-3-3-3--7-7-7--7-7-7--7-7-7--7-7-7-7-----------------|
 | . .    . .    . .             . .    . .    . .   
 |                                            
D|-------------------------------------------------------------------------x3-|
A|------------------------------------------------------------------3---------|
F|-2h3p2-2--2h3p2-2--2h3p2-2---2------2h3p2-2-2h3p2-2-2h3p2-2-2h3h5-----------|
c|---------------------------5---5-3------------------------------------------|
G|----------------------------------------------------------------------------|
C|----------------------------------------------------------------------------|

 Guitar 1 & 2
D|-----------------------------------------------------------x3--|
A|---------------------------------------------------------------|
F|---------------------------------------------------------------|
c|-3-3-3--3-3-3--3-3-3--3-3-3--7-7-7--7-7-7--3-3-2-2-0-0-0-------|
G|-3-3-3--3-3-3--3-3-3--3-3-3--7-7-7--7-7-7--3-3-2-2-0-0-0-------|
C|-3-3-3--3-3-3--3-3-3--3-3-3--7-7-7--7-7-7--3-3-2-2-0-0-0-------|
   . . .  . . .  . . .  . . .  . . .  . . .  . . . . . . .

D|----------------------------------------------------|
A|----------------------------------------------------|
F|----------------------------------------------------|
c|-3-3-3--3-3-3--3-3-3--3-3-3--7-7-7--7-7-7--3-3-2-2--|
G|-3-3-3--3-3-3--3-3-3--3-3-3--7-7-7--7-7-7--3-3-2-2--|
C|-3-3-3--3-3-3--3-3-3--3-3-3--7-7-7--7-7-7--3-3-2-2--|
   . . .  . . .  . . .  . . .  . . .  . . .  . . . .
   
D|---------------palm-mute-or-dont----------------------------|
A|--------------------------its-your-choice-------------------|
F|------------------------------------------------------------|
c|------------------------------------------------------------|
G|------------------------------------------------------------|
C|-000-000-x--0-000-000-000-000-000-000--0-000-000-000-000----|
 |
D|------------------------------------------------------------|
A|------------------------------------------------------------|
F|------------------------------------------------------------|
c|------------------------------------------------------------|
G|------------------------------------------------------------|
C|------------------------------000-000--0-000-000-000-000----|


D|------------------------------------------------------------|
A|------------------------------------------------------------|
F|------------------------------------------------------------|
c|------------------------------------------------------------|
G|------------------------------------------------------------|
C|-000-000--0-000-000-000-000-000-000--0-000-000-000-000------|
 |
D|------------------------------------------------------------|
A|------------------------------------------------------------|
F|------------------------------------------------------------|
c|------------------------------------------------------------|
G|------------------------------------------------------------|
C|-000-000--0-000-000-000-000-000-000--0-000-000-000-000------|


D|------------------------------------------------------------|
A|------------------------------------------------------------|
F|------------------------------------------------------------|
c|------------------------------------------------------------|
G|------------------------------------------------------------|
C|-000-000--0-000-000-000-000-000-000--0-000-000-000-000------|
 |
D|---------------------------------------------------------------------------|
A|-in-between-triplet-sets,-tremelo-pick-these-frets-------------------------|
F|------------------------------------------------Guitar-1-is-silent-during--|
c|---4"-------5"---------7"---------8"-------------------the-tremelo-picking-|
G|---------------------------------------------------------------------------|
C|---------------------------------------------------------------------------|

D|------------------------------------------------------------|
A|------------------------------------repeat-til-end----------|
F|------------------------------------------------------------|
c|------------------------------------------------------------|
G|------------------------------------------------------------|
C|-000-000--0-000-000-000-000-000-000--0-000-000-000-000------|
 |
D|--------------------------------repeat-til-end----|
A|--now-just-tremelo-pick-these---------------------|
F|--------------------------------------------------|
c|---4"-------5"--------7"---------8"---------------|
G|--------------------------------------------------|
C|--------------------------------------------------|


Done! What a kick ass song! Any corrections or comments are greatly appreciated.         
Just post and I'll be sure to edit the errors as I'm sure this isnt perfect.
comments
print report bad tab
1 comment total.
0 reply
From Your Grave wrote on March 20 2011, 09:43 am

Thanks man :DD

I want to post or [tab]
guest
You may want to rate the tab now too:
select rating
Please do not post tabs as comments. Select "correction" instead!