Oops, an error
Loading. Please wait.

Thrill Seeker Tab

4,047 views 6 this week
no commentswrite comment
1 2 3 4 5
accurate
x 3
Autoscroll
+/-
esc
set tempo
stop
Contributor
Hey! There's an official Ultimate Guitar app which is ideal
for learning songs when you're away from computer. Get the app
WARNING: You are trying to view
                                    content from Ultimate-Guitar.com
                                    in an unauthorized application,
                                    which is prohibited.

                                    Please use an official Ultimate
                                    Guitar Tabs application for iPhone,
                                    iPad or Android to access legitimate
                                    chords, guitar, bass, and drum tabs
                                    from Ultimate-Guitar.com database.

                                    Type "ultimate guitar tabs" in Apple
                                    App Store's or Android Market's
                                    search to find the application.
i didn't tab any of this. i just took the best of these songs and compiled them
'too late for roses' is a power tab so just go download power tab and you can see
it there. (its free)

1.You're Little Suburbia is in Ruins (akm212)
2.Speech Impediment (littlewahoo27)
3.Endorphins (lcallaghan)
4.Too Late For Roses (adtthosa)
5.Barbarian (_sXe_)
6.The Reflective Property (_sXe_)
7.A Wish Full of Dreams (_sXe_)
8.Consumer (DrNick)
9.A Shot Below the Belt (chrischarboner)
10.Eve of the End (jmjx803)
11.The Seventh Trumpet (<the_last>)
12.Pride and Humility (B-side) (adtthosa)

August Burns Red
Your Little Suburbia Is In Ruins
Thrill Seeker

This is the text version of the tab directly
from the bands website, so it's 100% correct.

DROP C TUNING


D  :-----------------|----------------|----------------|----------------|
A  :-----------------|----------------|----------------|----------------|
F  :-----------------|----------------|----------------|----------------|
C  :7---8-0-7---8-0-0|0-------6-7---8-|0-7---8-0-------|6-7---8-0-7---8-|
G  :--5---0---5---0-0|0-7-8-5-----5---|0---5---0-7-8-5-|----5---0---5---|
C  :------0-------0-0|0---------------|0-------0-------|--------0-------|
   guitar 1

D  :-----------------|----------------|----------------|----------------|
A  :-----------------|----------------|----------------|----------------|
F  :-----------------|----------------|----------------|----------------|
C  :-----------------|----------------|----------------|----------------|
G  :-----------------|----------------|----------------|----------------|
C  :-----------------|----------------|----------------|----------------|
   guitar 2

============================================================================

D  :------------------|----------------|----------------|----------------|
A  :------------------|----------------|----------------|----------------|
F  :------------------|----------------|----------------|----------------|
C  :0-0-0-------6-7---|8-0-7---8-0-----|--6-7-----------|7---------------|
G  :0-0-0-7-8-5-----5-|--0---5---0-7-8-|5-----8-7-5-1-4-|------0-5-8-0-5-|
C  :0-0-0-------------|--0-------0-----|----------------|----------------|


D  :------------------|----------------|----------------|----------------|
A  :------------------|----------------|----------------|----------------|
F  :------------------|----------------|----------------|----------------|
C  :------------------|----------------|----------------|----------------|
G  :------------------|----------------|----------------|----------------|
C  :------------------|----------------|----------------|----------------|


============================================================================

D  :----------------|----------------|----------------|----------------|
A  :----------------|----------------|----------------|----------------|
F  :----------------|----------------|----------------|----------------|
C  :--------------0-|5-8-0-5-8-------|----------------|--------------0-|
G  :8-0-4-7-0-4-7---|----------0-5-8-|0-5-8-0-5-8-0-5-|8-0-4-7-0-4-7---|
C  :----------------|----------------|----------------|----------------|


D  :----------------|----------------|----------------|----------------|
A  :----------------|----------------|----------------|----------------|
F  :----------------|----------------|----------------|----------------|
C  :----------------|----------------|----------------|----------------|
G  :----------------|----------------|----------------|----------------|
C  :----------------|----------------|----------------|----------------|


============================================================================

D  :----------------|----------------|----------------|----------------|
A  :----------------|----------------|----------------|----------------|
F  :----------------|------0-5-8-0-5-|8---------------|----------------|
C  :5-8-0-5-8-------|----------------|--0-5-8-0-5-8---|----------------|
G  :----------0-5-8-|0-5-8-----------|--------------0-|4-7-0-4-7-0-5-8-|
C  :----------------|----------------|----------------|----------------|


D  :----------------|----------------|----------------|----------------|
A  :----------------|----------------|----------------|----------------|
F  :----------------|----------------|----------------|----------------|
C  :----------------|----------------|----------------|----------------|
G  :----------------|----------------|----------------|----------------|
C  :----------------|----------------|----------------|----------------|


============================================================================

D  :----------------|----------------|----------------|
A  :----------------|----------------|----------------|
F  :------0-5-8-0-5-|8---------------|----------------|
C  :----------------|--0-5-8-0-5-8---|----------------|
G  :0-5-8-----------|--------------0-|4-7-0-4-7-5---4-|
C  :----------------|----------------|----------------|


D  :----------------|----------------|----------------|
A  :----------------|----------------|----------------|
F  :----------------|----------------|----------------|
C  :----------------|----------------|----------------|
G  :----------------|----------------|----------------|
C  :----------------|----------------|----------------|


============================================================================

D  :--------------------------|--------------------------------|
A  :--------------------------|------------------------------10|
F  :--------------------------|--------------------------7-7---|
C  :--------------------------|--7-7-5-5-7-7-8-8-7-7-7-7-------|
G  :5----0-0-5-5-7-7-8-8-7-7-5|5-------------------------------|
C  :--------------------------|--------------------------------|


D  :--------------------------|--------------------------------|
A  :--------------------------|--------------------------------|
F  :--------------------------|--------------------------------|
C  :-----0-------0-0-0---0---0|0---------0-0-0-0-0---0--------0|
G  :-----0-------0-0-0---0---0|0---------0-0-0-0-0---0--------0|
C  :-----0-------0-0-0---0---0|0---------0-0-0-0-0---0--------0|


============================================================================

D  :-----------------------------------|--------------------------------|
A  :10-8-8-----------------------------|--------------------------------|
F  :-------10-10-9-9-7-7-6-6-7-7-9-9-10|10------------------------------|
C  :-----------------------------------|---------------------------7-7-5|
G  :-----------------------------------|---0-0-5-5-7-7-8-8-7-7-5-5------|
C  :-----------------------------------|--------------------------------|


D  :-----------------------------------|--------------------------------|
A  :-----------------------------------|--------------------------------|
F  :-----------------------------------|--------------------------------|
C  :-0-0----0----0-0---------0-0-0-0--0|---0-------0-0-0---0---0-0------|
G  :-0-0----0----0-0---------0-0-0-0--0|---0-------0-0-0---0---0-0------|
C  :-0-0----0----0-0---------0-0-0-0--0|---0-------0-0-0---0---0-0------|


============================================================================

D  :----------------------------------|----------------------------------|
A  :----------------------10-10-8-8---|----------------------------------|
F  :------------------7-7-----------10|10-9-9-7-7-6-6-7-7-9-9-10-10------|
C  :5-7-7-8-8-7-7-7-7-----------------|----------------------------------|
G  :----------------------------------|-----------------------------0-0-5|
C  :----------------------------------|----------------------------------|


D  :----------------------------------|----------------------------------|
A  :----------------------------------|----------------------------------|
F  :----------------------------------|----------------------------------|
C  :--0-0-0-0-0---0--------0--0-0----0|---0-0---------0-0-0-0--0----0----|
G  :--0-0-0-0-0---0--------0--0-0----0|---0-0---------0-0-0-0--0----0----|
C  :--0-0-0-0-0---0--------0--0-0----0|---0-0---------0-0-0-0--0----0----|


============================================================================

D  :-------------------------------|-----------------------------------|
A  :-------------------------------|--------------10-10-8-8------------|
F  :-------------------------------|----------7-7-----------10-10-9-9-7|
C  :------------------7-7-5-5-7-7-8|8-7-7-7-7--------------------------|
G  :5-7-7-8-8-7-7-5-5--------------|-----------------------------------|
C  :-------------------------------|-----------------------------------|


D  :-------------------------------|-----------------------------------|
A  :-------------------------------|-----------------------------------|
F  :-------------------------------|-----------------------------------|
C  :--0-0-0---0---0-0---------0-0-0|0-0---0--------0--0-0----0----0-0--|
G  :--0-0-0---0---0-0---------0-0-0|0-0---0--------0--0-0----0----0-0--|
C  :--0-0-0---0---0-0---------0-0-0|0-0---0--------0--0-0----0----0-0--|


============================================================================

D  :---------------------------------|-------------------------------|
A  :---------------------------------|-------------------------------|
F  :7-6-6-7-7-9-9-10-10--------------|-------------------------------|
C  :---------------------------------|----------7-7-5-5-7-7-8-8-7-7-7|
G  :--------------------0-0-5-5-7-7-8|8-7-7-5-5----------------------|
C  :---------------------------------|-------------------------------|


D  :---------------------------------|-------------------------------|
A  :---------------------------------|-------------------------------|
F  :---------------------------------|-------------------------------|
C  :------0-0-0-0--0----0-------0-0-0|--0---0-0---------0-0-0-0-0---0|
G  :------0-0-0-0--0----0-------0-0-0|--0---0-0---------0-0-0-0-0---0|
C  :------0-0-0-0--0----0-------0-0-0|--0---0-0---------0-0-0-0-0---0|


============================================================================

D  :-----------------------------------|-------------------------|
A  :------10-10-8-8--------------------|-------------------------|
F  :--7-7-----------10-10-9-9-7-7-6-6-7|7-9-9-10-10--------------|
C  :7----------------------------------|------------0---0-0-0-0-0|
G  :-----------------------------------|------------0---0-0-0-0-0|
C  :-----------------------------------|------------0---0-0-0-0-0|


D  :-----------------------------------|-------------------------|
A  :-----------------------------------|-------------------------|
F  :-----------------------------------|-------------------------|
C  :-------0--0-0----0----0-0---------0|0-0-0--0-----------------|
G  :-------0--0-0----0----0-0---------0|0-0-0--0-----------------|
C  :-------0--0-0----0----0-0---------0|0-0-0--0-----------------|


============================================================================

D  :--------------------|----------------------|-------------------|
A  :--------------------|----------------------|-------------------|
F  :--------------------|----------------------|-------------------|
C  :0----0-0-0-0-0-0---0|0-0-0-0-0----0-0-0-0-0|-0-0---0-0-0-0-0-0-|
G  :0----0-0-0-0-0-0---0|0-0-0-0-0----0-0-0-0-0|-0-0---0-0-0-0-0-0-|
C  :0----0-0-0-0-0-0---0|0-0-0-0-0----0-0-0-0-0|-0-0---0-0-0-0-0-0-|


D  :--------------------|----------------------|-------------------|
A  :--------------------|----------------------|-------------------|
F  :--------------------|----------------------|-------------------|
C  :--------------------|----------------------|-------------------|
G  :--------------------|----------------------|-------------------|
C  :--------------------|----------------------|-------------------|


============================================================================

D  :--------------------|----------------------|------------------|
A  :--------------------|----------------------|------------------|
F  :--------------------|----------------------|------------------|
C  :---0-0-0-0-0---0---0|0-0-0---0-0--0-0-0-0-0|-0-0---0-0-0-0---0|
G  :---0-0-0-0-0---0---0|0-0-0---0-0--0-0-0-0-0|-0-0---0-0-0-0---0|
C  :---0-0-0-0-0---0---0|0-0-0---0-0--0-0-0-0-0|-0-0---0-0-0-0---0|


D  :--------------------|----------------------|------------------|
A  :--------------------|----------------------|------------------|
F  :--------------------|----------------------|------------------|
C  :--------------------|----------------------|------------------|
G  :--------------------|----------------------|------------------|
C  :--------------------|----------------------|------------------|


============================================================================

D  :--------------------|----------------------|------------------|
A  :--------------------|----------------------|------------------|
F  :--------------------|----------------------|------------------|
C  :0--0-0-0-0-0---0---0|0-0-0---0-0--0-0-0-0-0|-0-0---0-0-0-0---0|
G  :0--0-0-0-0-0---0---0|0-0-0---0-0--0-0-0-0-0|-0-0---0-0-0-0---0|
C  :0--0-0-0-0-0---0---0|0-0-0---0-0--0-0-0-0-0|-0-0---0-0-0-0---0|


D  :--------------------|----------------------|------------------|
A  :--------------------|----------------------|------------------|
F  :--------------------|----------------------|------------------|
C  :--------------------|----------------------|------------------|
G  :--------------------|----------------------|------------------|
C  :--------------------|----------------------|------------------|


============================================================================

D  :----------------------|----------------|--------------------|
A  :---------------10-10--|----------------|---------10-10------|
F  :---------------------6|-6-7-7---------9|-9-10-10-------6-6-7|
C  :0--0-0-0-0-0----------|-------7-7-8-8--|--------------------|
G  :0--0-0-0-0-0----------|----------------|--------------------|
C  :0--0-0-0-0-0----------|----------------|--------------------|


D  :----------------------|----------------|--------------------|
A  :----------------------|----------------|--------------------|
F  :----------------------|----------------|--------------------|
C  :----------------0-----|----------------|----------7--7-7-7-8|
G  :----------------0-----|----------------|--------------------|
C  :----------------0-----|----------------|--------------------|


============================================================================

D  :-----------------------|--------------------|------------------------|
A  :-----------------------|----10-10-----------|----------------------10|
F  :-7--------------9--9-10|-10-------6-6-7-7---|-----------9--9-10-10---|
C  :----7--7--8--8---------|-------------------7|--7--8--8---------------|
G  :-----------------------|--------------------|------------------------|
C  :-----------------------|--------------------|------------------------|


D  :-----------------------|--------------------|------------------------|
A  :-----------------------|--------------------|------------------------|
F  :-----------------------|--------------------|------------------------|
C  :-8-12-12-11-11-11-11--8|--8--7--7-7-7-8-8-12|-12-11-11-11-11--8--8--7|
G  :-----------------------|--------------------|------------------------|
C  :-----------------------|--------------------|------------------------|


============================================================================

D  :--------------------|-----------------------------|
A  :-10-----------------|----------------10-10-10-10--|
F  :----6-6-7-7---------|-----9--9-10-10-------------6|
C  :-------------7--7--8|--8--------------------------|
G  :--------------------|-----------------------------|
C  :--------------------|-----------------------------|


D  :--------------------|-----------------------------|
A  :--------------------|-----------------------------|
F  :--------------------|-----------------------------|
C  :--7-7-7-8-8-12-12-11|-11-11-11--8--8--7--7--7--7-7|
G  :--------------------|-----------------------------|
C  :--------------------|-----------------------------|


============================================================================

D  :----------------------------------------|
A  :----------------------------------------|
F  :6-6-6-7-7-7-7--------------------------9|
C  :---------------7--7--7--7--8--8--8--8---|
G  :----------------------------------------|
C  :----------------------------------------|


D  :----------------------------------------|
A  :----------------------------------------|
F  :----------------------------------------|
C  :7-7-7-8-8-8-8-12-12-12-12-11-11-11-11-11|
G  :----------------------------------------|
C  :----------------------------------------|


============================================================================

D  :------------------------------------------|
A  :---------------------10-10-10-10----------|
F  :-9--9--9-10-10-10-10-------------6-6-6-6-7|
C  :------------------------------------------|
G  :------------------------------------------|
C  :------------------------------------------|


D  :------------------------------------------|
A  :------------------------------------------|
F  :------------------------------------------|
C  :11-11-11--8--8--8--8--7--7--7--7-7-7-7-7-8|
G  :------------------------------------------|
C  :------------------------------------------|


============================================================================

D  :--------------------------------------------|
A  :--------------------------------------------|
F  :7-7-7--------------------------9--9--9--9-10|
C  :-------7--7--7--7--8--8--8--8---------------|
G  :--------------------------------------------|
C  :--------------------------------------------|


D  :--------------------------------------------|
A  :--------------------------------------------|
F  :--------------------------------------------|
C  :8-8-8-12-12-12-12-11-11-11-11-11-11-11-11--8|
G  :--------------------------------------------|
C  :--------------------------------------------|


============================================================================

D  :---------------------------------------|
A  :---------10-10-10-10-------------------|
F  :10-10-10-------------6-6-6-6-7-7-7-7---|
C  :--------------------------------------7|
G  :---------------------------------------|
C  :---------------------------------------|


D  :---------------------------------------|
A  :---------------------------------------|
F  :---------------------------------------|
C  :-8--8--8--7--7--7--7-7-7-7-7-8-8-8-8-12|
G  :---------------------------------------|
C  :---------------------------------------|


============================================================================

D  :-----------------------------------------------|
A  :---------------------------------------------10|
F  :----------------------9--9--9--9-10-10-10-10---|
C  :-7--7--7--8--8--8--8---------------------------|
G  :-----------------------------------------------|
C  :-----------------------------------------------|


D  :-----------------------------------------------|
A  :-----------------------------------------------|
F  :-----------------------------------------------|
C  :12-12-12-11-11-11-11-11-11-11-11--8--8--8--8--7|
G  :-----------------------------------------------|
C  :-----------------------------------------------|


============================================================================

D  :---------------------------------------|
A  :10-10-10-------------------------------|
F  :---------6-6-6-6-7-7-7-7---------------|
C  :--------------------------7--7--7--7--8|
G  :---------------------------------------|
C  :---------------------------------------|


D  :---------------------------------------|
A  :---------------------------------------|
F  :---------------------------------------|
C  :-7--7--7-7-7-7-7-8-8-8-8-12-12-12-12-11|
G  :---------------------------------------|
C  :---------------------------------------|


============================================================================

D  :---------------------------------------|------------------|
A  :---------------------------------10----|------------10----|
F  :----------9--9--9--9-10-10-10-10----6-7|-----9-10-9----6-7|
C  :-8--8--8-------------------------------|-7-8--------------|
G  :---------------------------------------|------------------|
C  :---------------------------------------|------------------|


D  :---------------------------------------|------------------|
A  :---------------------------------------|------------------|
F  :---------------------------------------|------------------|
C  :11-11-11-11-11-11-11--8--8--8--8--0---0|-----0--0-0--0---0|
G  :----------------------------------0---0|-----0--0-0--0---0|
C  :----------------------------------0---0|-----0--0-0--0---0|


============================================================================

D  :------------------------|------------------|---------------------|
A  :------------------10----|------------10----|---------------10----|
F  :-----9---10---9------6-7|-----9-10-9----6-7|-------6-7---9----6-7|
C  :-7-8--------------------|-7-8--------------|-7-8-----------------|
G  :------------------------|------------------|---------------------|
C  :------------------------|------------------|---------------------|


D  :------------------------|------------------|---------------------|
A  :------------------------|------------------|---------------------|
F  :------------------------|------------------|---------------------|
C  :-----0-0--0-0-0-0--0---0|-----0--0-0--0---0|---0-0-0-0-0-0--0---0|
G  :-----0-0--0-0-0-0--0---0|-----0--0-0--0---0|---0-0-0-0-0-0--0---0|
C  :-----0-0--0-0-0-0--0---0|-----0--0-0--0---0|---0-0-0-0-0-0--0---0|


============================================================================

D  :------------------|------------------------|------------------|
A  :------------10----|------------------10----|------------10----|
F  :-----9-10-9----6-7|-----9---10---9------6-7|-----9-10-9----6-7|
C  :-7-8--------------|-7-8--------------------|-7-8--------------|
G  :------------------|------------------------|------------------|
C  :------------------|------------------------|------------------|


D  :------------------|------------------------|------------------|
A  :------------------|------------------------|------------------|
F  :------------------|------------------------|------------------|
C  :-----0--0-0--0---0|-----0-0--0-0-0-0--0---0|-----0--0-0--0---0|
G  :-----0--0-0--0---0|-----0-0--0-0-0-0--0---0|-----0--0-0--0---0|
C  :-----0--0-0--0---0|-----0-0--0-0-0-0--0---0|-----0--0-0--0---0|


============================================================================

D  :--------------------|----------------|----------------------|
A  :--------------------|----------------|----------------------|
F  :-------6-7---9------|----------------|----------------------|
C  :-7-8-----------0---0|-----0-0-0-0---0|-----0-0-0-0-0-0-0---0|
G  :---------------0---0|-----0-0-0-0---0|-----0-0-0-0-0-0-0---0|
C  :---------------0---0|-----0-0-0-0---0|-----0-0-0-0-0-0-0---0|


D  :--------------------|----------------|----------------------|
A  :--------------------|----------------|----------------------|
F  :--------------------|----------------|----------------------|
C  :---0-0-0-0-0-0------|----------------|----------------------|
G  :---0-0-0-0-0-0------|----------------|----------------------|
C  :---0-0-0-0-0-0------|----------------|----------------------|


============================================================================

D  :----------------|----------------|----------------|
A  :----------------|----------------|----------------|
F  :----------------|---6-6-9-9------|----------------|
C  :-----0-0-0-0---0|-----------0---0|-----0-0-0-0---0|
G  :-----0-0-0-0---0|---4-4-7-7-0---0|-----0-0-0-0---0|
C  :-----0-0-0-0---0|-----------0---0|-----0-0-0-0---0|


D  :----------------|----------------|----------------|
A  :----------------|----------------|----------------|
F  :----------------|----------------|----------------|
C  :----------------|----------------|----------------|
G  :----------------|----------------|----------------|
C  :----------------|----------------|----------------|


============================================================================

D  :----------------------|----------------|----------------|
A  :----------------------|----------------|----------------|
F  :----------------------|----------------|---6-6-9-9------|
C  :-----0-0-0-0-0-0-0---0|-----0-0-0-0---0|-----------0---0|
G  :-----0-0-0-0-0-0-0---0|-----0-0-0-0---0|---4-4-7-7-0---0|
C  :-----0-0-0-0-0-0-0---0|-----0-0-0-0---0|-----------0---0|


D  :----------------------|----------------|----------------|
A  :----------------------|----------------|----------------|
F  :----------------------|----------------|----------------|
C  :----------------------|----------------|----------------|
G  :----------------------|----------------|----------------|
C  :----------------------|----------------|----------------|


============================================================================

D  :----------------|----------------------|----------------|
A  :----------------|----------------------|----------------|
F  :----------------|----------------------|----------------|
C  :-----0-0-0-0---0|-----0-0-0-0-0-0-0---0|-----0-0-0-0---0|
G  :-----0-0-0-0---0|-----0-0-0-0-0-0-0---0|-----0-0-0-0---0|
C  :-----0-0-0-0---0|-----0-0-0-0-0-0-0---0|-----0-0-0-0---0|


D  :----------------|----------------------|----------------|
A  :----------------|----------------------|----------------|
F  :----------------|----------------------|----------------|
C  :----------------|----------------------|----------------|
G  :----------------|----------------------|----------------|
C  :----------------|----------------------|----------------|


============================================================================

D  :-----------------|-------------------------|------------------------|
A  :-----------------|-------------------------|------------------------|
F  :---6-6-9-9-14---9|10-12-14---9-10-12-14---9|10-12-------------14---9|
C  :--------------0--|---------0------------0--|---------------------0--|
G  :---4-4-7-7-12-0--|------12-0---------12-0--|------4-5-7-5-7-8-12-0--|
C  :--------------0--|---------0------------0--|---------------------0--|


D  :-----------------|-------------------------|------------------------|
A  :-----------------|-------------------------|------------------------|
F  :-----------------|-------------------------|------------------------|
C  :-----------------|-------------------------|------------------------|
G  :-----------------|-------------------------|------------------------|
C  :-----------------|-------------------------|------------------------|


============================================================================

D  :-------------------------|------------------------|
A  :-------------------------|------------------------|
F  :10-12-14---9-10-12-14---9|10-12-------------14---9|
C  :---------0------------0--|---------------------0--|
G  :------12-0---------12-0--|------4-5-7-5-7-8-12-0--|
C  :---------0------------0--|---------------------0--|


D  :-------------------------|------------------------|
A  :-------------------------|------------------------|
F  :-------------------------|------------------------|
C  :-------------------------|------------------------|
G  :-------------------------|------------------------|
C  :-------------------------|------------------------|


============================================================================

D  :-------------------------|------------------------|
A  :-------------------------|------------------------|
F  :10-12-14---9-10-12-14---9|10-12-------------14---9|
C  :---------0------------0--|---------------------0--|
G  :------12-0---------12-0--|------4-5-7-5-7-8-12-0--|
C  :---------0------------0--|---------------------0--|


D  :-------------------------|------------------------|
A  :-------------------------|------------------------|
F  :-------------------------|------------------------|
C  :-------------------------|------------------------|
G  :-------------------------|------------------------|
C  :-------------------------|------------------------|


============================================================================

D  :-------------------------|------------------------|
A  :-------------------------|------------------------|
F  :10-12-14---9-10-12-14---9|10-12-------------14---9|
C  :---------0------------0--|---------------------0--|
G  :------12-0---------12-0--|------4-5-7-5-7-8-12-0--|
C  :---------0------------0--|---------------------0--|


D  :-------------------------|------------------------|
A  :-------------------------|------------------------|
F  :-------------------------|------------------------|
C  :-------------------------|------------------------|
G  :-------------------------|------------------------|
C  :-------------------------|------------------------|


============================================================================

D  :-------------------------|------------------------|
A  :-------------------------|------------------------|
F  :10-12-14---9-10-12-14---9|10-12-------------14---9|
C  :---------0------------0--|---------------------0--|
G  :------12-0---------12-0--|------4-5-7-5-7-8-12-0--|
C  :---------0------------0--|---------------------0--|


D  :-------------------------|------------------------|
A  :-------------------------|------------------------|
F  :-------------------------|------------------------|
C  :-------------------------|------------------------|
G  :-------------------------|------------------------|
C  :-------------------------|------------------------|


============================================================================

D  :-------------------------|-----------------------|------------------|
A  :-------------------------|-----------------------|------------------|
F  :10-12-14---9-10-12-14---9|10-12------------------|------------------|
C  :---------0------------0--|------------------7---8|-0-7---8-0-0-0----|
G  :------12-0---------12-0--|------4-5-7-5-7-8---5--|-0---5---0-0-0-7-8|
C  :---------0------------0--|-----------------------|-0-------0-0-0----|


D  :-------------------------|-----------------------|------------------|
A  :-------------------------|-----------------------|------------------|
F  :-------------------------|-----------------------|------------------|
C  :-------------------------|-----------------------|------------------|
G  :-------------------------|-----------------------|------------------|
C  :-------------------------|-----------------------|------------------|


============================================================================

D  :----------------|----------------|------------------|----------------|
A  :----------------|----------------|------------------|----------------|
F  :----------------|----------------|------------------|----------------|
C  :---6-7---8-0-7--|-8-0-------6-7--|-8-0-7---8-0-0-0--|-----6-7---8-0-7|
G  :-5-----5---0---5|---0-7-8-5-----5|---0---5---0-0-0-7|-8-5-----5---0--|
C  :-----------0----|---0------------|---0-------0-0-0--|-------------0--|


D  :----------------|----------------|------------------|----------------|
A  :----------------|----------------|------------------|----------------|
F  :----------------|----------------|------------------|----------------|
C  :----------------|----------------|------------------|----------------|
G  :----------------|----------------|------------------|----------------|
C  :----------------|----------------|------------------|----------------|


============================================================================

D  :-----------------|-----------------------|---------------------|
A  :-----------------|----11---------11------|-----------------11--|
F  :---------------10|---------10------------|-9-10----9-10--------|
C  :---8-0-------6---|-12----0----12----0-0-0|------12------12----0|
G  :-5---0-7-8-5-----|-------0----------0-0-0|--------------------0|
C  :-----0-----------|-------0----------0-0-0|--------------------0|


D  :-----------------|-----------------------|---------------------|
A  :-----------------|-----------------------|---------------------|
F  :-----------------|-----------------------|---------------------|
C  :----------------7|-----8-0--7-----8-0-0-0|---------6--7-----8-0|
G  :-----------------|--5----0-----5----0-0-0|-7--8--5-------5----0|
C  :-----------------|-------0----------0-0-0|--------------------0|


============================================================================

D  :---------------------|----------------------|----------------------|
A  :-------11------------|-------11---------11--|--------------------11|
F  :-10---------9-10----9|-10---------10--------|----9-10----9-10------|
C  :----12----0------12--|----12----0----12----0|0-0------12------12---|
G  :----------0----------|----------0----------0|0-0-------------------|
C  :----------0----------|----------0----------0|0-0-------------------|


D  :---------------------|----------------------|----------------------|
A  :---------------------|----------------------|----------------------|
F  :---------------------|----------------------|----------------------|
C  :--7-----8-0---------6|--7-----8-0--7-----8-0|0-0---------6--7-----8|
G  :-----5----0-7--8--5--|-----5----0-----5----0|0-0-7--8--5-------5---|
C  :----------0----------|----------0----------0|0-0-------------------|


============================================================================

D  :---------------------|----------------------|----------------------|
A  :---------11----------|---------11---------11|---------11---------11|
F  :---10---------9-10---|-9-10---------10------|---10---------10------|
C  :-0----12----0------12|------12----0----12---|-0----12----0----12---|
G  :-0----------0--------|------------0---------|-0----------0---------|
C  :-0----------0--------|------------0---------|-0----------0---------|


D  :---------------------|----------------------|----------------------|
A  :---------------------|----------------------|----------------------|
F  :---------------------|----------------------|----------------------|
C  :-0--7-----8-0--------|-6--7-----8-0--7-----8|-0--7-----8-0--7-----8|
G  :-0-----5----0-7--8--5|-------5----0-----5---|-0-----5----0-----5---|
C  :-0----------0--------|------------0---------|-0----------0---------|


============================================================================

D  :-------------------|--------------------|----------------------|
A  :-------------------|--------------------|----------------------|
F  :-------------------|--------------------|----------------------|
C  :---0-0-0-0-----0-0-|-0-0-0-0-0-0-----0--|-0-0-0-0-0-0--*--0-0-0|
G  :---0-0-0-0-----0-0-|-0-0-0-0-0-0-----0--|-0-0-0-0-0-0--*--0-0-0|
C  :---0-0-0-0-----0-0-|-0-0-0-0-0-0-----0--|-0-0-0-0-0-0--*--0-0-0|


D  :-------------------|--------------------|----------------------|
A  :-------------------|--------------------|----------------------|
F  :-------------------|--------------------|----------------------|
C  :-------------------|--------------------|----------------------|
G  :-------------------|--------------------|----------------------|
C  :-------------------|--------------------|----------------------|


============================================================================

D  :--------------------|-----------------------------|-----------------|
A  :--------------------|-----------------------------|-----------------|
F  :-10--------9--------|-14-------12-12-10-10-9------|-----------------|
C  :-12-0-0-0-11-0-0-0-0|-11-0-0-0---------------0-0-0|---7-0-0---8-0-0-|
G  :----0-0-0----0-0-0-0|----0-0-0---------------0-0-0|-4---0-0-5---0-0-|
C  :----0-0-0----0-0-0-0|----0-0-0---------------0-0-0|-----0-0-----0-0-|


D  :--------------------|-----------------------------|-----------------|
A  :--------------------|-----------------------------|-----------------|
F  :--------------------|-----------------------------|-----------------|
C  :--------------------|-----------------------------|-----------------|
G  :--------------------|-----------------------------|-----------------|
C  :--------------------|-----------------------------|-----------------|


============================================================================

D  :-------------------|--------------------|-----------------------------|
A  :-------------------|--------------------|-----------------------------|
F  :------------6------|-10--------9--------|-14-------12-12-10-10-9------|
C  :0-0-------7---0-0-0|-12-0-0-0-11-0-0-0-0|-11-0-0-0---------------0-0-0|
G  :0-0-7-8-5-----0-0-0|----0-0-0----0-0-0-0|----0-0-0---------------0-0-0|
C  :0-0-----------0-0-0|----0-0-0----0-0-0-0|----0-0-0---------------0-0-0|


D  :-------------------|--------------------|-----------------------------|
A  :-------------------|--------------------|-----------------------------|
F  :-------------------|--------------------|-----------------------------|
C  :-------------------|--------------------|-----------------------------|
G  :-------------------|--------------------|-----------------------------|
C  :-------------------|--------------------|-----------------------------|


============================================================================

D  :-----------------|-------------------|------------------|
A  :-----------------|-------------------|------------------|
F  :-----------------|------------6------|------------------|
C  :---7-0-0---8-0-0-|0-0-------7---0-0-0|---0-0-0---0-0-0-0|
G  :-4---0-0-5---0-0-|0-0-7-8-5-----0-0-0|---0-0-0---0-0-0-0|
C  :-----0-0-----0-0-|0-0-----------0-0-0|---0-0-0---0-0-0-0|


D  :-----------------|-------------------|------------------|
A  :-----------------|-------------------|------------------|
F  :-----------------|-------------------|------------------|
C  :-----------------|-------------------|------------------|
G  :-----------------|-------------------|------------------|
C  :-----------------|-------------------|------------------|


============================================================================

D  :--------------------|-----------------|-------------------|
A  :--------------------|-----------------|-------------------|
F  :--------------------|-----------------|------------6------|
C  :---0-0-0-------0-0-0|---7-0-0---8-0-0-|0-0-------7---0-0-0|
G  :---0-0-0-------0-0-0|-4---0-0-5---0-0-|0-0-7-8-5-----0-0-0|
C  :---0-0-0-------0-0-0|-----0-0-----0-0-|0-0-----------0-0-0|


D  :--------------------|-----------------|-------------------|
A  :--------------------|-----------------|-------------------|
F  :--------------------|-----------------|-------------------|
C  :--------------------|-----------------|-------------------|
G  :--------------------|-----------------|-------------------|
C  :--------------------|-----------------|-------------------|


============================================================================

D  :------------------|--------------------|-----------------|
A  :------------------|--------------------|-----------------|
F  :------------------|--------------------|-----------------|
C  :---0-0-0---0-0-0-0|---0-0-0-------0-0-0|---7-0-0---8-0-0-|
G  :---0-0-0---0-0-0-0|---0-0-0-------0-0-0|-4---0-0-5---0-0-|
C  :---0-0-0---0-0-0-0|---0-0-0-------0-0-0|-----0-0-----0-0-|


D  :------------------|--------------------|-----------------|
A  :------------------|--------------------|-----------------|
F  :------------------|--------------------|-----------------|
C  :------------------|--------------------|-----------------|
G  :------------------|--------------------|-----------------|
C  :------------------|--------------------|-----------------|


============================================================================

D  :-----------------|------------------|------------------|
A  :-----------------|------------------|------------------|
F  :------------6-6-9|-7-10----------6-9|-7-10----------6-9|
C  :0-0-------7------|------8------7----|------8------7----|
G  :0-0-7-8-5--------|--------10-8------|--------10-8------|
C  :0-0--------------|------------------|------------------|


D  :-----------------|------------------|------------------|
A  :-----------------|------------------|------------------|
F  :-----------------|------------------|------------------|
C  :-----------------|------------------|------------------|
G  :-----------------|------------------|------------------|
C  :-----------------|------------------|------------------|


============================================================================

D  :------------------|------------------|------------------|
A  :------------------|------------------|------------------|
F  :-7-10----------6-9|-7-9-7-10-9-10-6-9|-7-10----------6-9|
C  :------8------7----|------------------|------8------7----|
G  :--------10-8------|------------------|--------10-8------|
C  :------------------|------------------|------------------|


D  :------------------|------------------|------------------|
A  :---------------5-8|-6-8-6-10-8-10----|------------------|
F  :------------------|------------------|------------------|
C  :------------------|------------------|------------------|
G  :------------------|------------------|------------------|
C  :------------------|------------------|------------------|


============================================================================

D  :------------------|------------------|-------------------|
A  :------------------|------------------|---------------8-11|
F  :-7-10----------6-9|-7-10----------6-9|-7-9-7-10-9-10-----|
C  :------8------7----|------8------7----|-------------------|
G  :--------10-8------|--------10-8------|-------------------|
C  :------------------|------------------|-------------------|


D  :------------------|------------------|---------------6-10|
A  :------------------|---------------5-8|-6-8-6-10-8-10-----|
F  :------------------|------------------|-------------------|
C  :------------------|------------------|-------------------|
G  :------------------|------------------|-------------------|
C  :------------------|------------------|-------------------|


============================================================================

D  :----------------------|-------------------|-----------------|
A  :-10-11-8-11-10-11-6-10|-8-10-6-10-8-10-5-8|-6-8-5-8-6-8-3--6|
F  :----------------------|-------------------|-----------------|
C  :----------------------|-------------------|-----------------|
G  :----------------------|-------------------|-----------------|
C  :----------------------|-------------------|-----------------|


D  :--8-10-6-10--8-10-----|-------------------|-----------------|
A  :----------------------|-------------------|-------------6-10|
F  :------------------7-10|-9-10-7-10-9-10-6-9|-7-9-6-9-7-9-----|
C  :----------------------|-------------------|-----------------|
G  :----------------------|-------------------|-----------------|
C  :----------------------|-------------------|-----------------|


============================================================================

D  :--------------------|----------------------|-------------------|
A  :-5--6-3--6-5--6-8-11|-10-11-8-11-10-11-6-10|-8-10-6-10-8-10-5-8|
F  :--------------------|----------------------|-------------------|
C  :--------------------|----------------------|-------------------|
G  :--------------------|----------------------|-------------------|
C  :--------------------|----------------------|-------------------|


D  :----------------6-10|--8-10-6-10--8-10-----|-------------------|
A  :-8-10-6-10-8-10-----|----------------------|-------------------|
F  :--------------------|------------------7-10|-9-10-7-10-9-10-6-9|
C  :--------------------|----------------------|-------------------|
G  :--------------------|----------------------|-------------------|
C  :--------------------|----------------------|-------------------|


============================================================================

D  :-----------------|---------------------|--------------------|
A  :-6-8-5-8-6-8-3--6|-5--6-3--6-5--6------|--------------------|
F  :-----------------|---------------------|--------------------|
C  :-----------------|----------------0-0-0|-0---0-0-0-0---0-0-0|
G  :-----------------|----------------0-0-0|-0---0-0-0-0---0-0-0|
C  :-----------------|----------------0-0-0|-0---0-0-0-0---0-0-0|


D  :-----------------|---------------------|--------------------|
A  :-------------6-10|-8-10-6-10-8-10------|--------------------|
F  :-7-9-6-9-7-9-----|---------------------|--------------------|
C  :-----------------|---------------------|--------------------|
G  :-----------------|---------------------|--------------------|
C  :-----------------|---------------------|--------------------|


============================================================================

D  :-------------------|-------------------|----------------------|
A  :-------------------|-------------------|----------------------|
F  :-------------------|-------------------|----------------------|
C  :-0-----0-0--0-0-0-0|0-0-----0---0-0-0-0|-0---0-0-0-0-0---0-0-0|
G  :-0-----0-0--0-0-0-0|0-0-----0---0-0-0-0|-0---0-0-0-0-0---0-0-0|
C  :-0-----0-0--0-0-0-0|0-0-----0---0-0-0-0|-0---0-0-0-0-0---0-0-0|


D  :-------------------|-------------------|----------------------|
A  :-------------------|-------------------|----------------------|
F  :-------------------|-------------------|----------------------|
C  :-------------------|-------------------|----------------------|
G  :-------------------|-------------------|----------------------|
C  :-------------------|-------------------|----------------------|


============================================================================

D  :--------------------|-------------------|-------------------|
A  :--------------------|-------------------|-------------------|
F  :--------------------|-------------------|-------------------|
C  :-0---0-0-0-0---0-0-0|-0-----0-0--0-0-0-0|0-0-----0---0-0-0-0|
G  :-0---0-0-0-0---0-0-0|-0-----0-0--0-0-0-0|0-0-----0---0-0-0-0|
C  :-0---0-0-0-0---0-0-0|-0-----0-0--0-0-0-0|0-0-----0---0-0-0-0|


D  :--------------------|-------------------|-------------------|
A  :--------------------|-------------------|-------------------|
F  :--------------------|-------------------|-------------------|
C  :--------------------|-------------------|-------------------|
G  :--------------------|-------------------|-------------------|
C  :--------------------|-------------------|-------------------|


============================================================================

D  :----------------------|-----------------------------------|
A  :----------------------|-----------------------------------|
F  :----------------------|----------10-10-10-10-7-7-7-7------|
C  :-0---0-0-0-0-0---7-7-7|7-8-8-8-8---------------------5-5-5|
G  :-0---0-0-0-0-0--------|-----------------------------------|
C  :-0---0-0-0-0-0--------|-----------------------------------|


D  :----------------------|-----------------------------------|
A  :----------------------|-----------------------------------|
F  :----------------------|-----------------------------------|
C  :-----------------0-0-0|--0--------0--0--0----0-------0-0-0|
G  :-----------------0-0-0|--0--------0--0--0----0-------0-0-0|
C  :-----------------0-0-0|--0--------0--0--0----0-------0-0-0|


============================================================================

D  :-------------------------------|-----------------------------------|
A  :-------------------------------|------------------------------8-8-8|
F  :------------------9-9-9-9------|----------10-10-10-10-7-7-7-7------|
C  :5-8-8-8-8-7-7-7-7---------7-7-7|7-8-8-8-8--------------------------|
G  :-------------------------------|-----------------------------------|
C  :-------------------------------|-----------------------------------|


D  :-------------------------------|-----------------------------------|
A  :-------------------------------|-----------------------------------|
F  :-------------------------------|-----------------------------------|
C  :--0-----------0-0-----0---0-0-0|0-0--------------0--------0---0-0-0|
G  :--0-----------0-0-----0---0-0-0|0-0--------------0--------0---0-0-0|
C  :--0-----------0-0-----0---0-0-0|0-0--------------0--------0---0-0-0|


============================================================================

D  :-----------------------------------|-----------------------------------|
A  :8-6-6-6-6-5-5-5-5-10-10-10-10------|-----------------------------------|
F  :-----------------------------------|----------10-10-10-10-7-7-7-7------|
C  :------------------------------7-7-7|7-8-8-8-8---------------------5-5-5|
G  :-----------------------------------|-----------------------------------|
C  :-----------------------------------|-----------------------------------|


D  :-----------------------------------|-----------------------------------|
A  :-----------------------------------|-----------------------------------|
F  :-----------------------------------|-----------------------------------|
C  :--0-------0-0-0-0--0----------0-0-0|--0--------0--0--0----0-------0-0-0|
G  :--0-------0-0-0-0--0----------0-0-0|--0--------0--0--0----0-------0-0-0|
C  :--0-------0-0-0-0--0----------0-0-0|--0--------0--0--0----0-------0-0-0|


============================================================================

D  :-------------------------------|-----------------------------------|
A  :-------------------------------|------------------------------8-8-8|
F  :------------------9-9-9-9------|----------10-10-10-10-7-7-7-7------|
C  :5-8-8-8-8-7-7-7-7---------7-7-7|7-8-8-8-8--------------------------|
G  :-------------------------------|-----------------------------------|
C  :-------------------------------|-----------------------------------|


D  :-------------------------------|-----------------------------------|
A  :-------------------------------|-----------------------------------|
F  :-------------------------------|-----------------------------------|
C  :--0-----------0-0-----0---0-0-0|0-0--------------0--------0---0-0-0|
G  :--0-----------0-0-----0---0-0-0|0-0--------------0--------0---0-0-0|
C  :--0-----------0-0-----0---0-0-0|0-0--------------0--------0---0-0-0|


============================================================================

D  :---------------------------------|---------------------|
A  :8-6-6-6-6-5-5-5-5-10-10-10-10----|---------------------|
F  :---------------------------------|---------------------|
C  :------------------------------0--|-0-0-0-0-0-0----0-0-0|
G  :------------------------------0--|-0-0-0-0-0-0----0-0-0|
C  :------------------------------0--|-0-0-0-0-0-0----0-0-0|


D  :---------------------------------|---------------------|
A  :---------------------------------|---------------------|
F  :---------------------------------|---------------------|
C  :--0-------0-0-0-0--0-------------|---------------------|
G  :--0-------0-0-0-0--0-------------|---------------------|
C  :--0-------0-0-0-0--0-------------|---------------------|


============================================================================

D  :-----------------|---------------------|--------------------|
A  :-----------------|---------------------|--------------------|
F  :-----------------|---------------------|--------------------|
C  :0-0-----------0--|-0-0-0-0-0-0----0-0-0|0-0-0---0-0-0-0-0-0-|
G  :0-0-----------0--|-0-0-0-0-0-0----0-0-0|0-0-0---0-0-0-0-0-0-|
C  :0-0-----------0--|-0-0-0-0-0-0----0-0-0|0-0-0---0-0-0-0-0-0-|


D  :-----------------|---------------------|--------------------|
A  :-----------------|---------------------|--------------------|
F  :-----------------|---------------------|--------------------|
C  :-----------------|---------------------|--------------------|
G  :-----------------|---------------------|--------------------|
C  :-----------------|---------------------|--------------------|


============================================================================

D  :----------------------|---------------------|-------------------|
A  :----------------------|---------------------|-------------------|
F  :----------------------|---------------------|-------------------|
C  :---0-0-0-0-0-0---0-0-0|-0-0-0----0-0-0-0-0-0|---0-0-0-0-0-0----0|
G  :---0-0-0-0-0-0---0-0-0|-0-0-0----0-0-0-0-0-0|---0-0-0-0-0-0----0|
C  :---0-0-0-0-0-0---0-0-0|-0-0-0----0-0-0-0-0-0|---0-0-0-0-0-0----0|


D  :----------------------|---------------------|-------------------|
A  :----------------------|---------------------|-------------------|
F  :----------------------|---------------------|-------------------|
C  :----------------------|---------------------|-------------------|
G  :----------------------|---------------------|-------------------|
C  :----------------------|---------------------|-------------------|


============================================================================

D  :-----------------------------|-------------------------------|
A  :-----------------------------|-------------------------------|
F  :-----------------------------|-------------------------------|
C  :0-0-0-0-0-------0-0-0---0---0|0---------0-0-0-0-0---0-------0|
G  :0-0-0-0-0-------0-0-0---0---0|0---------0-0-0-0-0---0-------0|
C  :0-0-0-0-0-------0-0-0---0---0|0---------0-0-0-0-0---0-------0|


D  :-----------------------------|-------------------------------|
A  :-----------------------------|-------------------------------|
F  :-----------------------------|-------------------------------|
C  :-----------------------------|-------------------------------|
G  :--------5-5-5-5-5-5-5-5-5-5-5|5-5-5-5-5-5-5-5-5-5-5-5-5-5-5-5|
C  :-----------------------------|-------------------------------|


============================================================================

D  :-------------------------------|-------------------------------|
A  :-------------------------------|-------------------------------|
F  :-------------------------------|-------------------------------|
C  :0-0---0---0-0---------0-0-0-0-0|--0-------0-0-0---0---0-0------|
G  :0-0---0---0-0---------0-0-0-0-0|--0-------0-0-0---0---0-0------|
C  :0-0---0---0-0---------0-0-0-0-0|--0-------0-0-0---0---0-0------|


D  :-------------------------------|-------------------------------|
A  :-------------------------------|-------------------------------|
F  :-------------------------------|-------------------------------|
C  :-------------------------------|-------------------------------|
G  :5-5-5-5-5-5-5-5-5-5-5-5-5-5-5-5|5-8-8-8-8-8-8-8-8-8-8-8-8-8-8-8|
C  :-------------------------------|-------------------------------|


============================================================================

D  :-------------------------------|---------------------------|
A  :-------------------------------|---------------------------|
F  :-------------------------------|---------------------------|
C  :--0-0-0-0-0---0-------0-0-0---0|--0-0---------0-0-0-0-0----|
G  :--0-0-0-0-0---0-------0-0-0---0|--0-0---------0-0-0-0-0----|
C  :--0-0-0-0-0---0-------0-0-0---0|--0-0---------0-0-0-0-0----|


D  :-------------------------------|---------------------------|
A  :-------------------------------|---------------------------|
F  :-------------------------------|---------------------------|
C  :-------------------------------|---------------------------|
G  :8-8-8-8-8-8-8-8-8-8-8-8-8-8-8-8|8-8-8-8-8-8-8-*------------|
C  :-------------------------------|---------------------------|


============================================================================

D  :----------------|
A  :----------------|
F  :----------------|
C  :-*--------------|
G  :-*--------------|
C  :-*--------------|


D  :----------------|
A  :----------------|
F  :----------------|
C  :----------------|
G  :----------------|
C  :----------------|


-----------------------------------------------------------------------------
	            Speech Impediment - August Burns Red
-----------------------------------------------------------------------------
Tabbed by: littlewahoo27
Email: littlewahoo27@yahoo.com

Tuning: Drop C

Intro

   Guitar I
e|--------------------------------------------------------------------------|
B|--------------------------------------------------------------------------|
G|-10-9-------10-9-------10-9-------10-9------------repeats-2x--------------|
D|------10-12------10-12------10-12------10-12------------------------------|
A|--------------------------------------------------------------------------|
E|--------------------------------------------------------------------------|

   Guitar 2
e|--------------------------------------------------------------------------|
B|--------------------------------------------------repeats-1x--------------|
G|-14-12-------14-12-------14-12-------14-12--------------------------------|
D|-------14-15-------14-15-------14-15-------14-15--------------------------|
A|--------------------------------------------------------------------------|
E|--------------------------------------------------------------------------|

   then comes in with this

   Guitar 1
e|--------------------------------------------------------------------------|
B|-10-9-------10-9-------10-9-------10-9---------repeat-4x------------------|
G|------10-12------10-12------10-12------10-12------------------------------|
D|--------------------------------------------------------------------------|
A|--------------------------------------------------------------------------|
E|--------------------------------------------------------------------------|

   Guitar 2
e|--------------------------------------------------------------------------|
B|--------------------------------------------------------------------------|
G|----------------------------------------2--------------------------repeat-|
D|-8--------------------------------3-2-3-2-0--------------3------5---------|
A|-8--------------------------------3-2-3-0-0--------------3------5---------|
E|-8--------------------------------3-2-3---0--------------3------5---------|

   Verse
e|--------------------------------------------------------------------------|
B|-------------------------------------------------------repeat-3x----------|
G|----------------7-7-6-6-9-9-7-7-10-10p7-----------------------------------|
D|------------5h7--------------------------8------------------10p7-8p5h8p5--|
A|-0--7h8--x---------------------------------10-8------5h7h8----------------|
E|-0-------x----------------------------------------------------------------|

  then a little piece of the intro is played, followed by a breakdown
e|--------------------------------------------------------------------------|
B|--------------------------------------------------------------------------|
G|----------------------------5/6-----------------------------3-------------|
D|-0-000-0--000--0-00-00-0-0-------0-000-0--000--0-00-00-0-0----------------|
A|-0-000-0--000--0-00-00-0-0--3/4--0-000-0--000--0-00-00-0-0--1-------------|
E|-0-000-0--000--0-00-00-0-0-------0-000-0--000--0-00-00-0-0----------------|

i havent figured out the riff after the break down yet, so if you know it please send it
me. but i have figured out the last part of it and it goes like this:

                                                  +  +  +
e|----------9----------9----------9-13-12-13-12--18-17----------18-17-------|
B|-10-11-13---10-11-13---10-11-13----------------------17-18-17-------------|
G|--------------------------------------------------------------------------|
D|--------------------------------------------------------------------------|
A|--------------------------------------------------------------------------|
E|--------------------------------------------------------------------------|
                                                  +  +  +
e|----------9----------9----------9-13-12-13-12--18-17----------------------|
B|-10-11-13---10-11-13---10-11-13----------------------17-18-18-18-18-18-18-|
G|--------------------------------------------------------------------------|
D|--------------------------------------------------------------------------|
A|--------------------------------------------------------------------------|
E|--------------------------------------------------------------------------|

e|--------------------------------------------------------------------------|
B|--------------------------------------------------------------------------|
G|-7-7-7-7-7-7-7-7-7-9-9-9-10-10-10-10-10-10-10-10-10-10-10-10--------------|
D|--------------------------------------------------------------------------|
A|--------------------------------------------------------------------------|
E|--------------------------------------------------------------------------|

e|--------------------------------------------------------------------------|
B|--------------------------------------------------------------------------|
G|-------------------------------------10-10-10-10-10-10-9-9-9-9-9-9--------|
D|-10-10-10-10-10-10-10-10-10-10-10-10--------------------------------------|
A|--------------------------------------------------------------------------|
E|--------------------------------------------------------------------------|
   then breaks into 2 guitar parts
e|-----------------------------------------------10101010101012121212-------|
B|-Guitar-I--11-11-11-11-11-11-11-11-11-11-11-11----------------------------|
G|-Guitar-2--3--3--3--3--3--3--3--3--3--3--3--3--2-2-2-2-2-2----------------|
D|-----------------------------------------------------------3-3-3-3--------|
A|--------------------------------------------------------------------------|
E|--------------------------------------------------------------------------|

e|--------------------------------------------------------------------------|
B|--------------------------------------------------------------------------|
G|----------------------------------------------then-repeat-past-3-staffs---|
D|------------8-7-5--0h7h8-0h5h7-0h3h5-0h3h5--------------------------------|
A|------5-7-8---------------------------------------------------------------|
E|-000----------------------------------------------------------------------|

e|--------------------------------------------------------------------------|
B|--------------------------------------------------------------------------|
G|-------------------(repeat-3x)--------------------------------------------|
D|------------8-7-5---------------0h7h8-0h5h7-0h3h5-0h3h5-------------------|
A|------5-7-8---------------------------------------------------------------|
E|-000----------------------------------------------------------------------|

e|--------------------------------------------------------------------------|
B|--------------------------------------------------------------------------|
G|-------------------(repeat-3x)--------------------------------------------|
D|------------8-7-5---------------0h7h8-0h5h7-0h3h5-0h3h5-------------------|
A|------5-7-8---------------------------------------------------------------|
E|-000----------------------------------------------------------------------|

e|--------------------------------------------------------------------------|
B|-repeating-this-with-this-rhythm------------------------------------------|
G|--------------------------------------------------------------------------|
D|-0h2h3-0h5h7-0h3h5-0h7h8---0-000--0--000--0-00000--000--00000-------------|
A|---------------------------0-000--0--000--0-00000--000--00000-------------|
E|---------------------------0-000--0--000--0-00000--000--00000-------------|

   then it has some funky rhythm with this riff in the middle
e|--------------------------------------------------------------------------|
B|--------------------------------------------------------------------------|
G|--7-7-6-6-9-9-7-7-/-14----------------------------------------------------|
D|--------------------------------------------------------------------------|
A|--------------------------------------------------------------------------|
E|--------------------------------------------------------------------------|

   then goes back to the verse and is played twice and back to the intro.


August Burns Red
Endorphins

DropC


Hoping I would have already seen this tab on here but didnt, so I'll put up what I know,
you want, figure out the rest and put it up, and rate mine.


||-----------------------------------------------------------||
||-----------------------------------------------------------||
||----10--10/11------------------10--10/11-------------------||
||-----x---x----------------------x---x----------------------||
||-----8---8/9----9-99-3-333------8---8/9----9-99-3/66-------||
||-0-0---0------0-9-99-3-333--0-0---0------0-9-99-3/66-------||
   . .   .      .             . .   .      .


||------------------------------------------------||
||------------------------------------------------||
||----10--10/11-----------------------------------||
||-----x---x--------------------------------------||
||-----8---8/9------------------------------------||
||-0-0---0-----0-9-99-3-33-6-66-666-5-55-2-22-----||
   . .   .     .

||---------------------------------|-------------------------------||
||---------------------------------|-------------------------------||
||------10-10/11-------10/11-------|-------13--13/14--------13/14--||
||-------x--x----(x2)---x----------|-------x---x-----(x2)---x------||
||-------8--8/9---------8/9--------|-------11--11/12--------11/12--||
||--0000--------------0------------|--0000----------------0--------||
    ....              .               ....                .

||------------------------------------------------------------------------||
||------------------------------------------------------------------------||
||-----------------10--10/11-----------------10--10/11--------------------||
||------------------x---x---------------------x---x-----------------------||
||------------------8---8/9---9-99-3/6-6------8---8/9---------------------||
||--9-99-3-33---0-0---0-------9-99-3/6-6--0-0---0------9-99-3-33-6-66-666-||
                . .   .                   . .   .

                                          ||---------------------------||
                   (continued)            ||---------------------------||
                                          ||---------------------------||
                                          ||---------------------------||
                                          ||---------------------------||
                                          ||---5-55--2-22--------------||

||---------------------------------------------||
||---------------------------------------------||
||-----------------13--------13--------13------||
||-----------------x---------x---------x-------||
||-----------------11--------11--------11------||
||-000000000000000----000000----000000---------||
   ...............    ......    ......

||-----------------------------||
||--8--11--7--10--6--9--5--8---||
||-----------------------------||   (tremelo pick this)
||-----------------------------||
||-----------------------------||
||-----------------------------||

||-------------------------------------||
||-------7h8---------------------------||
||---7h8-----(x21)---7h8-5h7-3h5-2h3---||
||-------------------------------------||
||-------------------------------------||
||-------------------------------------||

||---------------------------------------------||
||--------7h8-------7h8---7h8-------8p7--------||
||----7h8--------7h8---7h8----7h8------8p7-----||
||---------------------------------------------||
||---------------------------------------------||
||--0---------00-------------0---000-----------||
    .         ..             .   ...

||-------------------------------------------------------||
||--------11h12-------11h12-----11h12---------12p11------||
||---11h12-------11h12-----11h12------11h12--------12p11-||
||-------------------------------------------------------||
||-------------------------------------------------------||
||--0----------00--------------------0-----000-----------||
    .          ..                    .     ...

||---------------(2nd guitar over top with)-------------------||
||-----7h8---------------------------------------11h12--------||
||--7h8----(x6)-----------------------------11h12-------(x6)--||
||------------------------------------------------------------||
||------------------------------------------------------------||
||------------------------------------------------------------||


||-------------------------------------------------||
||------------------0-------------0------------0---||
||----------------3-------------3------------3---3-||
||-------------------------------------------------||
||------34---1-------------------------------------||
||-0--0-34-0-1-0------0-1-0-4-3-----0-1-0-4-3------||
   .  . .. . . .      . . . . .     . . . . .

||---------------------------------------||
||----------------------0----------0-----||
||--------------------3----------3---3---||
||---------------------------------------||
||---------------------------------------||
||--0-43-0-1-0-1-0-43----0-1-0-43--------||

-----------------------------------------------------------------------------
                           Too Late For Roses
-----------------------------------------------------------------------------
download the free version of power tab off their website and then you can open too late for roses


Band: August Burns Red
Album: Thrill Seeker
Song: Barbarian

Tuning: Drop C-

Tabbed by: Andrew Brierly- Chramer
Email: andrew_ebc@hotmail.com

  Intro, Guitar I (00.00)
||----------------------------------------------------------------|
||----------------------------------------------------------------|
||----------------------------------------------------------------|
||----------------------------------------------------------------|
||-555555555----5555555----5555555----55555--------55555555-------|
||-555555555----5555555----5555555----55555--------55555555-------|
   .........    .......    .......    .....        ........

 Intro, Guitar II (00.11)
||----------------------------------------------------------------|
||----------------------------------------------------------------|
||-----------------5555--7777----888877775555----77775555---------|
||-5555777788885555----88----5555------------5555--------88885555-|
||----------------------------------------------------------------|
||----------------------------------------------------------------|

  (00.21)
||----------------------------------------------------------------|
||----------------------------------------------------------------|
||---------5---7---8-7-5---7-5------------------------------------|
||-5-7-8-5---8---5-------5-----8-5--------------------------------|
||----------------------------------------------------------------|
||----------------------------------------------------------------|

  Vers I (00.32)
||----------------------------------------------------------------|
||----------------------------------------------------------------|
||----------------------------------------------------------------|
||-5---7---8---7---4---5---7---5---1---3---5---1---3---5---7---3--|
||----------------------------------------------------------------|
||---5---5---5---5---0---0---0---0---1---1---1---1---3---3---3----|
     .   .   .   .   .   .   .   .   .   .   .   .   .   .   .

  Vers II (00.53)
||----------------------------------------------------------------|
||----------------------------------------------------------------|
||-----------------------------------------------------7-5--------|
||----------------------------------------5h8p5----3/5-----7------|
||-5--4-5--4-5--0-1/3--5--4-5--4-5--0-1/3-------8-----------------|
||-5--4-5--4-5--0-1/3--5--4-5--4-5--0-1/3-------------------------|


  Solo I, Guitar I (01.10)
||----------------------------------------------------------------|
||----------------------------------------------------------------|
||-3-3-3------5-5-5------7-7-7------7-7-7-------------------------|
||-x-x-x------x-x-x------x-x-x------x-x-x-------------------------|
||-1-1-1------3-3-3------5-5-5------5-5-5-------------------------|
||----------------------------------------------------------------|

  Solo I, Guitar II (01.16)
||--------------------------------------------11-10---------------------|
||----------------------------11-10-8----10-8-------8-10-11-8--------10-|
||--------------7-8-10--8--12---------10----------------------10-8-7----|
||-5h7-7h8-8-10---------------------------------------------------------|
||----------------------------------------------------------------------|
||----------------------------------------------------------------------|

||--------------------------------------------11-10-----------10-8-10-11-|
||----------------------------11-10-8----10-8-------8-11-10-8------------|
||--------------7-8-10--8--12---------10---------------------------------|
||-5h7-7h8-8-10----------------------------------------------------------|
||-----------------------------------------------------------------------|
||-----------------------------------------------------------------------|

  Vers III (01.28)
||------------------------------------------------------------|
||------------------------------------------------------------|
||------------------------------------------------------------|
||------------------------------------------------------------|
||-55555--55-55--4h5-00-1h5-00--55555--55-55--4h5-0-0-0-5-1-8-|
||-55555--55-55--4h5-00-1h5-00--55555--55-55--4h5-0-0-0-5-1-8-|
   .....  .. ..      ..     ..  .....  .. ..      . . . . . .

 (01.52)
||----------------10-|
||-----------8-10----|
||---------7---------|
||-5-3-7-8-----------|
||-------------------|
||-------------------|

  Vers IIII (01.53)
||--------------------------------------------------------|
||--------------------------------------------------------|
||--------------------------------------------------------|
||-----8---7-8--------10-8---7-8--------12---13p12p10-----|
||---------------10--------------10-------------------10--|
||-0-0---0-----0----0------0--------0-0----0--------------|
   . .   .     .    .      .        . .    .
||-------------------------------------------------------------------------------------------------|
||-13p11p10----------------------------------------------------------------------------------------|
||----------12-7-10-7-12-10------------------------------------------------------------------------|
||-----------------------------8-------8---8---8---------------------------------------------------|
||-------------------------------------------------6666-8888-10101010-6666-8888-10101010-12121212-8|
||-------------------------0-0---0-000---0---0---0-------------------------------------------------|
           . .   . ...   .   .   .
  Solo II, Guitar I (02.12)
||-------------------------------------------------------------13----|
||-13p11p10-------------------------------------------16-15-13----13-|
||----------12--7-10----------------------------12-14----------------|
||-------------------12------------------121415----------------------|
||----------------------13-12-13--101213-----------------------------|
||-------------------------------------------------------------------|

||----------------------------------------------------------------------17p15p14-17p15p14-|
||-----------------------------------------------------13--11-10-----18-------------------|
||---------------------12-15---------------------12-15-----------12-----------------------|
||---------------12-15---------------------12-15------------------------------------------|
||-13p12p10-8-10-------------13p12p10-8-10------------------------------------------------|
||----------------------------------------------------------------------------------------|

  Solo II, Guitar II (02.12)
||---------------------------------------------------------|
||---------------------------------------------------------|
||---------------------------------------------------------|
||---------------------------------------------------------|
||-8----8----8--8----8----8----5----5----5--5----5----5----|
||-8----8----8--8----8----8----5----5----5--5----5----5----|

||---------------------------------------------------------|
||---------------------------------------------------------|
||---------------------------------------------------------|
||---------------------------------------------------------|
||-1----1----1--1----1----1----3----3----3--3----3----3----|
||-1----1----1--1----1----1----3----3----3--3----3----3----|

  Repeat Vers I (02.34)

  Breakdown (02.57)
||-----------------------------------------------------------|
||-----------------------------------------------------------|
||-----------------------------------------------------------|
||-----------------------------------------------------------|
||-000000000----0000000----0000000----00000--------000000000-|
||-000000000----0000000----0000000----00000--------000000000-|
   .........    .......    .......    .....        .........

  Repeat Intro, Guitar II (03.10)

  (03.31)
||------------------|
||------------------|
||------------------|
||------------------|
||-5----------------|
||-5----------------|

-----------------------------------------------------------------------------
                        The Reflective Property
-----------------------------------------------------------------------------
Drop C-

  Intro
||----------------------------------------------------------------------|
||---------------------------------------------------------3-3-6-6------|
||-------------------------------------------------2-2-3-3--------------|
||-7-7-3-3---------7-7-3-3-----------------0-0-2-2----------------------|
||---------7-7-5-5---------7-7-5-5-1-1-3-3------------------------------|
||----------------------------------------------------------------------|

||----------------------------------------------------------------------|
||----------------------------------------------------------------------|
||-----------------2-2-3-3-5-5------------------------------------------|
||---------0-0-2-2-------------5-5--------------------------------------|
||-1-1-3-3--------------------------0~----------------------------------|
||----------------------------------0~------000-------------------------|
                                            ...

   Vers I
||----------------------------------------------------------------------|
||---------------9---7---12--10--9--------------------------------------|
||-------7---8----------------------------------------------------------|
||----------------------------------------------------------------------|
||-0-0-0---0---0---0---0---0----0---------------------------------------|
   . . .   .   .   .   .   .    .
||----------------------------------------------------------------------|
||----------------------------------------------------------------------|
||-----10/9---12/10---14/12---15/14-------------------------------------|
||-----x-x----x--x----x--x----x--x--------------------------------------|
||-----8/7----10/8----12/10---13/12-------------------------------------|
||-000------0-------0-------0-------------------------------------------|
   ...      .       .       .

   Vers II
||----------------------------------------------------------------------|
||----------------------------------------------------------------------|
||-----5---7----------10-9---------7-----1010---9-9----5-5----7-7-------|
||-------------------------10-7-10-------x-x----x-x----x-x----x-x-------|
||---------------------------------------8-8----7-7----3-3----5-5-------|
||-0-0---0---0--00000----------------000-----000----000----000----------|
   . .   .   .  .....                ...     ...    ...    ...
||----------------------------------------------------------------------|
||----------------------------------------------------------------------|
||-----5---7----------10-9---------7-----1010---9-9-----1515-----1414---|
||-------------------------10-7-10-------x-x----x-x-----x--x-----x--x---|
||---------------------------------------8-8----7-7-----1313-----1212---|
||-0-0---0---0--00000----------------000-----000----000-------000-------|
   . .   .   .  .....                ...     ...    ...       ...


                Vers I again...


                Vers II again...


||----------------------------------------------------------------------|
||----------------------------------------------------------------------|
||----1010---9-9----1515----1414----------------------------------------|
||----x-x----x-x----x-x-----x-x-----------------------------------------|
||----8-8----7-7----1313----1212----------------------------------------|
||-000----000----000-----000--------------------------------------------| x3
   ...    ...    ...     ...

   Breakdown I
||----------------------------------------------------------------------|
||----------------------------------------------------------------------|
||----------------------------------------------------------------------|
||----------------------------------------------------------------------|
||-000----000----000----000----000----000----000----000-----------------|
||-000----000----000----000----000----000----000----000-----------------|
   ...    ...    ...    ...    ...    ...    ...    ...

||----------------------------------------------------------------------|
||----------------------------------------------------------------------|
||----------------------------------------------------------------------|
||---------------------777555444----------------------------------------|
||------3----5----3-------------777555444-------------------------------|
||-000--3----5----3----------------------777555444----------------------|
   ...
||----------------------------------------------------------------------|
||----------------------------------------------------------------------|
||----------------------------------------------------------------------|
||------------------777555444-------------------------------------------|
||------3----5----3----------777555444----------------------------------|
||-000--3----5----3-------------------777555444-------------------------|
   ...

   Breakdown II
||----------------------------------------------------------------------|
||----------------------------------------------------------------------|
||----------------------------------------------------------------------|
||----------------------------------------------------------------------|
||-000000000--0--0----0----0----0--000----------------------------------|
||-000000000--0--0----0----0----0--000----------------------------------|
   .........  .  .    .    .    .  ...

||----------------------------------------------------------------------|
||----------------------------------------------------------------------|
||----------------------------------------------------------------------|
||----------------------------------------------------------------------|
||------8-----3----5----------------------------------------------------|
||-000--8--0--3----5----------------------------------------------------|
   ...     .
||----------------------------------------------------------------------|
||----------------------------------------------------------------------|
||----------------------------------------------------------------------|
||-----7-------------------------------7---------5-8-7------------------|
||---------5---7---8---5---8---7-----------5---7-------8-7-5------------|
||-0-0---0---0---0---0---0---0---0-0-0---0---0---------------8-7--------|
   . .   .   .   .   .   .   .   . . .   .   .
||----------------------------------------------------------------------|
||----------------------------------------------------------------------|
||----------------------------------------------------------------------|
||-----7----------------------------------------------------------------|
||---------5---7---8---5---8---7-----8---8-----8-----8--3--5------------|
||-0-0---0---0---0---0---0---0---000-8-0-8-0-0-8-0-0-8--3--5------------|
   . .   .   .   .   .   .   .   ...   .   . .   . .
||----------------------------------------------------------------------|
||----------------------------------------------------------------------|
||----------------------------------------------------------------------|
||----------------------------------------------------------------------|
||-000444555777-000444555777--------------------------------------------|
||----------------------------------------------------------------------|

-----------------------------------------------------------------------------
                        A Wish Full of Dreams
-----------------------------------------------------------------------------
This tab starts after about 18 seconds.......

Drop C-

||--------------------------------------------------------------|
||--------------------------------------------------------------|
||--------------------------------------------------------------|
||--------------------------------------------------------------|
||-0-00000-0-000-00-00-00-0000----------------------------------|
||-0-00000-0-000-00-00-00-0000----------------------------------|
   . ..... . ... .. .. .. ....

||-------------------------------------------------------------------------|
||-------------------------------------------------------------------------|
||---------3p2p0------------777101010------------777---------101010--------|
||-3-0-2-0-------3-5--------------------------777-------------------101010-|
||-------------------000-000----------555-555--------888-888---------------|
||-------------------000-000----------555-555--------888-888---------------|
                     ... ...          ... ...        ... ...
||--------------------------------------------------------------|
||--------------------------------------------------------------|
||---------10---------------------------------------------------|
||---------x--------8-------8---7h8-----------------------------|
||---------8--------8-------8---7h8-----------------------------|
||-0-0-0-0----0-0-0-8-0-0-0-8-0-7h8-----------------------------|
   . . . .    . . .   . . .   .
||--------------------------------------------------------------|
||--------------------------------------------------------------|
||--------------------------------------------------------------|
||--------------------------------------------------------------|
||-121212121212-88-131313131313-1212-444444-00-555555-0-5-0-5-7-|
||--------------------------------------------------------------|

||---------------------------------------------------------------|
||---------------------------------------------------------------|
||-----14---14-----10/15-----15----------------------------------|
||-----x----x------x---------x-----------------------------------|
||-----12---12-----8/-13-----13-----12-----4p0---4p0---5p0---5p0-|
||-0-0----0----0-0-------0-0----0-0-12-0-0-----0-----0-----0-----|
   . .    .    . .       . .    . .    . .     .     .     .

  Guitar I
||--------------------------------------------------------------|
||--------------------------------------------------------------|
||--------------------------------------------------------------|
||--------------------------------------------------------------|
||-555555-444444-888888-777777----------------------------------|
||--------------------------------------------------------------|

  Guitar II
||--------------------------------------------------------------|
||--------------------------------------------------------------|
||--------------------------------------------------------------|
||--------------------------------------------------------------|
||-000000-0000-0-0-00-0-00--------------------------------------|
||-000000-0000-0-0-00-0-00--------------------------------------|
   ...... .... . . .. . ..

----------------------------------------------------------------------------
	             "Consumer" - August Burns Red
----------------------------------------------------------------------------

Artist: August Burns Red
Song: "Consumer"
Album: Thrill Seeker
Tabbed by: Joe
Email: DrNick311@gmail.com

Bear with me - it's long, but fairly accurate.
Best enjoyed with two guitars.

If you have any suggestions that sound more accurate, please post them.

Tuning: Drop C (CGCFAD)

0:00 ("A front seat, to your own flick...") - Repeat 2X
Guitar 1
D|-------------------------------------------------------------------------|
A|-------------------------------------------------------------------------|
F|-------------------------------------------------------------------------|
C|-------------5h8--------------------------------5h8----------------------|
G|-3h5-------------------5-8p7h8p7/3-3h5--3h5-----------------5-8--6-0-5-0-|
C|-----0-0-0-0-----0-0------------------------0-0-----0-0-0-0------6-0-5-0-|
       * * * *     * *                        * *     * * * *      * * * *

Guitar 2
D|-------------------------------------------------------------------------|
A|-------------------------------------------------------------------------|
F|-------------------------------------------------------------------------|
C|-------------------------------------------------------------------------|
G|-----0-0-0-0-----0-0------------------------0-0-----0-0-0-0------6-0-5-0-|
C|-----0-0-0-0-----0-0------------------------0-0-----0-0-0-0------6-0-5-0-|
                                                                   * * * *


0:15 ("If only you could see...")
Guitar 1
D|-------------------------------------------------------------------------|
A|-------------------------------------------------------------------------|
F|-------------------------------------------------------------------------|
C|-------------5h8--------------------------------5h8----------------------|
G|-3h5-------------------5-8p7h8p7/3-3h5--3h5-----------------5-8--6-0-5/3-|
C|-----0-0-0-0-----0-0-0----------------------0-0-----0-0-0-0------6-0-5/3-|
       * * * *     * * *                      * *     * * * *      * * * *

Guitar 2
D|-------------------------------------------------------------------------|
A|-------------------------------------------------------------------------|
F|-------------------------------------------------------------------------|
C|-------------------------------------------------------------------------|
G|-----0-0-0-0-----0-0------------------------0-0-----0-0-0-0------6-0-5/3-|
C|-----0-0-0-0-----0-0------------------------0-0-----0-0-0-0------6-0-5/3-|
                                                                   * * * *


0:21
Guitar 1/2
D|-------------------------------------------------------------------------|
A|-------------------------------------------------------------------------|
F|-------------------------------------------------------------------------|
C|-------------------------------------------------------------------------|
G|-0--5-3-0-6-5-3-5-3-0-6-5-3-5-3-0-6-5-3-0--------------------------------|
C|-0--5-3-0-6-5-3-5-3-0-6-5-3-5-3-0-6-5-3-0--------------------------------|


0:27                       0:31
Guitar 1                   Repeat 2X
D|------------------------|------------------------------------------------|
A|------------------------|------------------------------------------------|
F|------------------------|-3333111444--3333111444-------------------------|
C|------------------------|------------------------------------------------|
G|------------------------|------------------------------------------------|
C|------------------------|------------------------------------------------|

Guitar 2 - Repeat 2X       Repeat 2X
D|------------------------|------------------------------------------------|
A|------------------------|------------------------------------------------|
F|------------------------|------------------------------------------------|
C|------------------------|------------------------------------------------|
G|-0--5-3-5-6--0--5-3-5-6-|-0--5-3-5-6--0--5-3-5-6-------------------------|
C|-0--5-3-5-6--0--5-3-5-6-|-0--5-3-5-6--0--5-3-5-6-------------------------|


0:36 - Repeat 4X ("And are ready to...") 0:58
Guitar 1/2
D|-------------------------------------|-----------------------------------|
A|-------------------------------------|-----------------------------------|
F|-------------------------------------|-----------------------------------|
C|-------------------------------------|-0~-\\\\\\\\\\\\\\\\\\\\\\\\\\\\\\-|
G|-0--0-0-000-0--0-0-000--00-00--00000-|-0~-\\\\\\\\\\\\\\\\\\\\\\\\\\\\\\-|
C|-0--0-0-000-0--0-0-000--00-00--00000-|-0~-\\\\\\\\\\\\\\\\\\\\\\\\\\\\\\-|
   *  * * *** *  * * ***  ** **  *****

1:00 - Repeat 2X ("Let's watch where it takes you...")
Guitar 1
D|-----------------------5-5-5-----------------5-5-5-5-5-5-5-5-------------|
A|-----------------------6-6-6-----------------6-6-6-6-6-6-6-6-------------|
F|----------------5------5-5-5-----------------5-5-5-5-5-5-5-5-------------|
C|---7---8p7p5------7----5-5-5------8---10p8---5-5-5-5-5-5-5-5-------------|
G|-5---5-------8------8------------------------5-5-5-5-5-5-5-5-------------|
C|--------------------------------8---8------8-5-5-5-5-5-5-5-5-------------|


Guitar 2
D|-------------------------------------------------------------------------|
A|-------------------------------------------------------------------------|
F|-------------------------------------------------------------------------|
C|-------------------------------------------------------------------------|
G|-0--0-0-----0------0--0-0---0---8--8-8-----8------8--8-8---8-------------|
C|-0--0-0-----0------0--0-0---0---8--8-8-----8------8--8-8---8-------------|
      * *     *         * *          * *     *         * *   *


1:11 - Repeat 2X ("You really don't have it that bad...")
Guitar 1
D|-----------------------5-5-5-----------------5-5-5-5-5-5-5-5-------------|
A|-----------------------6-6-6-----------------6-6-6-6-6-6-6-6-------------|
F|----------------5------5-5-5-----------------5-5-5-5-5-5-5-5-------------|
C|---7---8p7p5------7----5-5-5------8---10p8---5-5-5-5-5-5-5-5-------------|
G|-5---5-------8------8------------------------5-5-5-5-5-5-5-5-------------|
C|--------------------------------8---8------8-5-5-5-5-5-5-5-5-------------|


Guitar 2
D|----------------5------5-5-5-----------------5-5-5-5-5-5-5-5-------------|
A|---6---8p6p5------6----6-6-6-----------------6-6-6-6-6-6-6-6-------------|
F|-------------7------7--5-5-5-----10--12p10---5-5-5-5-5-5-5-5-------------|
C|-----------------------5-5-5-----------------5-5-5-5-5-5-5-5-------------|
G|-5---5---------------------------------------5-5-5-5-5-5-5-5-------------|
C|--------------------------------8---8------8-5-5-5-5-5-5-5-5-------------|


1:22 - Repeat 4X ("... show you truth")
Guitar 1
D|-------------------------------------------------------------------------|
A|-------------------------------------------------------------------------|
F|-------------------------------------------------------------------------|
C|-------------5h7---------------------------------------------------------|
G|-3h5-------------------5-8p7h10p8/3--------------------------------------|
C|-----0-0-0-0-----0-0-----------------------------------------------------|
       * * * *     * *

Guitar 2
D|-------------------------------------------------------------------------|
A|-------------------------------------------------------------------------|
F|-------------------------------------------------------------------------|
C|-------------------------------------------------------------------------|
G|-----0-0-0-0-----0-0-----------------------------------------------------|
C|-----0-0-0-0-----0-0-----------------------------------------------------|
       * * * *     * *

1:32 - Repeat 4X ("... committed the crime")   1:44
Guitar 1
D|--------------------------------------------|----------------------------|
A|--------------------------------------------|------------777-------------|
F|--------------------------------------------|---------------807035-------|
C|-------------5h7----------------------------|-0~-------X-----------------|
G|-3h5-0-0---------0-0---5-8p7h10p8/3---------|-0~-------X-----------------|
C|-----0-0---------0-0------------------------|-0~-------X-----------------|
       * *         * *

Guitar 2
D|--------------------------------------------|----------------------------|
A|--------------------------------------------|----------------------------|
F|-------------------------2p0h3p2------------|----------------------------|
C|-2h3-------------------3---------2----------|-0~-------X-----------------|
G|-----0-0-3h5-----0-0------------------------|-0~-------X-----------------|
C|-----0-0---------0-0------------------------|-0~-------X-----------------|
       * *         * *

1:46 ("But what we...")
Guitar 1
D|-------------------------------------------------------------------------|
A|-------------------------------------------------------------------------|
F|--------10-10-10-10-10-10-10-10-10-------7--5/7----9/10----10/3----------|
C|--------8--8--8--8--8--8--8--8--8----------------------------------------|
G|-8-8-8--8--8--8--8--8--8--8--8--8--0-0---5--3/5----7/8------8/5----------|
C|-8-8-8--8--8--8--8--8--8--8--8--8--0-0-----------------------------------|
                                     * *

Guitar 2
D|-------------------------------------------------------------------------|
A|-------------------------------------------------------------------------|
F|--------10-10-10-10-10-10-10-10-10---------------------------------------|
C|--------8--8--8--8--8--8--8--8--8----------------------------------------|
G|-8-8-8--8--8--8--8--8--8--8--8--8--0-0-0~--------------------------------|
C|-8-8-8--8--8--8--8--8--8--8--8--8--0-0-0~--------------------------------|
                                     * *

Guitar 1/2
D|-------------------------------------------------------------------------|
A|-------------------------------------------------------------------------|
F|-------------7-7-7-7-7-7-7-7---------------------------------------------|
C|-------------5-5-5-5-5-5-5-5---------------------------------------------|
G|-5--5-5-5-5--5-5-5-5-5-5-5-5--0-0-0--0-0-0-0-0--0-0-0-0-0--0-0-0-0-0-0-0-|
C|-5--5-5-5-5--5-5-5-5-5-5-5-5--0-0-0--0-0-0-0-0--0-0-0-0-0--0-0-0-0-0-0-0-|

1:57 - Repeat 2X
Guitar 1
D|-------------------------------------------------------------------------|
A|-------------------------------------------------------------------------|
F|--------10-10-10-10-10-10-10-10-10-------7--5/7----9/10----10/3----------|
C|--------8--8--8--8--8--8--8--8--8----------------------------------------|
G|-8-8-8--8--8--8--8--8--8--8--8--8--0-0---5--3/5----7/8------8/5----------|
C|-8-8-8--8--8--8--8--8--8--8--8--8--0-0-----------------------------------|
                                     * *

Guitar 2
D|-------------------------------------------------------------------------|
A|-------------------------------------------------------------------------|
F|--------10-10-10-10-10-10-10-10-10-------10-9/10--12/14----14/9----------|
C|--------8--8--8--8--8--8--8--8--8----------------------------------------|
G|-8-8-8--8--8--8--8--8--8--8--8--8--0-0---8--7/8---10/12----12/7----------|
C|-8-8-8--8--8--8--8--8--8--8--8--8--0-0-----------------------------------|
                                     * *

Guitar 1/2                      1st Time Only, 2nd Time Go to Next Bar
D|-----------------------------|-------------------------------------------|
A|-----------------------------|-------------------------------------------|
F|-------------7-7-7-7-7-7-7-7-|-------------------------------------------|
C|-------------5-5-5-5-5-5-5-5-|-------------------------------------------|
G|-5--5-5-5-5--5-5-5-5-5-5-5-5-|0-0-0--0-0-0-0-0--0-0-0-0-0--0-0-0-0-0-0-0-|
C|-5--5-5-5-5--5-5-5-5-5-5-5-5-|0-0-0--0-0-0-0-0--0-0-0-0-0--0-0-0-0-0-0-0-|
                                * *    * * * *    * * * *    * * * * * * *

2:16 - Repeat 2X ("Everyone is full of it...")
Guitar 1/2
D|-------------------------------------------------------------------------|
A|-------------------------------------------------------------------------|
F|--------------------------------------------------------7/5--9/10--------|
C|-------------------------------------------------------------------------|
G|-0-0-0-0-0--3~--0-0--0-0--0-0--0-0-0-0-0--3~--0-0--0-0--5/3--7/8---------|
C|-0-0-0-0-0--3~--0-0--0-0--0-0--0-0-0-0-0--3~--0-0--0-0-------------------|
                  * *  * *  * *                 * *  * *

2:28
Guitar 1/2
D|-------------------------------------------------------------------------|
A|-------------------------------------------------------------------------|
F|--------------------------14-14-12/14---------------------------7/5--9/10|
C|-------------------------------------------------------------------------|
G|-0-0-0-0-0--3~--0-0--0-0--12-12-10/12--0-0-0-0-0--3~--0-0--0-0--5/3--7/8-|
C|-0-0-0-0-0--3~--0-0--0-0---------------0-0-0-0-0--3~--0-0--0-0-----------|
                  * *  * *                              * *  * *

2:40
Guitar 1
D|-------------------------------------------------------------------------|
A|-------------------------------------------------------------------------|
F|---------5/7----------7/9----------9/10---------10/9---------------------|
C|-------------------------------------------------------------------------|
G|---------3/5----------5/7----------7/8-----------8/7---------------------|
C|-0-0-0-0------0-0-0-0------0-0-0-0-------0-0-0-0-------------------------|

Guitar 2
D|-------------------------------------------------------------------------|
A|-------------------------------------------------------------------------|
F|---------9/10--------10/12---------12/14---------14/9--------------------|
C|-------------------------------------------------------------------------|
G|---------7/8----------8/10---------10/12---------12/7--------------------|
C|-0-0-0-0------0-0-0-0------0-0-0-0-------0-0-0-0-------------------------|

2:43 - Repeat 2X
Guitar 1
D|-------------------------------------------------------------------------|
A|-------------------------------------------------------------------------|
F|-------10p7------------------------------10p7----------------------------|
C|-7h8p7------8p7h8p7-------7h8p7----7h8p7------8p7h8p7-------7h8p7--------|
G|--------------------8p7h8-------8---------------------8p7h8-------8------|
C|-------------------------------------------------------------------------|

Guitar 2
D|-------------------------------------------------------------------------|
A|-------------------------------------------------------------------------|
F|-------------10-10-10-10-10-10-10--------------10-10-10-10-10-10-10------|
C|-------------8--8--8--8--8--8--8---------------0--0--0--0--0--0--0-------|
G|-8-8-8--X--8-8--8--8--8--8--8--8---0-0-0--X--0-0--0--0--0--0--0--0-------|
C|-8-8-8--X--8-8--8--8--8--8--8--8---0-0-0--X--0-0--0--0--0--0--0--0-------|

2:54 - Repeat 2X ("A young boy...")
Guitar 1
D|-5h6p5-13p10-6p5h6p5------5h6p5----5h6p5-13p10-6p5h6p5------5h6p5--------|
A|--------------------6p5h6-------6---------------------6p5h6-------6------|
F|-------------------------------------------------------------------------|
C|-------------------------------------------------------------------------|
G|-------------------------------------------------------------------------|
C|-------------------------------------------------------------------------|

Guitar 2
D|-------------------------------------------------------------------------|
A|-------------------------------------------------------------------------|
F|-------------10-10-10-10-10-10-10--------------10-10-10-10-10-10-10------|
C|-------------8--8--8--8--8--8--8---------------0--0--0--0--0--0--0-------|
G|-8-8-8--X--8-8--8--8--8--8--8--8---0-0-0--X--0-0--0--0--0--0--0--0-------|
C|-8-8-8--X--8-8--8--8--8--8--8--8---0-0-0--X--0-0--0--0--0--0--0--0-------|

3:05 ("And this boy...")
Guitar 1
D|-------------------------------------------------------------------------|
A|-------------------------------------------------------------------------|
F|-10-10-10-10-10-10-10-10--9-9-9-9--7-7-7-7--14-14-14-14-14-14-14-14------|
C|-------------------------------------------------------------------------|
G|-8--8--8--8--8--8--8--8---7-7-7-7--5-5-5-5--12-12-12-12-12-12-12-12------|
C|-------------------------------------------------------------------------|

Guitar 2
D|-------------------------------------------------------------------------|
A|-------------------------------------------------------------------------|
F|-------------------------------------------------------------------------|
C|-------------------------------------------------------------------------|
G|-8-8-8-8-8-8-8-8-8-8-8-8-8-8-8-8-8-8-8-8-8--0-0-0-0-0-0-0-0-0-0-0-0------|
C|-8-8-8-8-8-8-8-8-8-8-8-8-8-8-8-8-8-8-8-8-8--0-0-0-0-0-0-0-0-0-0-0-0------|

Guitar 1
D|-------------------------------------------------------------------------|
A|-------------------------------------------------------------------------|
F|-15-15-15-15--17-17-17-17--15-15-15-15-15-15-15-15-15-15-15-15-15-15-15--|
C|-------------------------------------------------------------------------|
G|-13-13-13-13--15-15-15-15--13-13-13-13-13-13-13-13-13-13-13-13-13-13-13--|
C|-------------------------------------------------------------------------|

Guitar 2
D|-------------------------------------------------------------------------|
A|-------------------------------------------------------------------------|
F|-------------------------------------------------------------------------|
C|-------------------------------------------------------------------------|
G|-0-0-0-0-0-0-0-0-0-0-0-0---8-8-8-8-8-8-8-8-8-8-8-8-8-8-8-8-8-8-8-8-8-----|
C|-0-0-0-0-0-0-0-0-0-0-0-0---8-8-8-8-8-8-8-8-8-8-8-8-8-8-8-8-8-8-8-8-8-----|

Guitar 1
D|-------------------------------------------------------------------------|
A|-------------------------------------------------------------------------|
F|-7-7-7-7-7-7-7-7--9-9-9-9--10-10-10-10-10-10-10--------------------------|
C|-------------------------------------------------------------------------|
G|-5-5-5-5-5-5-5-5--7-7-7-7--8--8--8--8--8--8--8---------------------------|
C|-------------------------------------------------------------------------|

Guitar 2
D|-------------------------------------------------------------------------|
A|-------------------------------------------------------------------------|
F|-------------------------------------------------------------------------|
C|-------------------------------------------------------------------------|
G|-0-0-0-0-0-0-0-0-0-0-0-0-0-0-0-0-0-0-0-0-0-0-0-0-------------------------|
C|-0-0-0-0-0-0-0-0-0-0-0-0-0-0-0-0-0-0-0-0-0-0-0-0-------------------------|

3:17 - Repeat 2X("... Life will pass us by")
Guitar 1
D|-5h6p5-13p10-6p5h6--5h6p5-13p10-6p5h6------------------------------------|
A|-------------------------------------------------------------------------|
F|-------------------------------------------------------------------------|
C|-------------------------------------------------------------------------|
G|-------------------------------------------------------------------------|
C|-------------------------------------------------------------------------|

Guitar 2
D|-------------------------------------------------------------------------|
A|-------------------------------------------------------------------------|
F|-----------------------------------------------10-----9------12--10-10-10|
C|-------------------------------------------------------------------------|
G|-8-8-8-8-8-8-8-8-8-8-8-8-8-8-8-8-8-8--0-0-0-0--8-0-0--7-0-0--10--8--8--8-|
C|-8-8-8-8-8-8-8-8-8-8-8-8-8-8-8-8-8-8--0-0-0-0----0-0----0-0--------------|
                                        * * * *    * *    * *

Guitar 1
D|------------------------------------5h6p5-13p10-6p5h6--5h6p5-13p10-6p5h6-|
A|-------------------------------------------------------------------------|
F|-------------------------------------------------------------------------|
C|-------10p7---------------10p7-------------------------------------------|
G|-7h8p7------8p7h8---7h8p7------8p7h8-------------------------------------|
C|-------------------------------------------------------------------------|

Guitar 2
D|-------------------------------------------------------------------------|
A|-------------------------------------------------------------------------|
F|-------------------------------------------------------------------------|
C|-------------------------------------------------------------------------|
G|-8-8-8-8-8-8-8-8-8-8-8-8-8-8-8-8-8-8--0-0-0-0--0-0-0--0-0-0--0--0-0-0-0--|
C|-8-8-8-8-8-8-8-8-8-8-8-8-8-8-8-8-8-8--0-0-0-0--0-0-0--0-0-0--0--0-0-0-0--|
                                        * * * *    * *    * *


Guitar 1
D|-5~--13~--12-----------------------13~--12--15---------------------------|
A|-------------13------11-10----10~----------------------------------------|
F|---------------------------10--------------------------------------------|
C|----------------12~----------------------------0~------------------------|
G|-----------------------------------------------0~------------------------|
C|-----------------------------------------------0~------------------------|

Guitar 2
D|-------------------------------------------------------------------------|
A|-------------------------------------------------------------------------|
F|-10~--------------------------10~----------------------------------------|
C|-8~-------------0~------------8~---------------0~------------------------|
G|-8~-------------0~------------8~---------------0~------------------------|
C|-8~-------------0~------------8~---------------0~------------------------|

A SHOT BELOW THE BELT
As recorded by August Burns Red
(From the 2005 Album THRILL SEEKER)

Transcribed by Austin Mills & August Burns Red


Words and Music by August Burns Red

Gtr I (D G C F A D) - 'w/dist'
Gtr II (D G C F A D) - 'w/dist'
Gtr III (D G C F A D) - 'w/dist'
Gtr IV (D G C F A D) - 'Pickscrape'
Gtr V (D G C F A D) - 'w/gritty clean sound'
Gtr VI (D G C F A D) - 'w/clean'

   Breakdown
    Fast Metalcore Q=165
    E5
   5/4
    Gtrs I, II
    PM------------------------------|    PM--------------|
    S S E E S S E E S S S S S S E   E Q  S S S S E E E E E
||--------------------------------|------------------------|
||o-------------------------------|------------------------|
||--------------------------------|------------------------|
||--------------------------------|------------------------|
||o-2-2-2-2-2-2-2---2-2-2-2-2-2-2-|-2----2-2-2-2-2-2---2---|
||--0-0-0-0-0-0-0---0-0-0-0-0-0-0-|-0----0-0-0-0-0-0---0---|


  PM------|   PM--------|     PM|     PM----------|    PM------|
  S S S S E E S S S S S E S E S S   S S E S S S S E Q  S S S S E
|---------------------------------|--------------------------------||
|---------------------------------|-------------------------------o||
|---------------------------------|--------------------------------||
|---------------------------------|--------------------------------||
|-2-2-2-2-2---2-2-2-2-2-2-----2-2-|---2-2-2-2-2-2-2----2-2-2-2-2--o||
|-0-0-0-0-0---0-0-0-0-0-0-----0-0-|---0-0-0-0-0-0-0----0-0-0-0-0---||


  Gtr III
  E    E E  E   E E E    E   E   E   E E E  S  S S S E E E E E
|----------------------------------|----------------------------|
|----------------------------------|----------------------------|
|----------------------------------|----------------------------|
|--------9-10---7-9----------------|-------10-10-9-9-7---5-4-7--|
|-7---10------------9---10---6---9-|-7-----------------3--------|
|----------------------------------|---7s8----------------------|
|
| Gtrs I, II
| PM---------------------------------|      PM---------------|
| S S  E E  S S E E S S  S S S S E   E Q    S  S S S E E E E E
|----------------------------------|----------------------------|
|----------------------------------|----------------------------|
|----------------------------------|----------------------------|
|----------------------------------|----------------------------|
|-2-2--2-2--2-2-2---2-2--2-2-2-2-2-|-2------2--2-2-2-2-2---2----|
|-0-0--0-0--0-0-0---0-0--0-0-0-0-0-|-0------0--0-0-0-0-0---0----|


  E   E   E E E   E   E   E   E E     E   E S S S S E S S S S E   E   E
|-----------------------------------|-----------------------------------|
|-------------5p==0---1p==0---3p0---|-7---------------------------------|
|-----------7-----------------------|-----8-----------------------------|
|-----7s==5-------------------------|-----------------------------------|
|-5---------------------------------|-----------------------------7---6-|
|-----------------------------------|-------0-0-0-0-0-3-2-0-7-8---------|
|
| PM------|   PM--------|       PM|     PM----------|         PM|   PM|
| S S S S E E S S S S S E   S E S S   S S E S S S S E Q       S S S S E
|-----------------------------------|-----------------------------------|
|-----------------------------------|-----------------------------------|
|-----------------------------------|-----------------------------------|
|-----------------------------------|-----------------------------------|
|-2-2-2-2-2---2-2-2-2-2-2-------2-2-|---2-2-2-2-2-2-2---------2-2---2-2-|
|-0-0-0-0-0---0-0-0-0-0-0-------0-0-|---0-0-0-0-0-0-0---------0-0---0-0-|


  E    E E  E   E E E    E   E   E   E E E  S  S S S E E E E E
|----------------------------------|----------------------------|
|----------------------------------|----------------------------|
|----------------------------------|----------------------------|
|--------9-10---7-9----------------|-------10-10-9-9-7---5-4-7--|
|-7---10------------9---10---6---9-|-7-----------------3--------|
|----------------------------------|---7s8----------------------|
|
| PM---------------------------------|      PM---------------|
| S S  E E  S S E E S S  S S S S E   E Q    S  S S S E E E E E
|----------------------------------|----------------------------|
|----------------------------------|----------------------------|
|----------------------------------|----------------------------|
|----------------------------------|----------------------------|
|-2-2--2-2--2-2-2---2-2--2-2-2-2-2-|-2------2--2-2-2-2-2---2----|
|-0-0--0-0--0-0-0---0-0--0-0-0-0-0-|-0------0--0-0-0-0-0---0----|


  E   E   E E E   E   E   E   E E     E   E S S S S E S S S S E   E   E
|-----------------------------------|-----------------------------------||
|-------------5p==0---1p==0---3p0---|-7---------------------------------||
|-----------7-----------------------|-----8-----------------------------||
|-----7s==5-------------------------|-----------------------------------||
|-5---------------------------------|-----------------------------7---6-||
|-----------------------------------|-------0-0-0-0-0-3-2-0-7-8---------||
|
| PM------|   PM--------|       PM|     PM----------|         PM------|
| S S S S E E S S S S S E   S E S S   S S E S S S S E Q       S S S S E
|-----------------------------------|-----------------------------------||
|-----------------------------------|-----------------------------------||
|-----------------------------------|-----------------------------------||
|-----------------------------------|-----------------------------------||
|-2-2-2-2-2---2-2-2-2-2-2-------2-2-|---2-2-2-2-2-2-2---------2-2-2-2-2-||
|-0-0-0-0-0---0-0-0-0-0-0-------0-0-|---0-0-0-0-0-0-0---------0-0-0-0-0-||


 Pre-Verse
  N.C.
 4/4
  Gtr IV
  TP         TP       TP
  W          W        a
|----------|------------||
|----------|------------||
|----------|------------||
|----------|------------||
|-xs=======|=xs=======x-||
|-xs=======|=xs=======x-||


   Verse
    E5                            Bsus4/E
    Gtr III
     W                             W
||------------------------------|--0--------------------------|
||o-----------------------------|--0--------------------------|
||------------------------------|-----------------------------|
||---2--------------------------|-(2)-------------------------|
||o--2--------------------------|-(2)-------------------------|
||---0--------------------------|-(0)-------------------------|
|
|   Gtr I
|    S S E  S S E  S S E  S S E    S S E  S S E  S S E  S S E
||--12p0-0-12p0-0-15p0-0-14p0-0-|-12p0-0-12p0-0-15p0-0-14p0-0-|
||o-----------------------------|-----------------------------|
||------------------------------|-----------------------------|
||------------------------------|-----------------------------|
||o-----------------------------|-----------------------------|
||------------------------------|-----------------------------|
|
|   Gtr II
|    S S E  S S E  S S E  S S E    S S E  S S E  S S E  S S E
||---3p0-0--3p0-0--7p0-0--5p0-0-|--3p0-0--3p0-0--7p0-0--5p0-0-|
||o-----------------------------|-----------------------------|
||------------------------------|-----------------------------|
||------------------------------|-----------------------------|
||o-----------------------------|-----------------------------|
||------------------------------|-----------------------------|


  E5                            C5          D5
   W                            H           H
|-----------------------------|-----------------------------||
|-----------------------------|----------------------------o||
|-----------------------------|-5-----------7---------------||
|--2--------------------------|-5-----------7---------------||
|--2--------------------------|-3-----------5--------------o||
|--0--------------------------|-----------------------------||
|
|  S S E  S S E  S S E  S S E   S S E S S E S S E  S S E
|-12p0-0-12p0-0-15p0-0-14p0-0-|-7p0-0-7p0-0-8p0-0-10p0-0----||
|-----------------------------|----------------------------o||
|-----------------------------|-----------------------------||
|-----------------------------|-----------------------------||
|-----------------------------|----------------------------o||
|-----------------------------|-----------------------------||
|
|  S S E  S S E  S S E  S S E   S S E S S E S S E  S S E
|--3p0-0--3p0-0--7p0-0--5p0-0-|-2p0-0-2p0-0-3p0-0--5p0-0----||
|-----------------------------|----------------------------o||
|-----------------------------|-----------------------------||
|-----------------------------|-----------------------------||
|-----------------------------|----------------------------o||
|-----------------------------|-----------------------------||


    E5
    Gtr I
    PM----|         PM----|     PM      PM------|     PM------|
    S S S E   E   S S S S E   S E   E   S E   S E E   S E   S E
||--------------------------------|-----------------------------|
||o-------------------------------|-----------------------------|
||--------------------------------|-----------------------------|
||--------------------------------|-----------------------------|
||o-2-2-2-2---------2-2-2-2-----2-|-----2-2---2-2-----2-2---2-2-|
||--0-0-0-0---------0-0-0-0-----0-|-----0-0---0-0-----0-0---0-0-|
|
|   Gtr II
|   S S E   S S E   S S E   S S E   S S E   S S E S S E   S S E
||--3p0-0---3p0-0---7p0-0---5p0-0-|-3p0-0---3p0-0-7p0-0---5p0-0-|
||o-------------------------------|-----------------------------|
||--------------------------------|-----------------------------|
||--------------------------------|-----------------------------|
||o-------------------------------|-----------------------------|
||--------------------------------|-----------------------------|


              PM----|     PM      PM--------------------|
  H           S S S E   S E   E   S E   S E S S S S E   E
|---------------------------|-------------------------------||
|---------------------------|------------------------------o||
|---------------------------|-------------------------------||
|---------------------------|-------------------------------||
|-------------2-2-2-2-----2-|-----2-2---2-2-2-2-2-2-2---2--o||
|-------------0-0-0-0-----0-|-----0-0---0-0-0-0-0-0-0---0---||
|
| S S E S S E S S E   S S E   S S E   S S E S S E   S S E
|-3p0-0-3p0-0-7p0-0---5p0-0-|-2p0-0---2p0-0-3p0-0---5p0-0---||
|---------------------------|------------------------------o||
|---------------------------|-------------------------------||
|---------------------------|-------------------------------||
|---------------------------|------------------------------o||
|---------------------------|-------------------------------||


  E5                                           C5
   PM|
   E  E  H.                  +H.           +E  S S
|--------------------------|-----------------------|
|--------------------------|-----------------------|
|--------------------------|-----------------------|
|--9--9--9-----------------|-(9)-----------(9)-5-5-|
|--7--7--7-----------------|-(7)-----------(7)-3-3-|
|--------------------------|-----------------------|
|
|  E  E  E   E  E  E  E  E    E  E E E E E  E  E
|--------------------------|-----------------------|
|--------------------------|-----------------------|
|-12-12-12--12-------------|-----------------------|
|--------------10-10-10-10-|--9--9-9-9-9-9--9--9---|
|--------------------------|-----------------------|
|--------------------------|-----------------------|


   PM|
   E  E  H.                  +W
|--------------------------|-------------------|
|--------------------------|-------------------|
|--------------------------|-------------------|
|--5--5--5-----------------|-(5)---------------|
|--3--3--3-----------------|-(3)---------------|
|--------------------------|-------------------|
|
|  E  E  E   E  E  E  E  E    E  E E E E E E E
|--------------------------|-------------------|
|--------------------------|-------------------|
|-12-12-12--12-------------|-------------------|
|--------------10-10-10-10-|--9--9-9-9-9-9-9-9-|
|--------------------------|-------------------|
|--------------------------|-------------------|


  D5
   PM|
   E  E  H.                  +W
|--------------------------|-------------------|
|--------------------------|-------------------|
|--------------------------|-------------------|
|--7--7--7-----------------|-(7)---------------|
|--5--5--5-----------------|-(5)---------------|
|--------------------------|-------------------|
|
|  E  E  E   E  E  E  E  E    E  E E E E E E E
|--------------------------|-------------------|
|--------------------------|-------------------|
|-12-12-12--12-------------|-------------------|
|--------------10-10-10-10-|--9--9-9-9-9-9-9-9-|
|--------------------------|-------------------|
|--------------------------|-------------------|


  E5                   D5         C5
   PM|      PM    PM|       PM--|   PM|
   E  E  E  E  E  E  E  E   E E E E E E E E
|-------------------------|-----------------|
|-------------------------|-----------------|
|-------------------------|-----------------|
|--------9-----9--------7-|-------5-----5-5-|
|--7--7--7--7--7--7--7--5-|-5-5-5-3-3-3-3-3-|
|-------------------------|-----------------|
|
|  E  E  E  E  E  E  E  E   E E E E E E E E
|-------------------------|-----------------|
|-------------------------|-----------------|
|-12-12-12-12-------------|-----------------|
|-------------10-10-10-10-|-9-9-9-9-9-9-9-9-|
|-------------------------|-----------------|
|-------------------------|-----------------|


  N.C.
   PM|      PM       PM     PM|   PM    PM
   E  E  E  E  E  E  E  E   E E E E E E E E
|-------------------------|-----------------|
|-------------------------|-----------------|
|--------------0----------|---------0-------|
|--------9--------9-----9-|-----9-----9---9-|
|--7--7-----7--------7----|-7-7---7-----7---|
|-------------------------|-----------------|
|
|  E  E  E  E  E  E  E  E   E E E E E E E E
|-------------------------|-----------------|
|-------------------------|-----------------|
|-12-12-12-12-------------|-----------------|
|-------------10-10-10-10-|-9-9-9-9-9-9-9-9-|
|-------------------------|-----------------|
|-------------------------|-----------------|


   PM|      PM    PM|       PM|     PM    PM
   E  E  E  E  E  E  E  E   E E E E E E E E
|-------------------------|-----------------|
|-------------------------|-----------------|
|--------------5--------4-|-----0-----0-----|
|--------5----------------|-------5-----5---|
|--3--3-----3-----3--3----|-3-3-----3-----3-|
|-------------------------|-----------------|
|
|  E  E  E  E  E  E  E  E   E E E E E E E E
|-------------------------|-----------------|
|-------------------------|-----------------|
|-12-12-12-12-------------|-----------------|
|-------------10-10-10-10-|-9-9-9-9-9-9-9-9-|
|-------------------------|-----------------|
|-------------------------|-----------------|


   PM|      PM    PM|       PM|   PM  PM  PM-
   E  E  E  E  E  E  E  E   E E E E E E E E
|-------------------------|-----------------|
|-------------------------|-----------------|
|-------------------------|-----7---5---4---|
|--------4-----7--------5-|-----------------|
|--5--5-----5-----5--5----|-5-5---5---5---5-|
|-------------------------|-----------------|
|
|  E  E  E  E  E  E  E  E   E E E E E E E E
|-------------------------|-----------------|
|-------------------------|-----------------|
|-12-12-12-12-------------|-----------------|
|-------------10-10-10-10-|-9-9-9-9-9-9-9-9-|
|-------------------------|-----------------|
|-------------------------|-----------------|


  E5                   D5         C5
 ----|      PM    PM|       PM--|   PM|
   E  E  E  E  E  E  E  E   E E E E E E E E
|-------------------------|-----------------|
|-------------------------|-----------------|
|-------------------------|-----------------|
|--------9-----9--------7-|-------5-----5-5-|
|--7--7--7--7--7--7--7--5-|-5-5-5-3-3-3-3-3-|
|-------------------------|-----------------|
|
|  E  E  E  E  E  E  E  E   E E E E E E E E
|-------------------------|-----------------|
|-------------------------|-----------------|
|-12-12-12-12-------------|-----------------|
|-------------10-10-10-10-|-9-9-9-9-9-9-9-9-|
|-------------------------|-----------------|
|-------------------------|-----------------|


  N.C.
   PM|     PM       PM      PM|     PM      PM
   E  E E  E  E  E  E  E    E E  E  E  E  E E E
|------------------------|----------------------|
|------------------------|----------------------|
|-------------0----------|-------------0--------|
|-------9--------9-----9-|-------9--------9---9-|
|--7--7----7--------7----|--7-7-----7-------7---|
|------------------------|----------------------|
|
|  E  E E  E  E  E  E  E    E E  E  E  E  E E E
|------------------------|----------------------|
|------------------------|----------------------|
|-12------------------12-|----------------------|
|----10-9-------12-10----|-10-9-------12-10-9---|
|---------10-12----------|------10-12---------9-|
|------------------------|----------------------|


   PM|     PM    PM|        PM|        PM     PM
   E  E E  E  E  E  E  E    E E  E  E  E  E E E
|------------------------|----------------------|
|------------------------|----------------------|
|-------------5--------4-|-------0--------0-----|
|-------5----------------|----------5-------5---|
|--3--3----3-----3--3----|--3-3--------3------3-|
|------------------------|----------------------|
|
|  E  E E  E  E  E  E  E    E E  E  E  E  E E E
|------------------------|----------------------|
|------------------------|----------------------|
|-12------------------12-|----------------------|
|----10-9-------12-10----|-10-9-------12-10-9---|
|---------10-12----------|------10-12---------9-|
|------------------------|----------------------|


   PM|     PM    PM|        PM|     PM    PM  PM-
   E  E E  E  E  E  E  E    E E  E  E  E  E E E
|------------------------|----------------------|
|------------------------|----------------------|
|------------------------|-------7-----5----4---|
|-------4-----7--------5-|----------------------|
|--5--5----5-----5--5----|--5-5-----5-----5---5-|
|------------------------|----------------------|
|
|  E  E E  E  E  E  E  E    E E  E  E  E  E E E
|------------------------|----------------------|
|------------------------|----------------------|
|-12------------------12-|----------------------|
|----10-9-------12-10----|-10-9-------12-10-9---|
|---------10-12----------|------10-12---------9-|
|------------------------|----------------------|


  E5                  D5           C5
 ----|     PM    PM|        PM--|      PM|
   E  E E  E  E  E  E  E    E E  E  E  E  E E E
|------------------------|----------------------||
|------------------------|----------------------||
|------------------------|----------------------||
|-------9-----9--------7-|----------5-------5-5-||
|--7--7-7--7--7--7--7--5-|--5-5--5--3--3--3-3-3-||
|------------------------|----------------------||
|
|  E  E E  E  E  E  E  E    E E  E  E  E  E E E
|------------------------|----------------------||
|------------------------|----------------------||
|-12------------------12-|----------------------||
|----10-9-------12-10----|-10-9-------12-10-9---||
|---------10-12----------|------10-12---------9-||
|------------------------|----------------------||


 Interlude
  Slower Q=150
  E5      C/E      E5        A5/EE5  G
  Gtrs I, II
  >
  W                    +W
|--------------------|---------------------|
|--------------------|---------------------|
|--------------------|---------------------|
|-2------------------|-(2)-----------------|
|-2------------------|-(2)-----------------|
|-0------------------|-(0)-----------------|
|
| Gtr V
| E E E E  E  E  E E    E  E E E E E  E  E
|--------------------|---------------------|
|--------------------|---------------------|
|--------------------|---------------------|
|-9-9-9-9-10-10-10-9-|--9--9-7-7-9-9--9--9-|
|-7-7-7-7--7--7--7-7-|--7--7-7-7-7-7-10-10-|
|--------------------|---------------------|


  E5        C/E      E5        A5/EE5  G
  +W                     +W
|----------------------|---------------------|
|----------------------|---------------------|
|----------------------|---------------------|
|-(2)------------------|-(2)-----------------|
|-(2)------------------|-(2)-----------------|
|-(0)------------------|-(0)-----------------|
|
|  E  E E E  E  E  E E    E  E E E E E  E  E
|----------------------|---------------------|
|----------------------|---------------------|
|----------------------|---------------------|
|--9--9-9-9-10-10-10-9-|--9--9-7-7-9-9--9--9-|
|--7--7-7-7--7--7--7-7-|--7--7-7-7-7-7-10-10-|
|----------------------|---------------------|


             Am/C     C5        C     C5    C
  Gtr V
   E  E E  E  E  E  E  E    E E  E  E  E  E E E
|------------------------|----------------------|
|------------------------|----------------------|
|------------------------|----------------------|
|--5--5-5--5--7--7--7--5-|--5-5--4--4--5--5-4-4-|
|--3--3-3--3--3--3--3--3-|--3-3--3--3--3--3-3-3-|
|------------------------|----------------------|
|
| Gtr VI
|  E  E E  E  E  E  E  E    E E  E  E  E  E E E
|------------------------|----------------------|
|------------------------|----------------------|
|-12------------------12-|----------------------|
|----10-9-------12-10----|-10-9-------12-10-9---|
|---------10-12----------|------10-12---------9-|
|------------------------|----------------------|


                      N.C.
   E  E E  E  E  E  E  E   +E  E  E  E  E  E E E
|------------------------|-----------------------|
|------------------------|-----------------------|
|------------------------|-----------------------|
|--4--4-4--4--4--4--4--1-|-(1)-1--1--1--1--1-1-1-|
|--3--3-3--3--3--3--3--0-|-(0)-0--0--0--0--0-0-0-|
|------------------------|-----------------------|
|
|  E  E E  E  E  E  E  E    E  E  E  E  E  E E E
|------------------------|-----------------------|
|------------------------|-----------------------|
|-12------------------12-|-----------------------|
|----10-9-------12-10----|-10--9-------12-10-9---|
|---------10-12----------|-------10-12---------9-|
|------------------------|-----------------------|


  E5         C/E      E5        A5/E  E5    G
   E  E E  E  E  E  E  E    E E  E  E  E  E  E  E
|------------------------|------------------------|
|------------------------|------------------------|
|------------------------|------------------------|
|--9--9-9--9-10-10-10--9-|--9-9--7--7--9--9--9--9-|
|--7--7-7--7--7--7--7--7-|--7-7--7--7--7--7-10-10-|
|------------------------|------------------------|
|
|  E  E E  E  E  E  E  E    E E  E  E  E  E  E  E
|------------------------|------------------------|
|------------------------|------------------------|
|-12------------------12-|------------------------|
|----10-9-------12-10----|-10-9-------12-10--9----|
|---------10-12----------|------10-12-----------9-|
|------------------------|------------------------|


  E5         C/E      E5        A5/E  E5    G
   E  E E  E  E  E  E  E    E E  E  E  E  E  E  E
|------------------------|------------------------|
|------------------------|------------------------|
|------------------------|------------------------|
|--9--9-9--9-10-10-10--9-|--9-9--7--7--9--9--9--9-|
|--7--7-7--7--7--7--7--7-|--7-7--7--7--7--7-10-10-|
|------------------------|------------------------|
|
|  E  E E  E  E  E  E  E    E E  E  E  E  E  E  E
|------------------------|------------------------|
|------------------------|------------------------|
|-12------------------12-|------------------------|
|----10-9-------12-10----|-10-9-------12-10--9----|
|---------10-12----------|------10-12-----------9-|
|------------------------|------------------------|


  C5         Am/C     C5        C     C5    C
   E  E E  E  E  E  E  E    E E  E  E  E  E E E
|------------------------|----------------------|
|------------------------|----------------------|
|------------------------|----------------------|
|--5--5-5--5--7--7--7--5-|--5-5--4--4--5--5-4-4-|
|--3--3-3--3--3--3--3--3-|--3-3--3--3--3--3-3-3-|
|------------------------|----------------------|
|
|  E  E E  E  E  E  E  E    E E  E  E  E  E E E
|------------------------|----------------------|
|------------------------|----------------------|
|-12------------------12-|----------------------|
|----10-9-------12-10----|-10-9-------12-10-9---|
|---------10-12----------|------10-12---------9-|
|------------------------|----------------------|


                      N.C.
   E  E E  E  E  E  E  E   +E  E  E  E  E  E E E
|------------------------|-----------------------||
|------------------------|-----------------------||
|------------------------|-----------------------||
|--4--4-4--4--4--4--4--1-|-(1)-1--1--1--1--1-1-1-||
|--3--3-3--3--3--3--3--0-|-(0)-0--0--0--0--0-0-0-||
|------------------------|-----------------------||
|
|  E  E E  E  E  E  E  E    E  E  E  E  E  E E E
|------------------------|-----------------------||
|------------------------|-----------------------||
|-12------------------12-|-----------------------||
|----10-9-------12-10----|-10--9-------12-10-9---||
|---------10-12----------|-------10-12---------9-||
|------------------------|-----------------------||


 Verse
  Faster Q=165
  E5    C/E  E5      A5/E  E5    G  E5        C/E      Dsus2C/E    E5  A5/E
  Gtrs I, II
  PM|   PM   PM|     PM|   PM  PM   PM----|   PM   PM|      PM|    PM  PM  PM
  E E E E  E E E E   E E E E E E  E E   E E E E  E E E  E   E E  E E E E E E
|------------------|------------------|-------------------|------------------|
|------------------|------------------|-------------------|------------------|
|------------------|------------------|-------------------|------------------|
|-----9---10-----9-|-----7---9----9---|-----9---10-----12-|-----10---9---7---|
|-7-7-7-7--7-7-7-7-|-7-7-7-7-7-7-10-7-|-7-7-7-7--7-7-7--7-|-7-7--7-7-7-7-7-7-|
|------------------|------------------|-------------------|------------------|


  C5    Am/CC5      C     C5  C                     N.C.
  PM|   PM  PM|     PM|   PM  PM  PM----|   PM  PM|     PM|   PM
  E E E E E E E E   E E E E E E E E   E E E E E E E E   E E E E E E E E
|-----------------|-----------------|-----------------|-----------------|
|-----------------|-----------------|-----------------|-----------------|
|-----------------|-----------------|-----------------|-----------------|
|-----5---7-----5-|-----4---5---4---|-----4---4-----1-|-----1---1-1-1-1-|
|-3-3-3-3-3-3-3-3-|-3-3-3-3-3-3-3-3-|-3-3-3-3-3-3-3-0-|-0-0-0-0-0-0-0-0-|
|-----------------|-----------------|-----------------|-----------------|


  C5        C/E    C5        A5/E    C5      G    C5
  Gtrs I, II
  PM--|     PM     PM|       PM|     PM    PM     PM-
  E   E E   E  E   E E E     E E E   E E   E  E   E
|--------------------------|------------------------|
|--------------------------|------------------------|
|--------------------------|------------------------|
|-------9-----10-------9---|-----7-----9------9-----|
|-7---7-7---7--7---7-7-7---|-7-7-7---7-7---7-10---7-|
|--------------------------|------------------------|
|
| Gtr III
| S S E S S E  S S E E S S   E E S S E S S E  S S E
|-3p0-0-7p0-0--8p0-0-0-7p0-|-0-0-5p0-0-7p0-0--3p0-0-|
|--------------------------|------------------------|
|--------------------------|------------------------|
|--------------------------|------------------------|
|--------------------------|------------------------|
|--------------------------|------------------------|


            C/E        Dsus2/EC/E      C5    A5/E
 -----|     PM     PM|        PM|      PM    PM    PM
  E   E E   E  E   E E  E     E E  E   E E   E E   E
|---------------------------|-------------------------|
|---------------------------|-------------------------|
|---------------------------|-------------------------|
|-------9-----10-------12---|-----10-----9-----7------|
|-7---7-7---7--7---7-7--7---|-7-7--7---7-7---7-7---7--|
|---------------------------|-------------------------|
|
| S S E S S E  S S E E  S S   E E  S S E S S E S S E
|-3p0-0-7p0-0--8p0-0-0-10p0-|-0-0--8p0-0-7p0-0-5p0-0--|
|---------------------------|-------------------------|
|---------------------------|-------------------------|
|---------------------------|-------------------------|
|---------------------------|-------------------------|
|---------------------------|-------------------------|


  C5        Am/C  C5        C5      C5    C
  PM--|     PM    PM|       PM|     PM    PM    PM-
  E   E E   E E   E E E     E E E   E E   E E   E
|-------------------------|-----------------------|
|-------------------------|-----------------------|
|-------------------------|-----------------------|
|-------5-----7-------5---|-----4-----5-----4-----|
|-3---3-3---3-3---3-3-3---|-3-3-3---3-3---3-3---3-|
|-------------------------|-----------------------|
|
| S S E S S E S S E E S S   E E S S E S S E S S E
|-3p0-0-7p0-0-8p0-0-0-7p0-|-0-0-5p0-0-7p0-0-3p0-0-|
|-------------------------|-----------------------|
|-------------------------|-----------------------|
|-------------------------|-----------------------|
|-------------------------|-----------------------|
|-------------------------|-----------------------|


                      N.C.
 -----|     PM    PM|        PM|     PM
  E   E E   E E   E E  E     E E E   E E   E E   E
|--------------------------|------------------------||
|--------------------------|------------------------||
|--------------------------|------------------------||
|-------4-----4--------1---|-----1-----1---1-1---1--||
|-3---3-3---3-3---3-3--0---|-0-0-0---0-0---0-0---0--||
|--------------------------|------------------------||
|
| S S E S S E S S E E  S S   E E S S E S S E S S E
|-3p0-0-7p0-0-8p0-0-0-10p0-|-0-0-8p0-0-7p0-0-5p0-0--||
|--------------------------|------------------------||
|--------------------------|------------------------||
|--------------------------|------------------------||
|--------------------------|------------------------||
|--------------------------|------------------------||


   Verse
    E5                N.C.
    Gtrs I, II
    PM--------------|
    S S S S S S S S E E E E   E E E E E E E E
||--------------------------|-----------------|
||o-------------------------|-----------------|
||--------------------------|-----------5-4-2-|
||--------------------------|-------4-2-------|
||o-2-2-2-2-2-2-2-2-2-------|-5-3-2-----------|
||--0-0-0-0-0-0-0-0-0-3-2-0-|-----------------|


  E5                    N.C.
  PM----------------|   TPTPTPTPTPTPTPTP
  E E S S E S E S E E   E E E E E E E E    4x
|---------------------|--------------------||
|---------------------|-------------------o||
|---------------------|-5-4-2-0------------||
|---------------------|---------1-2-4-5----||
|-2-2-2-2-2-2-2-2-2-2-|-------------------o||
|-0-0-0-0-0-0-0-0-0-0-|--------------------||


 Verse
  N.C.
  Gtr I
  TP         TP
  W          W          E E E E E E E E   E E E E E E E E
|----------|----------|-----------------|-----------------|
|----------|----------|-----------------|-----------------|
|----------|----------|---5-2-4---5-2-4-|---5-2-4---5-2-4-|
|-5--------|-1--------|-2-------2-------|-2-------2-------|
|----------|----------|-----------------|-----------------|
|----------|----------|-----------------|-----------------|
|
| Gtr II
| TP         TP
| W          W          E E E E E E E E   E E E E E E E E
|----------|----------|-----------------|-----------------|
|----------|----------|-----------------|-----------------|
|----------|----------|---5-2-4---5-2-4-|---5-2-4---5-2-4-|
|-5--------|-9--------|-2-------2-------|-2-------2-------|
|----------|----------|-----------------|-----------------|
|----------|----------|-----------------|-----------------|


                                       1.
    E E E E E E E E   E E E E E E E E   E E E E E E E E   E E E E E E E E
||------------------|-----------------|-----------------|-------------------||
||o-----------------|-----------------|-----------------|------------------o||
||----0-4-0---0-4-0-|---0-5-4-2-0-----|---5-2-4---5-2-4-|---5-2-4---5-2-4---||
||------------------|-------------4-1-|-2-------2-------|-2-------2---------||
||o-3-------3-------|-3---------------|-----------------|------------------o||
||------------------|-----------------|-----------------|-------------------||
|
|   TPTPTPTPTPTPTPTP  TPTPTPTPTPTPTPTP
|   E E E E E E E E   E E E E E E E E   E E E E E E E E   E E E E E E E E
||------------------|-----------------|-----------------|-------------------||
||o-0-1-3-5-0-1-3-5-|-0-1-3-5-0-1-3-5-|-----------------|------------------o||
||------------------|-----------------|---5-2-4---5-2-4-|---5-2-4---5-2-4---||
||------------------|-----------------|-2-------2-------|-2-------2---------||
||o-----------------|-----------------|-----------------|------------------o||
||------------------|-----------------|-----------------|-------------------||


  2.
  A5
  E E E E E   E    E  E   E   E    E  E E   E    E  E
|-----------------------|-------------------------------|
|-----------------------|-------------------------------|
|---5-2-4-----5----2--4-|-----5----2--4-----5----2--4---|
|-2-------2-------------|-2-------------2---------------|
|-----------------------|-------------------------------|
|-----------------------|-------------------------------|
|
| PM-----------------------------------------------------
| Q   Q   S E   S +E  E   S E   S +E  E S E   S +E  S S
|-----------------------|-------------------------------|
|-----------------------|-------------------------------|
|-----------------------|-------------------------------|
|-----------------------|-------------------------------|
|-7---7---7-7---7-(7)-7-|-7-7---7-(7)-7-7-7---7-(7)-7-7-|
|-5---5---5-5---5-(5)-5-|-5-5---5-(5)-5-5-5---5-(5)-5-5-|


  B5
  E E E E E   E    E  E   E   E    E  E E   E    E  E
|-----------------------|--------------------------------|
|-----------------------|--------------------------------|
|---0-4-0-----0----4--0-|-----0----5--4-2---0------------|
|-----------------------|------------------------4--1----|
|-2-------2-------------|-2------------------------------|
|-----------------------|--------------------------------|
|
|-----------------------------------------------------|
| Q   Q   S E   S +E  E   S E   S +E  E S E   S +E  S S
|-----------------------|--------------------------------|
|-----------------------|--------------------------------|
|-----------------------|--------------------------------|
|-----------------------|--------------------------------|
|-9---9---9-9---9-(9)-9-|-9-9---9-(9)-9-9-9---9-(9)-9-9--|
|-7---7---7-7---7-(7)-7-|-7-7---7-(7)-7-7-7---7-(7)-7-7--|


  C5
   E E  E E  E    E      E   E    E    E      E   E  E    E      E   E
|------------------------------|------------------------------------------|
|------------------------------|------------------------------------------|
|----5--2-4-------5------2---4-|-------5------2---4-------5------2---4----|
|--2---------2-----------------|--2------------------2--------------------|
|------------------------------|------------------------------------------|
|------------------------------|------------------------------------------|
|
|  PM----------------------------------------------------------------------
|  Q    Q    S  E    S  +E   E    S  E    S  +E   E  S  E    S  +E   S  S
|------------------------------|------------------------------------------|
|------------------------------|------------------------------------------|
|------------------------------|------------------------------------------|
|------------------------------|------------------------------------------|
|-10---10---10-10---10-(10)-10-|-10-10---10-(10)-10-10-10---10-(10)-10-10-|
|--8----8----8--8----8--(8)--8-|--8--8----8--(8)--8--8--8----8--(8)--8--8-|


  E5
  E E E E E   E    E  E   E   E    E  E E   E    E  E
|-----------------------|--------------------------------||
|-----------------------|--------------------------------||
|---0-4-0-----0----4--0-|-----0----5--4-2---0------------||
|-----------------------|------------------------4--1----||
|-3-------3-------------|-3------------------------------||
|-----------------------|--------------------------------||
|
|-----------------------------------------------------|
| Q   Q   S E   S +E  E   S E   S +E  E S E   S +E  S S
|-----------------------|--------------------------------||
|-----------------------|--------------------------------||
|-----------------------|--------------------------------||
|-----------------------|--------------------------------||
|-2---2---2-2---2-(2)-2-|-2-2---2-(2)-2-2-2---2-(2)-2-2--||
|-0---0---0-0---0-(0)-0-|-0-0---0-(0)-0-0-0---0-(0)-0-0--||


   Breakdown
    E5          B/EE5            N.CB    E5          B/EE5            N.CB
   7/8
    Gtrs I, II
    PM--------|    PM----------|         PM--------|    PM----------|
    S S E S S E Q  S S   E S S E Q  Q    S S E S S E Q  S S   E S S E Q  Q
||---------------------|---------------|--------------------|----------------||
||o--------------------|---------4-----|--------------------|---------4-----o||
||---------------------|---------------|--------------------|----------------||
||--------------1------|------------1--|-------------1------|------------1---||
||o-2-2-2-2-2-2-2--2-2-|-2-2-2-2----2--|-2-2-2-2-2-2-2--2-2-|-2-2-2-2----2--o||
||--0-0-0-0-0-0-0--0-0-|-0-0-0-0-------|-0-0-0-0-0-0-0--0-0-|-0-0-0-0--------||


  Slower Q=135
                    A5/E
 4/4          3/4
  +W           +Q    H    a
|------------|--------------||
|------------|--------------||
|------------|--------------||
|-(1)--------|-(1)----------||
|-(2)--------|-(2)--12s===0-||
|------------|------12s===0-||


   Outro
    B/E                          C5B5BbA5/E
   4/4
    PM---------------------------------|
    S S E Q  Q  S S E   +E  Q  E E E E E
||--------------------|------------------|
||o-------------------|------------------|
||--------------------|------------------|
||--1-1-1-1--1--1-1-1-|-(1)-1--1---------|
||o-2-2-2-2--2--2-2-2-|-(2)-2--2-3-2-1-0-|
||--0-0-0-0--0--0-0-0-|-(0)-0--0-3-2-1-0-|


  B/E                          B
  PM-------------------------|
  S S E Q  Q  S S E   +E  Q  E E E Q
|-------------------|------------------||
|-------------------|----------4-4-4--o||
|-------------------|----------x-x-x---||
|-1-1-1-1--1--1-1-1-|-(1)-1--1-1-1-1---||
|-2-2-2-2--2--2-2-2-|-(2)-2--2-2-2-2--o||
|-0-0-0-0--0--0-0-0-|-(0)-0--0---------||


  B/E                          C5B5BbA5/E
  PM----------------------|    PM----|
  S S E Q  Q  S S E   +E  E Q  E E E E
|-------------------|------------------|
|-------------------|------------------|
|-------------------|------------------|
|-1-1-1-1--1--1-1-1-|-(1)-1------------|
|-2-2-2-2--2--2-2-2-|-(2)-2----3-2-1-0-|
|-0-0-0-0--0--0-0-0-|-(0)-0----3-2-1-0-|


  B/E                          B
  PM-------------------------|
  S S E Q  Q  S S E   +E  Q  E E E Q
|-------------------|-----------------|
|-------------------|----------4-4-4--|
|-------------------|----------x-x-x--|
|-1-1-1-1--1--1-1-1-|-(1)-1--1-1-1-1--|
|-2-2-2-2--2--2-2-2-|-(2)-2--2-2-2-2--|
|-0-0-0-0--0--0-0-0-|-(0)-0--0--------|


  B/E                          C5B5BbA5/EC5B5BbA5/E
                                        2/4
  PM----------------------|    PM--------------|
  S S E Q  Q  S S E   +E  E Q  E E E E   E E E E
|-------------------|------------------|---------|
|-------------------|------------------|---------|
|-------------------|------------------|---------|
|-1-1-1-1--1--1-1-1-|-(1)-1------------|---------|
|-2-2-2-2--2--2-2-2-|-(2)-2----3-2-1-0-|-3-2-1-0-|
|-0-0-0-0--0--0-0-0-|-(0)-0----3-2-1-0-|-3-2-1-0-|


  B/E                          B
 4/4
  PM-------------------------|
  S S E Q  Q  S S E   +E  Q  E E E Q    +W           +W
|-------------------|-----------------|------------|--------*|
|-------------------|----------4-4-4--|-(4)--------|-(4)----*|
|-------------------|----------x-x-x--|------------|--------*|
|-1-1-1-1--1--1-1-1-|-(1)-1--1-1-1-1--|-(1)--------|-(1)----*|
|-2-2-2-2--2--2-2-2-|-(2)-2--2-2-2-2--|-(2)--------|-(2)----*|
|-0-0-0-0--0--0-0-0-|-(0)-0--0--------|------------|--------*|

----------------------------------------------------------------------------
			     Eve Of The End - ABR
----------------------------------------------------------------------------


Tabbed by: jmjx803
Email: jmjx803@yahoo.com

Tuning: drop c

This song is quite easy to play if you know the rhythm. And all i have tabbed is the
guitar. This is my first tab as well so rate and tell me what you think.


d|-----------------------------------------------------------------------------|
A|-----------------------------------------------------------------------------|
F|--------14-14-14-14--------14-14-14-14---------------------------------------|
C|-0--0-0-12-12-12-12-0--0-0-12-12-12-12---------x4----------------------------|
G|-0--0-0-------------0--0-0---------------------------------------------------|
C|-0--0-0-------------0--0-0---------------------------------------------------|
   PM----|            PM-------------------------------------------------------|


d|--------13-13-13-13--------13-13-13-13---------------------------------------|
A|-----------------------------------------------------------------------------|
F|--------14-14-14-14--------14-14-14-14---------------------------------------|
C|-0--0-0-12-12-12-12-0--0-0-12-12-12-12---------x4----------------------------|
G|-0--0-0-------------0--0-0---------------------------------------------------|
C|-0--0-0-------------0--0-0---------------------------------------------------|
   PM----|            PM-------------------------------------------------------|

d|-------------------------------------------------------------------------|
A|-------------------------------------------------------------------------|
F|-5--5-5-5--5-7--7-7--7-7-7-7-5--5-5-5--5-7--7-7--7-7-7-7-----------------|
C|-------------------------------------------------------------------------|
G|-7--7-7-7--7-7--7-7--7-7-7-7-6--6-6-6--6-6--6-6--6-6-6-6-----------------|
C|-7--7-7-7--7-7--7-7--7-7-7-7-6--6-6-6--6-6--6-6--6-6-6-6-----------------|


d|------------------------------------------------------------------------------------------|
A|------------------------------------------------------------------------------------------|
F|--------14-14-14-14--------14-14-14-14----------------------------------------------------|
C|-0--0-0-12-12-12-12-0--0-0-12-12-12-12---------x2-----------------------------------------|
G|-0--0-0-------------0--0-0----------------------------------------------------------------|
C|-0--0-0-------------0--0-0-------------------------------------------------| PM----|  PM--|


d|-------------------------------------------------------------------------|
A|-------------------------------------------------------------------------|
F|-5--5-5-5--5-7--7-7--7-7-7-7-5--5-5-5--5-7--7-7--7-7-7-7-----------------|
C|-------------------------------------------------------------------------|
G|-7--7-7-7--7-7--7-7--7-7-7-7-6--6-6-6--6-6--6-6--6-6-6-6-----------------|
C|-7--7-7-7--7-7--7-7--7-7-7-7-6--6-6-6--6-6--6-6--6-6-6-6-----------------|


d|--------------------------------------------------------------------------------------------|
A|--------------------------------------------------------------------------------------------|
F|--------14-14-14-14--------14-14-14-14------------------------------------------------------|
C|-0--0-0-12-12-12-12-0--0-0-12-12-12-12---------x2-------------------------------------------|
G|-0--0-0-------------0--0-0------------------------------------------------------------------|
C|-0--0-0-------------0--0-0-------------------------------------------------| PM----|    PM--|


d|-------------------------------------------------------------------------|
A|-------------------------------------------------------------------------|
F|-5--5-5-5--5-7--7-7--7-7-7-7-5--5-5-5--5-7--7-7--7-7-7-7-----------------|
C|-------------------------------------------------------------------------|
G|-7--7-7-7--7-7--7-7--7-7-7-7-6--6-6-6--6-6--6-6--6-6-6-6-----------------|
C|-7--7-7-7--7-7--7-7--7-7-7-7-6--6-6-6--6-6--6-6--6-6-6-6-----------------|


d|--------13-13-13-13--------13-13-13-13---------------------------------------|
A|-----------------------------------------------------------------------------|
F|--------14-14-14-14--------14-14-14-14---------------------------------------|
C|-0--0-0-12-12-12-12-0--0-0-12-12-12-12---------x2----------------------------|
G|-0--0-0-------------0--0-0---------------------------------------------------|
C|-0--0-0-------------0--0-0---------------------------------------------------|
   PM----|            PM-------------------------------------------------------|


d|-------------------------------------------------------------------------|
A|-------------------------------------------------------------------------|
F|-5--5-5-5--5-7--7-7--7-7-7-7-5--5-5-5--5-7--7-7--7-7-7-7-----------------|
C|-------------------------------------------------------------------------|
G|-7--7-7-7--7-7--7-7--7-7-7-7-6--6-6-6--6-6--6-6--6-6-6-6-----------------|
C|-7--7-7-7--7-7--7-7--7-7-7-7-6--6-6-6--6-6--6-6--6-6-6-6-----------------|

 Go into clean and then play this:

d|-------------------------------------------------------------------------|
A|-------------------------------------------------------------------------|
F|-5--5-5-5--5-7--7-7--7-7-7-7-5--5-5-5--5-7--7-7--7-7-7-7-----------------|
C|-------------------------------------------------------------------------|
G|-7--7-7-7--7-7--7-7--7-7-7-7-6--6-6-6--6-6--6-6--6-6-6-6-----------------|
C|-7--7-7-7--7-7--7-7--7-7-7-7-6--6-6-6--6-6--6-6--6-6-6-6-----------------|


d|---------13-13-13-13---------13-13-13-13---------------------------------|
A|-------------------------------------------------------------------------|
F|-------------------------------------------------------------------------|
C|-------------------------------------------------x2----------------------|
G|-------------------------------------------------------------------------|
C|-0-0-0-0-------------0-0-0-0---------------------------------------------|


d|-------------------------------------------------------------------------|
A|-------------------------------------------------------------------------|
F|-5--5-5-5--5-7--7-7--7-7-7-7-5--5-5-5--5-7--7-7--7-7-7-7-----------------|
C|-------------------------------------------------------------------------|
G|-7--7-7-7--7-7--7-7--7-7-7-7-6--6-6-6--6-6--6-6--6-6-6-6-----------------|
C|-7--7-7-7--7-7--7-7--7-7-7-7-6--6-6-6--6-6--6-6--6-6-6-6-----------------|


d|---------13-13-13-13---------13-13-13-13---------------------------------|
A|-------------------------------------------------------------------------|
F|-------------------------------------------------------------------------|
C|-------------------------------------------------x2----------------------|
G|-------------------------------------------------------------------------|
C|-0-0-0-0-------------0-0-0-0---------------------------------------------|


d|-------------------------------------------------------------------------|
A|-------------------------------------------------------------------------|
F|-5--5-5-5--5-7--7-7--7-7-7-7-5--5-5-5--5-7--7-7--7-7-7-7-----------------|
C|-------------------------------------------------------------------------|
G|-7--7-7-7--7-7--7-7--7-7-7-7-6--6-6-6--6-6--6-6--6-6-6-6-----------------|
C|-7--7-7-7--7-7--7-7--7-7-7-7-6--6-6-6--6-6--6-6--6-6-6-6-----------------|

 I'm not so sure about this part:

d|---------------------------------------------------------------------------|
A|---------------------------------------------------------------------------|
F|-5--5-5-5--5-5--5-5--5-5-5-5-7--7-7-7--7-7---------------------------------|
C|-7--7-7-7--7-7--7-7--7-7-7-7-9--9-9-9--9-9---------------------------------|
G|-------------------------------------------0--0--0--0--0--0--0--0----------|
C|-------------------------------------------0--0--0--0--0--0--0--0----------|
                                             PM-with-distortion--------------|

d|---------------------------------------------------------------------------|
A|---------------------------------------------------------------------------|
F|-14-14-14-14---------------------15-15-15-15-------------------------------|
C|-12-12-12-12-0---0---0---0-0-0-0-12-12-12-12-0---0---0---0-0-0-0----x10----|
G|-------------0---0---0---0-0-0-0-------------0---0---0---0-0-0-0-----------|
C|-------------0---0---0---0-0-0-0-------------0---0---0---0-0-0-0-----------|
               PM            PM---|            PM            PM--------------|

d|-------------------------------------------------------------------------|
A|-------------------------------------------------------------------------|
F|-------------------------------------------------------------------------|
C|-0~----------------------------------------------------------------------|
G|-0~----------------------------------------------------------------------|
C|-0~----------------------------------------------------------------------|

                               THE SEVENTH TRUMPET
                         As recorded by August Burns Red
                       (From the 2005 Album THRILL SEEKER)

Transcribed by Colin Cyr

Gtr I (C G C F A D) - 'Untitled'
Gtr II (C G C F A D) - 'Untitled'
Gtr III (C G C F A D) - 'Untitled'
Gtr IV (C G C F A D) - 'Untitled'

 Intro
  Q=175
 4/4
  Gtrs I, II
                                                   PM
  W          +H     +Q.   E   +W           +H.     E E
|----------|----------------|------------|-------------|
|----------|----------------|------------|-----------6-|
|----------|----------------|------------|-----------9-|
|-0--------|-(0)----(0)---0-|-(0)--------|-(0)---------|
|-0--------|-(0)----(0)---0-|-(0)--------|-(0)-----0---|
|-0--------|-(0)----(0)---0-|-(0)--------|-(0)-----0---|


  PM|   PM      PM----|   PM|   PM  PM--|   PM      PM--|     PM|   PM  PM|
  E E E E E E E S S   E E E E E E E E   E E E E E E S S E   E E E E E E E E
|-------------------|-----------------|-------------------|-----------------|
|-----6-------6-----|---6-----6---6---|---6-------6-------|-6-----6---6-----|
|-----9-----9-------|---9-----9---9---|---9-----9---------|-9-----9---9-----|
|---------7---------|-----------------|-------7-----------|-----------------|
|-0-0---0-------0-0-|-0---0-0---0---0-|-0---0-------0-0-0-|---0-0---0---0-0-|
|-0-0---0-------0-0-|-0---0-0---0---0-|-0---0-------0-0-0-|---0-0---0---0-0-|


    PM      PM--|     PM|   PM  PM|     PM      PM----------|   PM|   PM
  E E E E E S S E E   E E E E E E E E   E E E E S S q E   q E E E E E E
|-------------------|-----------------|-----------------|---------------|
|-6-------6-------6-|-----6---6-----6-|-------6---------|-----6-----6---|
|-9-----9---------9-|-----9---9-----9-|-----9-----------|-----9-----9---|
|-----7-------------|-----------------|---7-------------|---------------|
|---0-------0-0-0---|-0-0---0---0-0---|-0-------0-0-0-0-|-0-0---0-0---0-|
|---0-------0-0-0---|-0-0---0---0-0---|-0-------0-0-0-0-|-0-0---0-0---0-|


        PM--|   PM|     PM  PM|   PM        PM--|   PM|     PM  PM|   PM
  E E E S S E E E E   E E E E E E E E   E E S S E E E E E   E E E E E E E E
|-------------------|-----------------|-------------------|-----------------|
|-----6-------6-----|-6---6-----6-----|---6-------6-----6-|---6-----6-------|
|---9---------9-----|-9---9-----9-----|-9---------9-----9-|---9-----9-----9-|
|-7-----------------|---------------7-|-------------------|-------------7---|
|-------0-0-0---0-0-|---0---0-0---0---|-----0-0-0---0-0---|-0---0-0---0-----|
|-------0-0-0---0-0-|---0---0-0---0---|-----0-0-0---0-0---|-0---0-0---0-----|


    PM--|   PM|   PM    PM|   PM        PM--|   PM|   PM    PM|   PM      PM|
  E S S E E E E E E   E E E E E E E E   S S E E E E E E E   E E E E E E E S S
|-------------------|-----------------|-------------------|--------------------|
|-6-------6-----6---|-6-----6-------6-|-------6-----6---6-|-----6-------6------|
|---------9-----9---|-9-----9-----9---|-------9-----9---9-|-----9-----9--------|
|-------------------|-----------7-----|-------------------|---------7----------|
|---0-0-0---0-0---0-|---0-0---0-------|-0-0-0---0-0---0---|-0-0---0-------0-0--|
|---0-0-0---0-0---0-|---0-0---0-------|-0-0-0---0-0---0---|-0-0---0-------0-0--|


  PM    PM------------------------|       PM-------------|
  E  E  E  E  S S S  e.  S S   S  q +s    S S S S S S S  e.
|----------------------------|---------------------------------|
|----6-----------------------|---------------------------------|
|----9-----------------------|---------------------------------|
|----------------------------|---------------------------------|
|-0-----0--0--0-0-0--0---0-0-|-0--0-(0)---0-0-0-0-0-0-0--0-----|
|-0-----0--0--0-0-0--0---0-0-|-0--0-(0)---0-0-0-0-0-0-0--0-----|


   "The moon glows..."
    Gtr I
         PM|       PM|         PM|
    E  E E E  E  E E E    E  E E E  E  E  E  E
||---------------------|-----------------------|
||o--------------------|-----------------------|
||--------------15-----|----14--------14-15-12-|
||--7-12-----12--------|-11--------12----------|
||o------0-0-------0-0-|-------0-0-------------|
||-------0-0-------0-0-|-------0-0-------------|
|
|   Gtr II
|        PM|       PM|       PM-----------------
|   E  E E E  Q    E E    Q  E E Q  S  S  S  S
||---------------------|-----------------------|
||o--------------------|-----------------------|
||---------------------|-----------------------|
||--7-12---------------|-----------------------|
||o------0-0-------0-0-|-----0-0----0--0--0--0-|
||-------0-0-------0-0-|-----0-0----0--0--0--0-|


       PM|       PM|
  E  E E E  E  E E E      E  E  E  E  E  E E  E  4x
|----------------------|-------------------------||
|----------------------|------------------------o||
|-------------14-------|-------------------9-10--||
|-7-11-----11----------|-------14-15-11-12-------||
|------0-0-------0-0---|-12-13------------------o||
|------0-0-------0-0---|-------------------------||
|
|-------------|    PM|
| S  S S S  E  E Q E E    E  E  E  E  E  E E  E  4x
|----------------------|-------------------------||
|----------------------|------------------------o||
|----------------------|-------------------9-10--||
|----------------------|-------14-15-11-12-------||
|-0--0-0-0--0--0---0-0-|-12-13------------------o||
|-0--0-0-0--0--0---0-0-|-------------------------||


       PM|       PM|         PM|
  E  E E E  E  E E E    E  E E E  E  E  E    E
|--------------------|---------------------------|
|--------------------|---------------------------|
|-------------15-----|----14--------14-15---12---|
|-7-12-----12--------|-11--------12--------------|
|------0-0-------0-0-|-------0-0-----------------|
|------0-0-------0-0-|-------0-0-----------------|
|
|      PM|       PM|         PM-------------------
| Q    E E  Q    E E    Q    E E  Q     S S  S S
|--------------------|---------------------------|
|--------------------|---------------------------|
|--------------------|---------------------------|
|--------------------|---------------------------|
|------0-0-------0-0-|-------0-0--------0-0--0-0-|
|------0-0-------0-0-|-------0-0--------0-0--0-0-|


           PM|       PM|
  E    E   E E  E  E E E    E  E  E  E  E  E E  E
|------------------------|------------------------|
|------------------------|------------------------|
|-----------------14-----|-------------------9-10-|
|-7---11-------11--------|-------14-15-11-12------|
|----------0-0-------0-0-|-12-13------------------|
|----------0-0-------0-0-|------------------------|
|
|------------|       PM|
| S S  S S E E  Q    E E    E  E  E  E  E  E E  E
|------------------------|------------------------|
|------------------------|------------------------|
|------------------------|-------------------9-10-|
|------------------------|-------14-15-11-12------|
|-0-0--0-0-0-0-------0-0-|-12-13------------------|
|-0-0--0-0-0-0-------0-0-|------------------------|


 "Something big is going..."
  Q=150
 4/4
  Gtrs I, II
    PM--------|     PM----------|    PM------|   PM----------------|    PM--|
  E E E E E E E E   E E E S E S E  E E   E E E E E E E E   E S E S E  E E E E
|-----------------|--------------------|-----------------|---------------------|
|-----------------|----------------8---|-----------------|------------8--------|
|-2---------------|---------------11---|-------2---------|-----------11--------|
|-2---------------|--------------------|-------2---------|---------------------|
|-0-3-2-0-5-3-2---|-0-2-3-0-0-0-0----0-|-4-3-0-0-3-2-0-2-|-3-0-0-0-0----0-4-3--|
|---3-2-0-5-3-2---|-0-2-3-0-0-0-0----0-|-4-3-0---3-2-0-2-|-3-0-0-0-0----0-4-3--|


  PM  PM----------|       PM|    PM----|
  E E E E E E E S S   +S  S E  E E E E E E
|-------------------|----------------------|
|-------------------|----------8-----------|
|---2---------------|---------11---------2-|
|---2---------------|--------------------2-|
|-0-0-3-2-0-2-3-0-0-|-(0)-0-0----0-4-3-0-0-|
|-0---3-2-0-2-3-0-0-|-(0)-0-0----0-4-3-0---|


  PM--------------|      PM----|   PM|
  E E E E E S E S E    E E E E E E E E
|-------------------|-------------------|
|-------------------|--8----------------|
|-------------------|-11---------2------|
|-------------------|------------2------|
|-3-2-0-2-3-0-0-0-0-|----0-4-3-0-0-3-2--|
|-3-2-0-2-3-0-0-0-0-|----0-4-3-0---3-2--|


   Breakdown
    Q=160
    PM--------------------------------------------------------|
    s  e  s  e  s  e.  s s s e.    s s s  e.   s s s s s s s  e.
||-------------------------------|--------------------------------||
||o------------------------------|-------------------------------o||
||-------------------------------|--------------------------------||
||-------------------------------|--------------------------------||
||o-0--0--0--0--0--0---0-0-0-0---|-0-0-0--0----0-0-0-0-0-0-0--0--o||
||--0--0--0--0--0--0---0-0-0-0---|-0-0-0--0----0-0-0-0-0-0-0--0---||


  PM--------------------------------------------------------|
  s e s e  s s  s e  s e  s s    +e  s s  s e.  s s s e.  s s
|------------------------------|---------------------------------|
|------------------------------|---------------------------------|
|------------------------------|---------------------------------|
|------------------------------|---------------------------------|
|-0-0-0-0--0-0--0-0--0-0--0-0--|-(0)-0-0--0-0---0-0-0-0---0-0----|
|-0-0-0-0--0-0--0-0--0-0--0-0--|-(0)-0-0--0-0---0-0-0-0---0-0----|


  PM--------------------------------------------------------------|
  s s s s s e.  s  e    s  e  s  s   +e   s s s e.   s s s  e.  s s
|----------------------------------|------------------------------------|
|----------------------------------|------------------------------------|
|----------------------------------|------------------------------------|
|----------------------------------|------------------------------------|
|-0-0-0-0-0-0---0--0----0--0--0--0-|-(0)--0-0-0-0----0-0-0--0---0-0-----|
|-0-0-0-0-0-0---0--0----0--0--0--0-|-(0)--0-0-0-0----0-0-0--0---0-0-----|
|
| Gtr II
| H             E     E    E     E    E   E   E    E   E    E   E   E
|----------------------------------|------------------------------------|
|----------------------------------|------------------------------------|
|--------------------10----9-------|------9---7------------10-------9---|
|---------------7---------------10-|--6------------9---7--------6-------|
|----------------------------------|------------------------------------|
|----------------------------------|------------------------------------|


  PM-----------------------------------------------------------------|
  s s s s s e.    s e   s e   s  s      +e   s s s e.   s s s  e.  s s
|-----------------------------------|-------------------------------------|
|-----------------------------------|-------------------------------------|
|-----------------------------------|-------------------------------------|
|-----------------------------------|-------------------------------------|
|-0-0-0-0-0-0-----0-0---0-0---0--0--|---(0)--0-0-0-0----0-0-0--0---0-0----|
|-0-0-0-0-0-0-----0-0---0-0---0--0--|---(0)--0-0-0-0----0-0-0--0---0-0----|
|
| E   E   E     E   E   E   E    E       E   E   E    E   E    E   E   E
|-----------------------------------|-------------------------------------|
|-----------------------------------|-------------------------------------|
|-----9--------10------10---9-------|--------9---7------------10-------9--|
|-6-------7---------7-----------10--|----6------------9---7--------6------|
|-----------------------------------|-------------------------------------|
|-----------------------------------|-------------------------------------|


    PM--------------|                            PM
    s  s  s  s  s   s   E    E      E      E     E
|---------------------------------------------------|
|---------------------------------------------------|
|----------------------------------15-----14--------|
|---------------------------12----------------------|
|---0--0--0--0--0---0----------------------------0--|
|---0--0--0--0--0---0----------------------------0--|
|
| E       E       E     E                        H
|---------------------------------------------------|
|---------------------------------------------------|
|---------9-----------------------------------------|
|-6---------------7---------------------------------|
|---------------------------------------------------|
|---------------------------------------------------|


 "What have you all done"
  Gtr I
  PM               PM              PM            PM----------|
  E Q.  E   E   E  E    E   E   E  E   E   E   E S S   +S  S E E E  E  E  E  E
|--------------------|-------------------------------|-------------------------|
|--------------------|-------------------------------|-------------------------|
|----------15--14----|-----14--12---------15--14-----|----------------15----14-|
|------12------------|-11-------------12-------------|-------------12----11----|
|-0----------------0-|-------------0-------------0-0-|-(0)-0-0-0---------------|
|-0----------------0-|-------------0-------------0-0-|-(0)-0-0-0---------------|


  PM|               PM           PM
  S E Q  S  E  E  E E    E  E  E E  E  E  E  E
|---------------------|------------------------|
|---------------------|------------------------|
|-------------15-14---|----14-12------15----14-|
|----------12---------|-11---------12----11----|
|-0-0---------------0-|----------0-------------|
|-0-0---------------0-|----------0-------------|
|
| Gtr II
|           PM----------------------------------
|   H       E  E  E E    E  E  E E  E  E  E  E
|---------------------|------------------------|
|---------------------|------------------------|
|---------------------|------------------------|
|---------------------|------------------------|
|-----------5--5--5-5-|--4--4--4-4--1--1--1--1-|
|---------------------|------------------------|


  PM         PM           PM            PM
  E  E  E  E E  E  E  E   E  E  E  E  E E  E  E
|-----------------------|------------------------|
|-----------------------|------------------------|
|------15-14------14-12-|------15----14------15--|
|---12---------11-------|---12----11------12-----|
|-0----------0----------|-0-------------0--------|
|-0----------0----------|-0-------------0--------|
|
|--------------------------------------------|
| E  E  E  E E  E  E  E   E  E  E  E  E E  E  E
|-----------------------|------------------------|
|-----------------------|------------------------|
|-----------------------|------------------------|
|-----------------------|------------------------|
|-0--5--5--5-5--4--4--4-|-4--1--1--1--1-0--5--5--|
|-0---------------------|---------------0--------|


     PM           PM                PM           PM
   E E  E  E    E E  E  E      E  E E  E    E  E E  E
|--------------------------|---------------------------|
|--------------------------|---------------------------|
|-14------14---12------15--|-----14--------15-14-------|
|------11-----------12-----|--11------12-----------11--|
|----0------------0--------|--------0------------0-----|
|----0------------0--------|--------0------------0-----|
|
|    PM-------------------------------------------------
|    E  E  E E  E E  E  E      E  E E  E E  E  E E
|--------------------------|---------------------------|
|--------------------------|---------------------------|
|--------------------------|---------------------------|
|--------------------------|---------------------------|
|----5--5--4-4--4-4--1--1--|---1--1-0--5-5--5--5-4-----|
|--------------------------|--------0------------------|


                          Gtrs I, II
          PM              PM
     E  E E  E    E  E  E E
|-----------------------------|
|-----------------------------|
|---14-12--------15----14-----|
|-----------12------11--------|
|---------0---------------0---|
|---------0---------------0---|
|
|----------------|
| E  E  E E  E E  E  E
|-----------------------------|
|-----------------------------|
|-----------------------------|
|-----------------------------|
|-4--4--4-1--1-1--1-----------|
|-----------------------------|


    Gtrs I, II
    PM--|             PM------|             PM-
    E E E  E  E  E  E E   E E E  E  E  E  E E
||--------10-10-10-10---|-------12-12-12-12---|
||o-------10-10-10-10---|-------10-10-10-10---|
||---------7--7--7--7---|--------7--7--7--7---|
||----------------------|---------------------|
||o-0-0-0-------------0-|-0-0-0-------------0-|
||--0-0-0-------------0-|-0-0-0-------------0-|


 -----|             PM------|             PM|
  E E E  E  E  E  E E   E E E  E  E  E  E S S
|-------13-13-13-13---|-------15-15-15-15-----|
|-------10-10-10-10---|-------14-14-14-14-----|
|--------7--7--7--7---|-------12-12-12-12-----|
|---------------------|-----------------------|
|-0-0-0-------------0-|-0-0-0-------------8-8-|
|-0-0-0-------------0-|-0-0-0-------------8-8-|


  PM--|             PM--------|             PM-
  E E E  E  E  E  E S S   E E E  E  E  E  E E
|-------10-10-10-10-----|-------10-10-10-10---|
|-------11-11-11-11-----|-------11-11-11-11---|
|-----------------------|---------------------|
|--------8--8--8--8-----|--------8--8--8--8---|
|-8-8-8-------------8-8-|-8-8-8-------------7-|
|-8-8-8-------------8-8-|-8-8-8-------------7-|


 -----|             PM--------|                   PM
  E E E  E  E  E  E S S   E E E  S  S S S S S S S E
|--------9--9--9--9-----|----------------------------||
|-------10-10-10-10-----|-------10-10-8-8-6-6-5-5---o||
|-----------------------|----------------------------||
|--------7--7--7--7-----|----------------------------||
|-7-7-7-------------7-7-|-7-7-7-------------------0-o||
|-7-7-7-------------7-7-|-7-7-7-------------------0--||


                                          Q=2
                                          Gtr
  PM--|                                   PM
  E E E  E  E  E  +Q      +H.         +E  E
|-------10-10-10-(10)--|-(10)--------(10)---|
|-------10-10-10-(10)--|-(10)--------(10)---|
|--------7--7--7--(7)--|--(7)---------(7)---|
|----------------------|--------------------|
|-0-0-0----------------|------------------0-|
|-0-0-0----------------|------------------0-|


 00
  I
    PM  PM  PM|     PM  PM  PM|   PM
  E E E E E E E E   E E E E E E E E
|-----------------|-----------------|
|-----------------|-----------------|
|-----------------|-----------------|
|-7---8---7-----7-|---8---7-----7---|
|---0---0---0-0---|-0---0---0-0---0-|
|---0---0---0-0---|-0---0---0-0---0-|


  Gtr I
    PM  PM|   PM    PM  PM|   PM  PM    PM|   PM  PM    PM|   PM  PM  PM
  E E E E E E E E   E E E E E E E E   E E E E E E E E   E E E E E E E E
|-----------------|-----------------|-----------------|-----------------|
|-----------------|-----------------|-----------------|-----------------|
|-----------------|-----------------|-----------------|-----------------|
|-8---7-----7---8-|---7-----7---8---|-7-----7---8---7-|-----7---8---7---|
|---0---0-0---0---|-0---0-0---0---0-|---0-0---0---0---|-0-0---0---0---0-|
|---0---0-0---0---|-0---0-0---0---0-|---0-0---0---0---|-0-0---0---0---0-|
|
| Gtr II
|       W             H     E E E E   E Q   E E E E E   Q   E E E E E E
|-----------------|-----------------|-----------------|-----------------|
|-----------------|-----------------|-----------------|-----------------|
|-----------------|---------7---6---|-7-----7---6---7-|-----7---6---7---|
|-----------------|-----------------|-----------------|-----------------|
|-----------------|-----------------|-----------------|-----------------|
|-----------------|-----------------|-----------------|-----------------|


  PM  PM  PM  PM|     PM  PM  PM|     PM  PM   PM|    PM     PM  PM|    PM
  E E E E E E E E   E E E E E E E E   E E E  E E E  E E    E E E E E  E E E
|-----------------|-----------------|-------------------|-------------------|
|-----------------|-----------------|--------6------8---|--6----------------|
|-----------------|---------------9-|---7---------------|------9-----10---9-|
|---7---8---7-----|-7---8---7-------|-------------------|-------------------|
|-0---0---0---0-0-|---0---0---0-0---|-0---0----0-0----0-|----0---0-0----0---|
|-0---0---0---0-0-|---0---0---0-0---|-0---0----0-0----0-|----0---0-0----0---|
|
| E E E E E E Q     E E E E E Q   E   E E E  E Q    E E    E E E Q    E E E
|-----------------|-----------------|-------------------|-------------------|
|-----------------|---------------8-|---6---10-----11---|-10---8-----10---8-|
|---7---6---7-----|-7---6---7-------|-------------------|-------------------|
|-----------------|-----------------|-------------------|-------------------|
|-----------------|-----------------|-------------------|-------------------|
|-----------------|-----------------|-------------------|-------------------|


  PM   PM|   PM  PM    PM|   PM  PM     PM|    PM   PM  PM--|    PM  PM   PM|
  E  E E E E E E E   E E E E E E E  E   E E  E E  E E E E   E  E E E E  E E E
|------------------|------------------|-------------------|-------------------|
|---10-------------|----------------6-|------8----6-------|------------10-----|
|------------------|-------9---7------|---------------9---|---10---9----------|
|----------7---8---|-7----------------|-------------------|-------------------|
|-0----0-0---0---0-|---0-0---0---0----|-0-0----0----0---0-|-0----0---0----0-0-|
|-0----0-0---0---0-|---0-0---0---0----|-0-0----0----0---0-|-0----0---0----0-0-|
|
| E  E Q   E E E E   E Q   E E E E  E   Q    E E  E E E E   E  E E E E  E Q
|----9-------------|------------------|-------------------|-------------9-----|
|------------------|-------8---6---10-|-----11---10---8---|---10---8----------|
|----------7---6---|-7----------------|-------------------|-------------------|
|------------------|------------------|-------------------|-------------------|
|------------------|------------------|-------------------|-------------------|
|------------------|------------------|-------------------|-------------------|


    PM  PM  PM|     PM  PM   PM|    PM     PM  PM|    PM    PM   PM|   PM  PM
  E E E E E E E E   E E E  E E E  E E    E E E E E  E E E   E  E E E E E E E
|-----------------|-------------------|-------------------|------------------|
|-----------------|--------6------8---|--6----------------|---10-------------|
|---------------9-|---7---------------|------9-----10---9-|------------------|
|-7---8---7-------|-------------------|-------------------|----------7---8---|
|---0---0---0-0---|-0---0----0-0----0-|----0---0-0----0---|-0----0-0---0---0-|
|---0---0---0-0---|-0---0----0-0----0-|----0---0-0----0---|-0----0-0---0---0-|
|
| E E E E E Q   E   E E E  E Q    E E    E E E Q    E E E   E  E Q   E E E E
|-----------------|-------------------|-------------------|----9-------------|
|---------------8-|---6---10-----11---|-10---8-----10---8-|------------------|
|-7---6---7-------|-------------------|-------------------|----------7---6---|
|-----------------|-------------------|-------------------|------------------|
|-----------------|-------------------|-------------------|------------------|
|-----------------|-------------------|-------------------|------------------|


    PM|   PM  PM     PM|    PM   PM  PM-
  E E E E E E E  E   E E  E E  E E E E
|------------------|-------------------|
|----------------6-|------8----6-------|
|-------9---7------|---------------9---|
|-7----------------|-------------------|
|---0-0---0---0----|-0-0----0----0---0-|
|---0-0---0---0----|-0-0----0----0---0-|
|
| E Q   E E E E  E   Q    E E  E E E E
|------------------|-------------------|
|-------8---6---10-|-----11---10---8---|
|-7----------------|-------------------|
|------------------|-------------------|
|------------------|-------------------|
|------------------|-------------------|


             Q=160
                                       Gtr III
 -|    PM  PM
  E  E E E E  E  +Q      +H      +Q.   E
|---------------------|----------------0-|
|------------10-(10)--|-(10)----(10)---6-|
|---10---9------------|----------------9-|
|---------------------|----------------7-|
|-0----0---0----------|------------------|
|-0----0---0----------|------------------|
|
|                                      Gtr IV
| E  E E E E  E  +Q      +H      +Q.   E
|-------------9--(9)--|--(9)-----(9)-----|
|---10---8------------|------------------|
|---------------------|------------------|
|---------------------|------------------|
|---------------------|------------------|
|---------------------|------------------|


 "I am now convinced..."
  E E E E E E E E   E E E E E E E E   E E E E E E E E   E E E E  E E E  E
|-0-0-0-0-0-0-0-0-|-0-0-0-0-0-0-0-9-|-9-9-9-9-9-9-9-9-|-9-9-9-9--9-9-9--0-|
|-6-6-6-6-6-6-6-6-|-6-6-6-6-6-6-6-8-|-8-8-8-8-8-8-8-8-|-8-8-8-8--8-8-8--6-|
|-9-9-9-9-9-9-9-9-|-9-9-9-9-9-9-9-6-|-6-6-6-6-6-6-6-6-|-6-6-6-6--6-6-6--9-|
|-7-7-7-7-7-7-7-7-|-7-7-7-7-7-7-7-7-|-7-7-7-7-7-7-7-7-|-7-7-7-7--7-7-7--7-|
|-----------------|-----------------|-----------------|-------------------|
|-----------------|-----------------|-----------------|-------------------|
|
|       W                 W                 W                 H.     E  E
|-----------------|-----------------|-----------------|-------------------|
|-----------------|-----------------|-----------------|----------------10-|
|-----------------|-----------------|-----------------|----------------14-|
|-----------------|-----------------|-----------------|----------------12-|
|-----------------|-----------------|-----------------|-------------------|
|-----------------|-----------------|-----------------|-------------------|


     E  E  E  E  E  E  E  E    E  E  E  E  E  E  E  E
||---0--0--0--0--0--0--0--0-|--0--0--0--0--0--0--0--9-|
||o--6--6--6--6--6--6--6--6-|--6--6--6--6--6--6--6--8-|
||---9--9--9--9--9--9--9--9-|--9--9--9--9--9--9--9--6-|
||---7--7--7--7--7--7--7--7-|--7--7--7--7--7--7--7--7-|
||o-------------------------|-------------------------|
||--------------------------|-------------------------|
|
|    E  E  E  E  E  E  E  E    E  E  E  E  E  E  E  E
||--------------------------|-------------------------|
||o-10-10-10-10-10-10-10-10-|-10-10-10-10-10-10-10-11-|
||--14-14-14-14-14-14-14-14-|-14-14-14-14-14-14-14-14-|
||--12-12-12-12-12-12-12-12-|-12-12-12-12-12-12-12-12-|
||o-------------------------|-------------------------|
||--------------------------|-------------------------|


   E  E  E  E  E  E  E  E    E  E  E  E  E  E  E  E   4x
|--9--9--9--9--9--9--9--9-|--9--9--9--9--9--9--9--0---||
|--8--8--8--8--8--8--8--8-|--8--8--8--8--8--8--8--6--o||
|--6--6--6--6--6--6--6--6-|--6--6--6--6--6--6--6--9---||
|--7--7--7--7--7--7--7--7-|--7--7--7--7--7--7--7--7---||
|-------------------------|--------------------------o||
|-------------------------|---------------------------||
|
|  E  E  E  E  E  E  E  E    E  E  E  E  E  E  E  E   4x
|-------------------------|---------------------------||
|-11-11-11-11-11-11-11-11-|-11-11-11-11-11-11-11-10--o||
|-14-14-14-14-14-14-14-14-|-14-14-14-14-14-14-14-14---||
|-12-12-12-12-12-12-12-12-|-12-12-12-12-12-12-12-12---||
|-------------------------|--------------------------o||
|-------------------------|---------------------------||


   E  E  E  E  E  E  E  E    E  E  E  E  E  E  E  E
|--0--0--0--0--0--0--0--0-|--0--0--0--0--0--0--0--9-|
|--6--6--6--6--6--6--6--6-|--6--6--6--6--6--6--6--8-|
|--9--9--9--9--9--9--9--9-|--9--9--9--9--9--9--9--6-|
|--7--7--7--7--7--7--7--7-|--7--7--7--7--7--7--7--7-|
|-------------------------|-------------------------|
|-------------------------|-------------------------|
|
|  E  E  E  E  E  E  E  E    E  E  E  E  E  E  E  E
|-------------------------|-------------------------|
|-10-10-10-10-10-10-10-10-|-10-10-10-10-10-10-10-11-|
|-14-14-14-14-14-14-14-14-|-14-14-14-14-14-14-14-14-|
|-12-12-12-12-12-12-12-12-|-12-12-12-12-12-12-12-12-|
|-------------------------|-------------------------|
|-------------------------|-------------------------|


   E  E  E  E  E  E  E  E    E  E  E  E  E  E  E  E
|--9--9--9--9--9--9--9--9-|--9--9--9--9--9--9--9--9-|
|--8--8--8--8--8--8--8--8-|--8--8--8--8--8--8--8--8-|
|--6--6--6--6--6--6--6--6-|--6--6--6--6--6--6--6--6-|
|--7--7--7--7--7--7--7--7-|--7--7--7--7--7--7--7--7-|
|-------------------------|-------------------------|
|-------------------------|-------------------------|
|
|  E  E  E  E  E  E  E  E    E  E  E  E  E  E  E  E
|-------------------------|-------------------------|
|-11-11-11-11-11-11-11-11-|-11-11-11-11-11-11-11-11-|
|-14-14-14-14-14-14-14-14-|-14-14-14-14-14-14-14-14-|
|-12-12-12-12-12-12-12-12-|-12-12-12-12-12-12-12-12-|
|-------------------------|-------------------------|
|-------------------------|-------------------------|


                                 Gtr I
                                  PM|
  W                  H     Q.     S S
|------------|------------------------|
|------------|------------------------|
|------------|------------------------|
|------------|------------------------|
|------------|--------------------0-0-|
|------------|--------------------0-0-|
|
| W                  H     Q.     E
|------------|------------------------|
|------------|-------------------10---|
|------------|-------------------14---|
|------------|-------------------12---|
|------------|------------------------|
|------------|------------------------|


   "The stars begin to fall"
      PM----------------|     PM----------------------------------------|
      S    e.  S  S  S  S  Q  S S S  S    S  S  S   e. S S S e. S  S  S  S
||-------------------------------------|-----------------------------------|
||o------------------------------------|-----------------------------------|
||-------------------------------------|-----------------------------------|
||-------------------------------------|-----------------------------------|
||o---0----0---0--0--0--0-----0-0-0--0-|--0--0--0---0--0-0-0-0--0--0--0--0-|
||----0----0---0--0--0--0-----0-0-0--0-|--0--0--0---0--0-0-0-0--0--0--0--0-|
|
|    +E    E   E  E  E     Q         E    E  E  E   Q              E  E  E
||-------------------------------------|-----------12-------------12-12-12-|
||o-(10)--10--10-10-10----11--------11-|-11-11-11--11-------------11-11-11-|
||--(14)--14--14-14-14----14--------14-|-14-14-14--14-------------14-14-14-|
||--(12)--12--12-12-12----12--------12-|-12-12-12--12-------------12-12-12-|
||o------------------------------------|-----------------------------------|
||-------------------------------------|-----------------------------------|


         PM---------------------|
   Q     S S S S  S  S  S  e. S S        7x
|----------------------------------------||
|---------------------------------------o||
|----------------------------------------||
|----------------------------------------||
|--------0-0-0-0--0--0--0--0--0-0-------o||
|--------0-0-0-0--0--0--0--0--0-0--------||
|
|  E   Q          E  E  E  E       E     7x
|-12--12---------12-12-12-12-------------||
|-11--11---------11-11-11-11------10----o||
|-14--14---------14-14-14-14------14-----||
|-12--12---------12-12-12-12------12-----||
|---------------------------------------o||
|----------------------------------------||


    PM---------------|       PM--------
    S  e.     S S  S S  Q    S S  S S
|-------------------------------------|
|-------------------------------------|
|-------------------------------------|
|-------------------------------------|
|---0--0------0-0--0-0-------0-0--0-0-|
|---0--0------0-0--0-0-------0-0--0-0-|
|
|  +E      E  E    E    E  Q      E
|-------------------------------------|
|-(10)----10-10---10---10-11-----11---|
|-(14)----14-14---14---14-14-----14---|
|-(12)----12-12---12---12-12-----12---|
|-------------------------------------|
|-------------------------------------|


 ------------------------------------|         PM-----------------------|
   S S  S e.     S S S e.     S S  S S    Q    S S  S S  S S  S e.    S S
|--------------------------------------|------------------------------------|
|--------------------------------------|------------------------------------|
|--------------------------------------|------------------------------------|
|--------------------------------------|------------------------------------|
|--0-0--0-0------0-0-0-0------0-0--0-0-|-------0-0--0-0--0-0--0-0-----0-0---|
|--0-0--0-0------0-0-0-0------0-0--0-0-|-------0-0--0-0--0-0--0-0-----0-0---|
|
|  E    E     E  Q         E  E    E      E  Q      E    E    E     E   E
|---------------12--------12-12---12---|-12-12-----12---12---12----12-------|
|-11---11----11-11--------11-11---11---|-11-11-----11---11---11----11-------|
|-14---14----14-14--------14-14---14---|-14-14-----14---14---14----14-------|
|-12---12----12-12--------12-12---12---|-12-12-----12---12---12----12-------|
|--------------------------------------|------------------------------------|
|--------------------------------------|------------------------------------|


  Gtrs I, II
  PM---------|    PM--------------------------------|
  S e. S S S S Q  S S S S   S S S e. S S S e. S S S S
|-------------------------|---------------------------|
|-------------------------|---------------------------|
|-------------------------|---------------------------|
|-------------------------|---------------------------|
|-0-0--0-0-0-0----0-0-0-0-|-0-0-0-0--0-0-0-0--0-0-0-0-|
|-0-0--0-0-0-0----0-0-0-0-|-0-0-0-0--0-0-0-0--0-0-0-0-|


     PM-----------------|
  Q  S S S S S S S e. S S
|--------------------------|
|--------------------------|
|--------------------------|
|--------------------------|
|----0-0-0-0-0-0-0-0--0-0--|
|----0-0-0-0-0-0-0-0--0-0--|


  PM---------|    PM--------------------------------|
  S e. S S S S Q  S S S S   S S S e. S S S e. S S S S
|-------------------------|---------------------------|
|-------------------------|---------------------------|
|-------------------------|---------------------------|
|-------------------------|---------------------------|
|-0-0--0-0-0-0----0-0-0-0-|-0-0-0-0--0-0-0-0--0-0-0-0-|
|-0-0--0-0-0-0----0-0-0-0-|-0-0-0-0--0-0-0-0--0-0-0-0-|
|
|          W                           W
|-------------------------|---------------------------|
|-------------------------|---------------------------|
|-------------------------|---------------------------|
|-------------------------|---------------------------|
|-------------------------|---------------------------|
|-------------------------|---------------------------|


                       Gtr I
     PM-------------------|
  Q  S S S S S  S S e.  S S
|----------------------------|
|----------------------------|
|----------------------------|
|----------------------------|
|----0-0-0-0-0--0-0-0---0-0--|
|----0-0-0-0-0--0-0-0---0-0--|
|
|                      Gtr IV
|            H.   E     E
|----------------------------|
|----------------------10----|
|----------------------14----|
|----------------------12----|
|----------------------------|
|----------------------------|


    PM---------------|       PM--------
    S  e.     S S  S S  Q    S S  S S
|-------------------------------------|
|-------------------------------------|
|-------------------------------------|
|-------------------------------------|
|---0--0------0-0--0-0-------0-0--0-0-|
|---0--0------0-0--0-0-------0-0--0-0-|
|
|  +E      E  E    E    E  Q      E
|-------------------------------------|
|-(10)----10-10---10---10-11-----11---|
|-(14)----14-14---14---14-14-----14---|
|-(12)----12-12---12---12-12-----12---|
|-------------------------------------|
|-------------------------------------|


 ------------------------------------|         PM------------------------|
   S S  S e.     S S S e.     S S  S S    Q    S S  S S  S S  S e.     S S
|--------------------------------------|-------------------------------------|
|--------------------------------------|-------------------------------------|
|--------------------------------------|-------------------------------------|
|--------------------------------------|-------------------------------------|
|--0-0--0-0------0-0-0-0------0-0--0-0-|-------0-0--0-0--0-0--0-0------0-0---|
|--0-0--0-0------0-0-0-0------0-0--0-0-|-------0-0--0-0--0-0--0-0------0-0---|
|
|  E    E     E  Q         E  E    E      E  Q      E    E    E     E  E
|---------------12--------12-12---12---|-12-12-----12---12---12----12--------|
|-11---11----11-11--------11-11---11---|-11-11-----11---11---11----11-10-----|
|-14---14----14-14--------14-14---14---|-14-14-----14---14---14----14-14-----|
|-12---12----12-12--------12-12---12---|-12-12-----12---12---12----12-12-----|
|--------------------------------------|-------------------------------------|
|--------------------------------------|-------------------------------------|


   PM--------------|       PM--------------------------------------------|
   S e.     S S  S S  Q    S S  S S    S S  S e.     S S S e.     S S  S S
|-----------------------------------|--------------------------------------|
|-----------------------------------|--------------------------------------|
|-----------------------------------|--------------------------------------|
|-----------------------------------|--------------------------------------|
|--0-0------0-0--0-0-------0-0--0-0-|--0-0--0-0------0-0-0-0------0-0--0-0-|
|--0-0------0-0--0-0-------0-0--0-0-|--0-0--0-0------0-0-0-0------0-0--0-0-|
|
|  E     E  E    E    E  Q      E      E    E     E  Q         E  E    E
|-----------------------------------|---------------12--------12-12---12---|
|-10----10-10---10---10-11-----11---|-11---11----11-11--------11-11---11---|
|-14----14-14---14---14-14-----14---|-14---14----14-14--------14-14---14---|
|-12----12-12---12---12-12-----12---|-12---12----12-12--------12-12---12---|
|-----------------------------------|--------------------------------------|
|-----------------------------------|--------------------------------------|


        PM------------------------|
   Q    S S  S S  S S  S e.     S S
|-------------------------------------|
|-------------------------------------|
|-------------------------------------|
|-------------------------------------|
|-------0-0--0-0--0-0--0-0------0-0---|
|-------0-0--0-0--0-0--0-0------0-0---|
|
|  E  Q      E    E    E     E  E
|-12-12-----12---12---12----12--------|
|-11-11-----11---11---11----11--------|
|-14-14-----14---14---14----14--------|
|-12-12-----12---12---12----12-12-----|
|-------------------------------------|
|-------------------------------------|


     PM--------------|        PM---------------------------------------------|
     S e.     S S  S S  Q     S S  S S    S S  S e.     S S  S e.     S S  S S
||-------------------------------------|---------------------------------------|
||o------------------------------------|---------------------------------------|
||-------------------------------------|---------------------------------------|
||-------------------------------------|---------------------------------------|
||o--0-0------0-0--0-0--------0-0--0-0-|--0-0--0-0------0-0--0-0------0-0--0-0-|
||---0-0------0-0--0-0--------0-0--0-0-|--0-0--0-0------0-0--0-0------0-0--0-0-|
|
|    E     E  E    E    E  E  E    E      E    E     E  E    E     E  E    E
||-------------------------------------|--------------------12------------12---|
||o-10------------10---------11--------|------11------------------11-----------|
||--------14-----------14---------14---|------------14-------------------------|
||-----------12-----------12-----------|-12------------12------------12--------|
||o------------------------------------|---------------------------------------|
||-------------------------------------|---------------------------------------|


         PM------------------------|
   Q     S S  S S  S S  S e.     S S   3x
|--------------------------------------||
|-------------------------------------o||
|--------------------------------------||
|--------------------------------------||
|--------0-0--0-0--0-0--0-0------0-0--o||
|--------0-0--0-0--0-0--0-0------0-0---||
|
|  E  E  E    E    E    E     E  E     3x
|-------12-------------12--------------||
|-11---------11--------------11-------o||
|--------------------------------------||
|----12-----------12------------12-----||
|-------------------------------------o||
|--------------------------------------||


   PM--------------|        PM---------------------------------------------|
   S e.     S S  S S  Q     S S  S S    S S  S e.     S S  S e.     S S  S S
|------------------------------------|---------------------------------------|
|------------------------------------|---------------------------------------|
|------------------------------------|---------------------------------------|
|------------------------------------|---------------------------------------|
|--0-0------0-0--0-0--------0-0--0-0-|--0-0--0-0------0-0--0-0------0-0--0-0-|
|--0-0------0-0--0-0--------0-0--0-0-|--0-0--0-0------0-0--0-0------0-0--0-0-|
|
|  E     E  E    E    E  E  E    E      E    E     E  E    E     E  E    E
|------------------------------------|--------------------12------------12---|
|-10------------10---------11--------|------11------------------11-----------|
|-------14-----------14---------14---|------------14-------------------------|
|----------12-----------12-----------|-12------------12------------12--------|
|------------------------------------|---------------------------------------|
|------------------------------------|---------------------------------------|


         PM-----------------------|
   Q     S S  S S  S S  S e.    S S
|-------------------------------------|
|-------------------------------------|
|-------------------------------------|
|-------------------------------------|
|--------0-0--0-0--0-0--0-0-----0-0---|
|--------0-0--0-0--0-0--0-0-----0-0---|
|
|  E  E  E    E    E    E     E E
|-------12-------------12-------------|
|-11---------11--------------11-------|
|-------------------------------------|
|----12-----------12------------------|
|-------------------------------------|
|-------------------------------------|


    Gtrs I, II
    PM---------|    PM-------
    S e. S S S S Q  S S S S
||--------------------------|
||o-------------------------|
||--------------------------|
||--------------------------|
||o-0-0--0-0-0-0----0-0-0-0-|
||--0-0--0-0-0-0----0-0-0-0-|


 -------------------------|      PM-----------------|
  S S S e. S S S e. S S S S   Q  S S S S S S S e. S S  3x
|---------------------------|--------------------------||
|---------------------------|-------------------------o||
|---------------------------|--------------------------||
|---------------------------|--------------------------||
|-0-0-0-0--0-0-0-0--0-0-0-0-|----0-0-0-0-0-0-0-0--0-0-o||
|-0-0-0-0--0-0-0-0--0-0-0-0-|----0-0-0-0-0-0-0-0--0-0--||


  PM---------|    PM-------
  S e. S S S S Q  S S S S
|-------------------------|
|-------------------------|
|-------------------------|
|-------------------------|
|-0-0--0-0-0-0----0-0-0-0-|
|-0-0--0-0-0-0----0-0-0-0-|


 -------------------------|      PM---------------|
  S S S e. S S S e. S S S S   Q  S S S S S S S e. E
|---------------------------|-------------------------|
|---------------------------|-------------------------|
|---------------------------|-------------------------|
|---------------------------|-------------------------|
|-0-0-0-0--0-0-0-0--0-0-0-0-|----0-0-0-0-0-0-0-0--0---|
|-0-0-0-0--0-0-0-0--0-0-0-0-|----0-0-0-0-0-0-0-0--0---|


  H  E Q.     +W           +W           +W
|-----------|------------|------------|--------*|
|-----------|------------|------------|--------*|
|-----------|------------|------------|--------*|
|------0----|-(0)--------|-(0)--------|-(0)----*|
|------0----|-(0)--------|-(0)--------|-(0)----*|
|------0----|-(0)--------|-(0)--------|-(0)----*|

PRIDE AND HUMILITY
As recorded by August Burns Red
(From the 2007 Album THIS IS SOLID STATE VOLUME 6)

Transcribed by Chris Allan
All guitars in Drop C tuning - CGCFAD

For those without powertab...enjoy. This song is awesome.

Words and Music by ABR
Arranged by ABR

 Intro
  Q=146
  D5         N.C.          D5         N.C.
 4/4
  Gtrs I, II
     PM----|                  PM---------------------|
|------------------------|---------------------------|
|------------------------|---------------------------|
|------------------9h10--|------------------9h10-9---|
|----------------7-------|----------------7----------|
|-12-0-0-0-0-7h8---------|-12-0-0-0-0-7h8------------|
|-12-0-0-0-0-------------|-12-0-0-0-0----------------|


  D5                                   N.C.
                                                     2/4
     PM------------------------------------------------------------------|
|--------------------------|------------------------|--------------------|
|--------------------------|------------------------|-8h10---------------|
|--------------------------|-----------------9h10-9-|------9h10-----10---|
|--------------------------|---------------7--------|-----------7h8------|
|-12-0-0-0-0-0-0-0-0-0-0-0-|-0-0-0-0-0-7h8----------|--------------------|
|-12-0-0-0-0-0-0-0-0-0-0-0-|-0-0-0-0-0--------------|--------------------|


  Bb5
 4/4
|-------------------------------------------------|
|-------------------------------------------------|
|-------------------------------------------------|
|--8--8--8--8--8--8--8--8--8--8--8--8--8--8--8--8-|
|--8--8--8--8--8--8--8--8--8--8--8--8--8--8--8--8-|
|--8--8--8--8--8--8--8--8--8--8--8--8--8--8--8--8-|
|
| Gtr III
|-------------------------------------------------|
|-------------------------------------------------|
|-10-10-10-10-10-10-10-10-10-10-10-10-10-10-10-10-|
|--x--x--x--x--x--x--x--x--x--x--x--x--x--x--x--x-|
|--8--8--8--8--8--8--8--8--8--8--8--8--8--8--8--8-|
|-------------------------------------------------|


  C5
|--------------------------------------------------|
|--------------------------------------------------|
|--------------------------------------------------|
|-10-10-10-10-10-10-10-10-10-10-10-10-10-10-10-10--|
|-10-10-10-10-10-10-10-10-10-10-10-10-10-10-10-10--|
|-10-10-10-10-10-10-10-10-10-10-10-10-10-10-10-10--|
|
|--------------------------------------------------|
|--------------------------------------------------|
|-14-14-14-14-14-14-14-14-14-14-14-14-14-14-14-14--|
|--x--x--x--x--x--x--x--x--x--x--x--x--x--x--x--x--|
|-12-12-12-12-12-12-12-12-12-12-12-12-12-12-12-12--|
|--------------------------------------------------|


  D5                      N.C.
         PM-----------------------------------------|
|---------------------------------------------------|
|---------------------------------------------------|
|-----------------------------------9h10------------|
|--------------------------------7------------------|
|-12-----0--0-----0--0-----7h=8---------------------|
|-12-----0--0-----0--0------------------------------|
|
|-------------------------------------------------|
|-------------------------------------------------|
|-10-10-10-10-10-10-10-10-10-10-10-10-10-10-10-10-|
|--x--x--x--x--x--x--x--x--x--x--x--x--x--x--x--x-|
|--8--8--8--8--8--8--8--8--8--8--8--8--8--8--8--8-|
|-------------------------------------------------|


  D5                      N.C.
         PM-----------------------------------------|
|---------------------------------------------------|
|---------------------------------------------------|
|-----------------------------------9h10-----9------|
|--------------------------------7------------------|
|-12-----0--0-----0--0-----7h=8---------------------|
|-12-----0--0-----0--0------------------------------|
|
|-------------------------------------------------|
|-------------------------------------------------|
|-14-14-14-14-14-14-14-14-14-14-14-14-14-14-14-14-|
|--x--x--x--x--x--x--x--x--x--x--x--x--x--x--x--x-|
|-12-12-12-12-12-12-12-12-12-12-12-12-12-12-12-12-|
|-------------------------------------------------|


  D5                                   N.C.
                                                     2/4
     PM------------------------------------------------------------------|
|--------------------------|------------------------|--------------------|
|--------------------------|------------------------|-8h10---------------|
|--------------------------|-----------------9h10-9-|------9h10-----10---|
|--------------------------|---------------7--------|-----------7h8------|
|-12-0-0-0-0-0-0-0-0-0-0-0-|-0-0-0-0-0-7h8----------|--------------------|
|-12-0-0-0-0-0-0-0-0-0-0-0-|-0-0-0-0-0--------------|--------------------|


  Bb5
 4/4
|-------------------------------------------------|
|-------------------------------------------------|
|-------------------------------------------------|
|--8--8--8--8--8--8--8--8--8--8--8--8--8--8--8--8-|
|--8--8--8--8--8--8--8--8--8--8--8--8--8--8--8--8-|
|--8--8--8--8--8--8--8--8--8--8--8--8--8--8--8--8-|
|
| Gtr III
|-------------------------------------------------|
|-------------------------------------------------|
|-10-10-10-10-10-10-10-10-10-10-10-10-10-10-10-10-|
|--x--x--x--x--x--x--x--x--x--x--x--x--x--x--x--x-|
|--8--8--8--8--8--8--8--8--8--8--8--8--8--8--8--8-|
|-------------------------------------------------|


  C5
|--------------------------------------------------|
|--------------------------------------------------|
|--------------------------------------------------|
|-10-10-10-10-10-10-10-10-10-10-10-10-10-10-10-10--|
|-10-10-10-10-10-10-10-10-10-10-10-10-10-10-10-10--|
|-10-10-10-10-10-10-10-10-10-10-10-10-10-10-10-10--|
|
|--------------------------------------------------|
|--------------------------------------------------|
|-14-14-14-14-14-14-14-14-14-14-14-14-14-14-14-14--|
|--x--x--x--x--x--x--x--x--x--x--x--x--x--x--x--x--|
|-12-12-12-12-12-12-12-12-12-12-12-12-12-12-12-12--|
|--------------------------------------------------|


  D5
|-------------------------------------------------|
|-------------------------------------------------|
|-------------------------------------------------|
|-12-12-12-12-12-12-12-12-12-12-12-12-12-12-12-12-|
|-12-12-12-12-12-12-12-12-12-12-12-12-12-12-12-12-|
|-12-12-12-12-12-12-12-12-12-12-12-12-12-12-12-12-|
|
|-------------------------------------------------|
|-------------------------------------------------|
|-10-10-10-10-10-10-10-10-10-10-10-10-10-10-10-10-|
|--x--x--x--x--x--x--x--x--x--x--x--x--x--x--x--x-|
|--8--8--8--8--8--8--8--8--8--8--8--8--8--8--8--8-|
|-------------------------------------------------|


  N.C.
         PM          PM          PM          PM
|-------------------------------------------------|
|-------------------------------------------------|
|-10-----------9-----------7-----------5----------|
|--x-----------x-----------x-----------x----------|
|--8-----0-----7-----0-----5-----0-----3-----0----|
|--------0-----------0-----------0-----------0----|
|
|-------------------------------------------------|
|-------------------------------------------------|
|-14-14-14-14-14-14-14-14-14-14-14-14-14-14-14-14-|
|--x--x--x--x--x--x--x--x--x--x--x--x--x--x--x--x-|
|-12-12-12-12-12-12-12-12-12-12-12-12-12-12-12-12-|
|-------------------------------------------------|


  Bb5
|-------------------------------------------------|
|-------------------------------------------------|
|-------------------------------------------------|
|--8--8--8--8--8--8--8--8--8--8--8--8--8--8--8--8-|
|--8--8--8--8--8--8--8--8--8--8--8--8--8--8--8--8-|
|--8--8--8--8--8--8--8--8--8--8--8--8--8--8--8--8-|
|
|-------------------------------------------------|
|-------------------------------------------------|
|-10-10-10-10-10-10-10-10-10-10-10-10-10-10-10-10-|
|--x--x--x--x--x--x--x--x--x--x--x--x--x--x--x--x-|
|--8--8--8--8--8--8--8--8--8--8--8--8--8--8--8--8-|
|-------------------------------------------------|


  C5
   PM-----------------------------------------------|
|---------------------------------------------------|
|---------------------------------------------------|
|---------------------------------------------------|
|---------------------------------------------------|
|-10----10----10----10----10----10----10----10------|
|-10----10----10----10----10----10----10----10------|
|
|-------------------------------------------------|
|-------------------------------------------------|
|-14-14-14-14-14-14-14-14-14-14-14-14-14-14-14-14-|
|--x--x--x--x--x--x--x--x--x--x--x--x--x--x--x--x-|
|-12-12-12-12-12-12-12-12-12-12-12-12-12-12-12-12-|
|-------------------------------------------------|


  D5                      N.C.
         PM-----------------------------------------|
|---------------------------------------------------|
|---------------------------------------------------|
|-----------------------------------9h10------------|
|--------------------------------7------------------|
|-12-----0--0-----0--0-----7h=8---------------------|
|-12-----0--0-----0--0------------------------------|
|
|-------------------------------------------------|
|-------------------------------------------------|
|-10-10-10-10-10-10-10-10-10-10-10-10-10-10-10-10-|
|--x--x--x--x--x--x--x--x--x--x--x--x--x--x--x--x-|
|--8--8--8--8--8--8--8--8--8--8--8--8--8--8--8--8-|
|-------------------------------------------------|


  D5                      N.C.
         PM-----------------------------------------|
|---------------------------------------------------|
|---------------------------------------------------|
|-----------------------------------9h10-----9------|
|--------------------------------7------------------|
|-12-----0--0-----0--0-----7h=8---------------------|
|-12-----0--0-----0--0------------------------------|
|
|-------------------------------------------------|
|-------------------------------------------------|
|-10-10-10-10-10-10-10-10-10-10-10-10-10-10-10-10-|
|--x--x--x--x--x--x--x--x--x--x--x--x--x--x--x--x-|
|--8--8--8--8--8--8--8--8--8--8--8--8--8--8--8--8-|
|-------------------------------------------------|


  D5                                   N.C.
                                                     2/4
     PM------------------------------------------------------------------|
|--------------------------|------------------------|--------------------|
|--------------------------|------------------------|-8h10---------------|
|--------------------------|-----------------9h10-9-|------9h10-----10---|
|--------------------------|---------------7--------|-----------7h8------|
|-12-0-0-0-0-0-0-0-0-0-0-0-|-0-0-0-0-0-7h8----------|--------------------|
|-12-0-0-0-0-0-0-0-0-0-0-0-|-0-0-0-0-0--------------|--------------------|


  Q=180
  Bb5                        G5           A5
 3/4
     PM------------------|      PM----|      PM---------|
|------------|-------------|------------|---------------|
|------------|-------------|------------|---------------|
|------------|-------------|------------|---------------|
|-8----------|-------------|-5----------|-7-------------|
|-8--8-8-8-8-|-8-8-8-8-8-8-|-5--5-5-5-5-|-7--7-7-7-7----|
|-8--8-8-8-8-|-8-8-8-8-8-8-|-5--5-5-5-5-|-7--7-7-7-7----|


  Q=140
  D5
 4/4                 3/4
  Gtr I
      PM|       PM|              PM          PM        PM
|-------------------|------------------------------------|
|-------------------|------------------------------------|
|-------------------|------------------------------------|
|---------8p7p5-----|-10--(10)s8-------------------------|
|-8-7-0-0-------0-0-|------------0-10-(10)s8-0-7-(7)s8-0-|
|-----0-0-------0-0-|------------0-----------0---------0-|
|
| Gtr II
|-------------------|------------------------------------|
|-------------------|------------------------------------|
|-------------------|------------------------------------|
|-0-----------------|-(0)--------------------------------|
|-0-----------------|-(0)--------------------------------|
|-0-----------------|-(0)--------------------------------|


    N.C.D5  N.C.  D5    N.C.      D5N.C.      D5N.C.    D5
   4/4                 3/4
    Gtrs I, II
        PM|       PM|             PM          PM        PM
                                                           3x
||--------------------|------------------------------------||
||o-------------------|-----------------------------------o||
||--------------------|------------------------------------||
||----------8p7p5-----|-10-(10)s8--------------------------||
||o-8-7-0-0-------0-0-|-----------0-10-(10)s8-0-7-(7)s8-0-o||
||------0-0-------0-0-|-----------0-----------0---------0--||


    N.C.    D5  N.C.          D5  N.C.      D5
            PM|               PM|           PM|
                                                 3x
||-----------------------|-----------------------||
||o----------------------|----------------------o||
||--7-7-7-7-----14-14-14-|-14-----9-9-10-10------||
||--x-x-x-x------x--x--x-|--x-----x-x--x--x------||
||o-5-5-5-5-0-0-12-12-12-|-12-0-0-7-7--8--8-0-0-o||
||----------0-0----------|----0-0-----------0-0--||


    N.C.      D5  F5             D5  G5     F5
    Gtr I
              PM|                PM|
                                                    3x
||-------------------------|------------------------||
||o------------------------|-----------------------o||
||--14---14----------------|------------------------||
||---x----x--------3-----3-|-(3)-----5----5--3---3--||
||o-12---12---0-0--3-----3-|-(3)-0-0-5----5--3---3-o||
||------------0-0--3-----3-|-(3)-0-0-5----5--3---3--||
|
|   Gtr II
|             PM|                PM|           PM|
|                                                   3x
||-------------------------|------------------------||
||o------------------------|-----------------------o||
||---7-7--7-7-----14-14-14-|-14------9-9-10-10------||
||---x-x--x-x------x--x--x-|--x------x-x--x--x------||
||o--5-5--5-5-0-0-12-12-12-|-12--0-0-7-7--8--8-0-0-o||
||------------0-0----------|-----0-0-----------0-0--||


    N.C.  D5  N.C.  D5    N.C.         F5  G5
   4/4
    Gtrs I, II
          PM|       PM|
                                               4x
||----------------------|----------------------||
||o---------------------|---------------------o||
||----------------------|-------10-9-7---------||
||--7h8p0-----7h8p0-----|-----7--------3-3-5---||
||o-------0-0-------0-0-|-7h8----------3-3-5--o||
||--------0-0-------0-0-|--------------3-3-5---||


   "Please do yourself a..."
    D5                      Bb5
    Gtr I
||------------------------|-------------------------|
||o-----------------------|-------11-10-------11-10-|
||--7-7-7-10-9-7-7-7-10-9-|-------------------------|
||------------------------|-8-8-8-------8-8-8-------|
||o-----------------------|-------------------------|
||------------------------|-------------------------|
|
|   Gtr II
||------------------------|-------------------------|
||o-----------------------|-------------------------|
||------------------------|-------------------------|
||--0---------------------|-8-----------------------|
||o-0---------------------|-8-----------------------|
||--0---------------------|-8-----------------------|


  F5                      C/E
                                               4x
|-----------------------|----------------------||
|-----------------------|---------------------o||
|-------9-10-------9-10-|----------------------||
|-----------------------|-------------8-7-5----||
|-8-8-8------8-8-8------|-8-12-10-8-7---------o||
|-----------------------|----------------------||
|
|                                              4x
|-----------------------|----------------------||
|-----------------------|---------------------o||
|-----------------------|----------------------||
|-3---------------------|----------------------||
|-3---------------------|-3-------------------o||
|-3---------------------|-2--------------------||


  Q=146
  D5   N.C.          D5   N.C.
  Gtrs I, II
|------------------|-------------------|
|------------------|-------------------|
|------------9h10--|------------9h10-9-|
|-0--------7-------|-0--------7--------|
|-0----7h8---------|-0----7h8----------|
|-0----------------|-0-----------------|


  D5   N.C.                            Bb5C5
|-------------------|-------------------------||
|-------------------|-8h10--------------------||
|------------9h10-9-|------9h10-----10--------||
|-0--------7--------|-----------7h8----8--10--||
|-0----7h8----------|------------------8--10--||
|-0-----------------|------------------8--10--||


 "Arrogance has never..."
  D5                                         N.C.
  PM----------|  PM------|    PM---------------------------|
|---------------------------|------------------------------|
|---------------------------|------------------------------|
|---------------------------|----------------------9h10----|
|---------------------------|--------------------7---------|
|-0-0-0-0-0-0-0--0-0-0-0-0--|-0-0-0-0-0-0-0--7h8-----------|
|-0-0-0-0-0-0-0--0-0-0-0-0--|-0-0-0-0-0-0-0----------------|


  D5                                         N.C.
  PM----------|  PM------|    PM----------------------------|
|---------------------------|-------------------------------|
|---------------------------|-------------------------------|
|---------------------------|----------------------9h10-9---|
|---------------------------|--------------------7----------|
|-0-0-0-0-0-0-0--0-0-0-0-0--|-0-0-0-0-0-0-0--7h8------------|
|-0-0-0-0-0-0-0--0-0-0-0-0--|-0-0-0-0-0-0-0-----------------|


  D5                                         N.C.
  Gtr I
  PM----------|  PM------|    PM----------------------------|
|---------------------------|-------------------------------|
|---------------------------|-------------------------------|
|---------------------------|----------------------9h10-9---|
|---------------------------|--------------------7----------|
|-0-0-0-0-0-0-0--0-0-0-0-0--|-0-0-0-0-0-0-0--7h8------------|
|-0-0-0-0-0-0-0--0-0-0-0-0--|-0-0-0-0-0-0-0-----------------|
|
| Gtr II
| PM----------|  PM------|    PM----------------------------|
|---------------------------|-------------------------------|
|---------------------------|------------------------10-8---|
|---------------------------|----------------------9--------|
|---------------------------|--------------------7----------|
|-0-0-0-0-0-0-0--0-0-0-0-0--|-0-0-0-0-0-0-0--7h8------------|
|-0-0-0-0-0-0-0--0-0-0-0-0--|-0-0-0-0-0-0-0-----------------|


  D5                          N.C.             Bb5C5
  Gtrs I, II
  PM----------|  PM-------------------------------------|
|---------------------------|---------------------------|
|---------------------------|-8h10----------------------|
|---------------------------|------9h10-----10----------|
|---------------------------|-----------7h8----8--10----|
|-0-0-0-0-0-0-0--0-0-0-0-0--|------------------8--10----|
|-0-0-0-0-0-0-0--0-0-0-0-0--|------------------8--10----|


  D5                        N.C.
  PM--------------------------------------|
|-----------------|-----------------------|
|-----------------|-----------------------|
|-----------------|---------------9h10----|
|-0-------0-------|-0-----------7---------|
|-0-0-0-0-0-0-0-0-|-0-0-0-0-7h8-----------|
|-0-0-0-0-0-0-0-0-|-0-0-0-0---------------|


  D5                        N.C.
  PM---------------------------------------|
|-----------------|------------------------|
|-----------------|------------------------|
|-----------------|---------------9h10-9---|
|-0-------0-------|-0-----------7----------|
|-0-0-0-0-0-0-0-0-|-0-0-0-0-7h8------------|
|-0-0-0-0-0-0-0-0-|-0-0-0-0----------------|


  D5                           N.C.
  Gtr I
     PM--|    PM--|      PM-------------------|
|-------------------|-------------------------|
|-------------------|-------------------------|
|-------------------|----------------9h10-9---|
|-------------------|--------------7----------|
|-12-0-0-0-12-0-0-0-|-12-0-0-0-7h8------------|
|-12-0-0-0-12-0-0-0-|-12-0-0-0----------------|
|
| Gtr II
|    PM--|    PM--|      PM-------------------|
|-------------------|-------------------------|
|-------------------|------------------10-8---|
|-------------------|----------------9--------|
|-------------------|--------------7----------|
|-12-0-0-0-12-0-0-0-|-12-0-0-0-7h8------------|
|-12-0-0-0-12-0-0-0-|-12-0-0-0----------------|


                                     Q=128
  D5                N.C.             Bb5C5
  Gtrs I, II
  PM-------------------------------------------|
|-----------------|----------------------------|
|-----------------|-8h10-----------------------|
|-----------------|------9h10-----10-----------|
|-----------------|-----------7h8----8--10-----|
|-0-0-0-0-0-0-0-0-|------------------8--10-----|
|-0-0-0-0-0-0-0-0-|------------------8--10-----|


   Outro Breakdown
    D5
    PM--------------------------------------|
||-------------------|----------------------|
||o------------------|----------------------|
||-------------------|----------------------|
||-------------------|----------------------|
||o-0-0-0-0--0-0-0-0-|--0-0-0-0-0-0-0-0-0---|
||--0-0-0-0--0-0-0-0-|--0-0-0-0-0-0-0-0-0---|


  D5                 Bb5D5Bb5D5N.C.
  PM-------------------------------------|      PM   PM
|------------------|---------------------|
|------------------|-----------------o---|
|------------------|---------------------|
|------------------|-8----8----[10]------|
|-0-0-0-0--0-0-0-0-|-8--0-8--0-------o---|
|-0-0-0-0--0-0-0-0-|-8--0-8--0-----------|


  N.C.        D5
              PM
|-----------|--------*|
|-----------|--------*|
|-x\--------|--------*|
|-x\--------|--------*|
|-----------|-0------*|
|-----------|-0------*|
comments
We did not receive enough feedback on this tab! Please rate:
print report bad tab
1 2 3 4 5
I want to post or [tab]
guest
You may want to rate the tab now too:
select rating
Please do not post tabs as comments. Select "correction" instead!