Oops, an error
Loading. Please wait.

La Catedral 1st Movement Tab

7,572 views 99 this week
2 commentsread comments
1 2 3 4 5
excellent!
x 2
add to favorites launch autoscroll
font size
0
reset
Autoscroll
+/-
esc
set tempo
stop
Contributor
Tabbers playing skills
advanced
WARNING: You are trying to view
                                    content from Ultimate-Guitar.com
                                    in an unauthorized application,
                                    which is prohibited.

                                    Please use an official Ultimate
                                    Guitar Tabs application for iPhone,
                                    iPad or Android to access legitimate
                                    chords, guitar, bass, and drum tabs
                                    from Ultimate-Guitar.com database.

                                    Type "ultimate guitar tabs" in Apple
                                    App Store's or Android Market's
                                    search to find the application.
E-|---Song:-La-Catedral(preludio-saudade)----------|
A-|---Composer:-Augustin-Barrios-Mangore-----------|
D-|---Transcription-by:Christian Liang-------------|
G-|---E-Mail:christian.liang@gmail.com-------------|   
B-|---http://www.classclef.com---------------------|
E-|---Enjoy!---------------------------------------|


La-Catedral(preludio saudade) by Augustín Barrios(1885-1944)

B Minor, Time signature: 2/4. 48 Bars. Lento(Slow)

[1]

E|--14----------------14----|--14----------------14----|
B|-----0-----------0-----0--|-----0-----------0-----0--|
G|--------11----11----------|--------12----12----------|
D|-----------12-------------|-----------11-------------|
A|--------------------------|--------------------------|
E|--------------------------|--------------------------|
 |  |  |  |  |  |  |  |  |  |  |  |  |  |  |  |  |  |  |  

R   a  m  i  p  i  m  a  m     a  m  i  p  i  m  a  m     
L   4     1  2  1     4        4     2  1  2     4        

[3]

E|--12----------------12----|--15----------------15----|
B|-----0-----------0-----0--|-----0-----------0-----0--|
G|--------12----12----------|--------12----12----------|
D|-----------11-------------|-----------11-------------|
A|--------------------------|--------------------------|
E|--------------------------|--------------------------|
 |  |  |  |  |  |  |  |  |  |  |  |  |  |  |  |  |  |  |
R   a  m  i  p  i  m  a  m     a  m  i  p  i  m  a  m
L   3     2  1  2     3        4     2  1  2     4

[5]

E|--14----------------14----|--14----------------14----|
B|-----0-----------0-----0--|-----0-----------0-----0--|
G|--------11----11----------|--------12----12----------|
D|-----------12-------------|-----------12-------------|
A|--------------------------|--------------------------|
E|--------------------------|--------------------------|
 |  |  |  |  |  |  |  |  |  |  |  |  |  |  |  |  |  |  |  
R   a  m  i  p  i  m  a  m     a  m  i  p  i  m  a  m    
L   4     1  2  `     4        4     2  1  2     4       

[7]

E|--12----------------12----|--14----------------14----|
B|-----0-----------0-----0--|--------------------------|
G|--------13----13----------|--------12----12----------|
D|-----------12-------------|-----------11-------------|
A|--------------------------|-----12----------12----12-|
E|--------------------------|--------------------------|
 |  |  |  |  |  |  |  |  |  |  |  |  |  |  |  |  |  |  |
R   a  m  i  p  i  m  a  m     a  p  m  i  m  p  a  p
L   2     3  1  3     2        4  2  3  1  3  2  4  2

[9]  VII....................

E|--10----------------10----|--12----------------12----|
B|--------7-----7-----------|--------------------------|
G|-----------7--------------|--------12----12----------|
D|-----7-----------7-----7--|-----------11-------------|
A|--------------------------|-----12----------12----12-|
E|--------------------------|--------------------------|
 |  |  |  |  |  |  |  |  |  |  |  |  |  |  |  |  |  |  | 
R   a  p  m  i  m  p  a  p     a  p  m  i  m  p  a  p     
L   4  1  1  1  1  1  4  1     4  2  3  1  3  2  4  2     

[11]

E|--14----------------14----|--10----------------10----|
B|--------------------------|-----0-----------0-----0--|
G|--------12----12----------|--------11----11----------|
D|-----------11-------------|-----------12-------------|
A|-----13----------13----13-|--------------------------|
E|--------------------------|--------------------------|
 |  |  |  |  |  |  |  |  |  |  |  |  |  |  |  |  |  |  
R   a  p  m  i  m  p  a  p     a  m  i  p  i  m  a  m 
L   4  3  2  1  2  3  4  3     1     2  3  2     1

[13]

E|--10----------------10----|--9-----------------9-----|
B|-----------0--------------|-----------0--------------|
G|--------11----11----------|--------10----10----------|
D|-----0-----------0-----0--|--------------------------|
A|--------------------------|-----11----------11----11-|
E|--------------------------|--------------------------|
 |  |  |  |  |  |  |  |  |  |  |  |  |  |  |  |  |  |  |  
R   a  p  i  m  i  p  a  p     a  p  i  m  i  p  a  p    
L   1     2     2     1        1  3  2     2  3  1  3     

[15]

E|--9-----------------9-----|--9-----------------9-----|
B|-----------0--------------|--------7-----7-----------|
G|--------10----10----------|--------------------------|
D|--------------------------|-----------8--------------|
A|-----10----------10---10--|-----9-----------9-----9--|
E|--------------------------|--------------------------|
 |  |  |  |  |  |  |  |  |  |  |  |  |  |  |  |  |  |  |
R   a  p  i  m  i  p  a  p     a  p  m  p  m  p  a  p 
L   1  3  2     2  3  1  3     4  3  1  2  1  3  4  3 

[17]VII.....................                              

E|--10----------------10----|--9-----------------9-----|
G|--------8-----8-----------|--------9-----9-----------|
B|--------------------------|--------------------------|
D|-----------9--------------|-----------9--------------|
A|-----7-----------7-----7--|-----8-----------8-----8--|
E|--------------------------|--------------------------|
 |  |  |  |  |  |  |  |  |  |  |  |  |  |  |  |  |  |  |
R   a  p  m  p  m  p  a  p     a  p  m  p  m  p  a  p   
L   4  1  2  3  2  1  4  1     4  1  3  2  3  1  4  1     

[19]IX......................

E|--9-----------------9-----|--14----------------14----|
B|--------9-----9-----------|--------------------------|
G|-----------10-------------|--------11----11----------|
D|-----9-----------9-----9--|-----------11-------------|
A|--------------------------|-----13----------13----13-|
E|--------------------------|--------------------------|
 |  |  |  |  |  |  |  |  |  |  |  |  |  |  |  |  |  |  |  
R   a  p  m  i  m  p  a  p     a  p  m  i  m  p  a  p
L   1  1  1  2  1  1  1  1     4  3  2  1  2  3  4  3

[21]

E|--14----------------14----|--14----------------14----|
B|-----0-----------0-----0--|-----0-----------0-----0--|
G|--------11----11----------|--------12----12----------|
D|-----------12-------------|-----------11-------------|
A|--------------------------|--------------------------|
E|--------------------------|--------------------------|
 |  |  |  |  |  |  |  |  |  |  |  |  |  |  |  |  |  |  | 
R   a  m  i  p  i  m  a  m     a  m  i  p  i  m  a  m    
L   4     1  2  1     4        4     2  1  2     4      

[23]

E|--12----------------12----|--15----------------15----|
B|-----0-----------0-----0--|-----0-----------0-----0--|
G|--------12----12----------|--------12----12----------|
D|-----------11-------------|-----------11-------------|
A|--------------------------|--------------------------|
E|--------------------------|--------------------------|
 |  |  |  |  |  |  |  |  |  |  |  |  |  |  |  |  |  |  | 
R   a  m  i  p  i  m  a  m     a  m  i  p  i  m  a  m
L   3     2  1  2     3        4     2  1  2     4

[25]

E|--14----------------14----|--14----------------14----|
B|-----0-----------0-----0--|--------------------------|
G|--------11----11----------|--------11----11----------|
D|-----------12-------------|-----------11-------------|
A|--------------------------|-----12----------12----12-|
E|--------------------------|--------------------------|
 |  |  |  |  |  |  |  |  |  |  |  |  |  |  |  |  |  |  |  
R   a  m  i  p  i  m  a  m     a  p  m  i  m  p  a  p     
L   4     1  2  1     4        4  3  2  1  2  3  4  3     

[27]

E|--14----------------12----|--10---------------10-----|
B|-----------0--------------|--------------------------|
G|--------11----11----------|--------9-----9-----------|
D|--------------------------|-----------8--------------|
A|-----10----------10----10-|-----10----------10----10-|
E|--------------------------|--------------------------|
 |  |  |  |  |  |  |  |  |  |  |  |  |  |  |  |  |  |  |
R   a  p  i  m  i  p  a  p     a  p  m  i  m  p  a  p
L   4  1  2     2  1  4  1     4  3  2  1  2  3  4  3

[29]                           V.......................

E|--10----------------9-----|--7-----------------7-----|
B|--------------------------|--------------------------|
G|-----------0--------------|--------4-----4-----------|
D|--------8-----8-----------|-----------4--------------|
A|-----7-----------7-----7--|-----5-----------5-----5--|
E|--------------------------|--------------------------|
 |  |  |  |  |  |  |  |  |  |  |  |  |  |  |  |  |  |  | 
R   a  p  i  m  i  p  a  p     a  p  m  i  m  p  a  p  
L   4  1  2     2  1  4  1     4  2  1  1  1  2  4  2    

[31]

E|--7-----------------7-----|--3-----------------3-----|
B|--------------------------|--------0-----0-----------|
G|--------5-----5-----------|-----------0--------------|
D|-----------4--------------|-----2-----------2-----2--|
A|-----6-----------6-----6--|--------------------------|
E|--------------------------|--------------------------|
 |  |  |  |  |  |  |  |  |  |  |  |  |  |  |  |  |  |  
R   a  p  m  i  m  p  a  p     a  p  m  i  m  p  a  p
L   4  3  2  1  2  1  4  1     4  2           2  4  2

[33]

E|--0-----------------0-----|--7-----------------7-----|
B|-----0-----------0-----0--|-----------0--------------|
G|--------12----12----------|--------7-----7-----------|
D|-----------12-------------|-----5-----------5-----5--|
A|--------------------------|--------------------------|
E|--------------------------|--------------------------|
 |  |  |  |  |  |  |  |  |  |  |  |  |  |  |  |  |  |  |    
R   a  m  i  p  i  m  a  m     a  p  i  m  i  p  a  p     
L         3  2  3              4  1  3     3  1  4  1        

[35]

E|--0-----------------0-----|--7-----------------7-----|
B|-----0-----------0-----0--|-----------0--------------|
G|--------12----12----------|--------7-----7-----------|
D|-----------12-------------|-----4-----------4-----4--|
A|--------------------------|--------------------------|
E|--------------------------|--------------------------|
 |  |  |  |  |  |  |  |  |  |  |  |  |  |  |  |  |  |  |
R   a  m  i  p  i  m  a  m     a  p  i  m  i  p  a  p
L   3  2  3              4  1  3     3  1  4  1

[37]                          IV......................

E|--0-----------------0-----|--------------------------|
B|-----------0--------------|--7-----------------7-----|
G|--------6-----6-----------|--------4-----4-----------|
D|-----5-----------5-----5--|-----------4--------------|
A|--------------------------|-----5-----------5-----5--|
E|--------------------------|--------------------------|
 |  |  |  |  |  |  |  |  |  |  |  |  |  |  |  |  |  |  |   
R   a  p  i  m  i  p  a  p     a  p  m  i  m  p  a  p     
L      3  4     3  4     3     4  2  1  1  1  2  4  1     

[39]

E|--------------------------|--0-----------2-----------|
B|--7-----------------7-----|-----------0-----------0--|
G|--------4-----4-----------|--------6-----------6-----|
D|-----------5--------------|-----5-----------4--------|
A|-----4-----------4-----4--|--------------------------|
E|--------------------------|--------------------------|
 |  |  |  |  |  |  |  |  |  |  |  |  |  |  |  |  |  |
R   a  p  m  i  m  p  a  p     a  p  i  m  a  p  i  m
L   4  1  1  2  1  1  4  1        3  4     1  2  4 

[41]                          II......................

E|--3-----------0-----------|--------------------------|
B|-----------0-----------0--|--------------------------|
G|--------6-----------6-----|--4-----------3-----------|
D|--------------------------|--------2--------4p-2-----|
A|--------------------------|-----------4-----------4--|
E|-----0-----------3--------|-----2--------------------|
 |  |  |  |  |  |  |  |  |  |  |  |  |  |  |  |  |  |  | 
R   a  p  i  m  a  p  i  m     a  p  m  i  a  m     i  
L   1     4        1  4        4  1  1  3  2  4     3   

[43]

E|--------------------------|-----------------0-----7--|
B|--0--------------------0--|--3--------0--------8-----|
G|--------0-----------0-----|--------0-----6-----------|
D|-----------0-----0--------|--------------------------|
A|-----2--------4-----------|-----2--------------------|
E|--------------------------|--------------------------|
 |  |  |  |  |  |  |  |  |  |  |  |  |  |  |  |  |  |  
R   a  p  m  i  p  i  m  a     a  p  i  m  i  a  m  a
L      1        3              2  1        1     3  2

[45]                                                                
    
E|--6/-2--0-----------------|--------------------7-----|
B|-----------2--------------|--------------7--------7--|
G|--------------3-----------|--------7--------7--------|
D|-----------------4p-2-----|-----------9--------------|
A|-----------------------4--|-----9--------------------|
E|--------------------------|--7-----------------------|
 |  |  |  |  |  |  |  |  |  |  |  |  |  |  |  |  |  |  |   
R   a     a  a  m  i     p     p  p  i  p  i  p  i  p         
L   1        1  2  3  1  3     1  3  1  4  1  1  1  1     

[47]

E|--10p-7------<19>---------|-----------6--------7-----|
B|--------<19>----<19>--<19>|--<12>-----5--------0-----|
G|-----------<19>----<19>---|-----------6--------7-----|
D|--------------------------|-----------4--------------|
A|--------------------------|--------------------------|
E|--------------------------|--------------------7-----|
 |  |  |  |  |  |  |  |  |  |  |  |  |  |  |  |  |  |
R   a     m  i  a  m  i  m     m        a,m,i,p  a,m,i,p 
L   4  1  T  T  T  T  T  T     T        4,2,3,1  4,3,2


T=Thumb (inner side) to produce the harmonics.
comments
We did not receive enough feedback on this tab! Please rate:
1 2 3 4 5
2 comments total.
0 reply
sancir wrote on September 17 2013, 11:55 am

good job, thanks very much

0 reply
jamstation wrote on February 6 2014, 09:15 am

Thanks a tonne!! 5 stars!! My sight reading is terrible and I needed this!!

I noticed one thing: The ending harmonics are a little different in the standard notation piece that I have, but maybe yours is a different version?

Link: http://classicalguitar.homeip.net/files/barrios-La_Catedral.pdf

I want to post or [tab]
guest
You may want to rate the tab now too:
select rating
Please do not post tabs as comments. Select "correction" instead!