Oops, an error
Loading. Please wait.

Hammerhead Tab

ver1
ver1

Whole song

Interactive

More versions @911Tabs.com
644 views 1 this week
no commentswrite comment
1 2 3 4 5
please rate
add to favorites launch autoscroll
font size
0
reset
Autoscroll
+/-
esc
set tempo
stop
Contributor
Difficulty
advanced
WARNING: You are trying to view
                                    content from Ultimate-Guitar.com
                                    in an unauthorized application,
                                    which is prohibited.

                                    Please use an official Ultimate
                                    Guitar Tabs application for iPhone,
                                    iPad or Android to access legitimate
                                    chords, guitar, bass, and drum tabs
                                    from Ultimate-Guitar.com database.

                                    Type "ultimate guitar tabs" in Apple
                                    App Store's or Android Market's
                                    search to find the application.
tempo = 158 BPM

0:00
bend up to E w/ trem bar
E|-------------------|
B|-------------------|
G|-------------------|
D|-------------------|
A|-------------------|
E|--0----------------|

0:06
     T         T  T     T         T  T     T         T
     S  S   S  S  S  S  S  S   S  S  S  S  S  S   S  S
|------------------------------------------------------|
|------------------------------------------------------|
|*-----------------------------------------------------|
|*---------------16p-9--------------16p-9--------------|
|---14p-7h-12-14-------14p-7h-12-14-------14p-7h-12-14-|
|------------------------------------------------------|


   T     T         T  T     T         T  T     T
   S  S  S  S   S  S  S  S  S  S   S  S  S  S  S  S
-----------------------------------------------------||
-----------------------------------------------------||
----------------------------------------------------*||
--16p-9--------------16p-9--------------16p-9-14p-7-*||
--------14p-7h-12-14-------14p-7h-12-14--------------||
-----------------------------------------------------||

0:12
    T         T  T     T         T  T     T         T
    S  S   S  S  S  S  S  S   S  S  S  S  S  S   S  S
------------------------------------------------------|
------------------------------------------------------|
*---------------16p-9--------------16p-9--------------|
*--14p-7h-12-14-------14p-7h-12-14-------14p-7h-12-14-|
------------------------------------------------------|
------------------------------------------------------|


   T     T         T  T     T         T  T     T
   S  S  S  S   S  S  S  S  S  S   S  S  S  S  S  S
-----------------------------------------------------||
-----------------------------------------------------||
--16p-9--------------16p-9--------------16p-9-14p-7-*||
--------14p-7h-12-14-------14p-7h-12-14-------------*||
-----------------------------------------------------||
-----------------------------------------------------||

0:18
    T         T  T     T       T  T      T     T
    S  S   S  S  S  S  S  S S  S  S   S  S  S  S  S  4x
-----------------------------------------------------||
---------------------------------17p-10--------------||
*---------------16p-9-------9-16--------16p-9-14p-7-*||
*--14p-7h-12-14-------14p-7-------------------------*||
-----------------------------------------------------||
-----------------------------------------------------||

0:24
    T       T  T      T        T  T      T      T
    S  S S  S  S   S  S  S  S  S  S   S  S   S  S  S  4x
---------------------------------19p-12---------------||
--------------17p-10-------10-17--------17p-10--------||
*--------9-16--------16p-9---------------------16p-9-*||
*--14p-7---------------------------------------------*||
------------------------------------------------------||
------------------------------------------------------||

0:30
    T        T  T      T         T  T      T      T
    S  S  S  S  S   S  S   S  S  S  S   S  S   S  S   S  4x
-----------------------------------19p-14----------------||
---------------17p-12--------12-17--------17p-12---------||
*--------11-16--------16p-11---------------------16p-11-*||
*--14p-9------------------------------------------------*||
---------------------------------------------------------||
---------------------------------------------------------||

0:36
    T         T  T      T         T  T      T      T
    S   S  S  S  S   S  S   S  S  S  S   S  S   S  S   S  4x
------------------------------------19p-15----------------||
----------------17p-13--------13-17--------17p-13---------||
*---------12-16--------16p-12---------------------16p-12-*||
*--14p-10------------------------------------------------*||
----------------------------------------------------------||
----------------------------------------------------------||

0:42
   T      T      T      T      T      T      T      T
   S   S  S   S  S   S  S   S  S   S  S   S  S   S  S   S
--19p-15----------------------19p-15----------------------|
---------17p-13--------17p-13--------17p-13--------17p-13-|
----------------16p-12----------------------16p-12--------|
----------------------------------------------------------|
----------------------------------------------------------|
----------------------------------------------------------|


   T      T      T      T      T      T      T      T
   S   S  S   S  S   S  S   S  S   S  S   S  S   S  S   S
--19p-15----------------------18p-14----------------------|
---------17p-13--------17p-13--------16p-12--------16p-12-|
----------------16p-12----------------------15p-11--------|
----------------------------------------------------------|
----------------------------------------------------------|
----------------------------------------------------------|


   T      T      T      T      T      T      T      T
   S   S  S   S  S   S  S   S  S   S  S   S  S   S  S   S
--17p-13----------------------17p-13----------------------|
---------15p-11--------15p-11--------15p-11--------15p-11-|
----------------14p-10----------------------14p-10--------|
----------------------------------------------------------|
----------------------------------------------------------|
----------------------------------------------------------|


   T      T      T      T      T      T      T     T
   S   S  S   S  S   S  S   S  S   S  S   S  S  S  S   S
--17p-13----------------------16p-12---------------------|
---------15p-11--------15p-11--------14p-10-------14p-10-|
----------------14p-10----------------------13p-9--------|
---------------------------------------------------------|
---------------------------------------------------------|
---------------------------------------------------------|


   T      T     T     T     T      T     T     T
   S   S  S  S  S  S  S  S  S   S  S  S  S  S  S  S
--15p-11-------------------15p-11-------------------|
---------13p-9-------13p-9--------13p-9-------13p-9-|
---------------12p-8--------------------12p-8-------|
----------------------------------------------------|
----------------------------------------------------|
----------------------------------------------------|


   T      T     T     T     T      T     T     T
   S   S  S  S  S  S  S  S  S   S  S  S  S  S  S  S
--15p-11-------------------14p-10-------------------|
---------13p-9-------13p-9--------12p-8-------12p-8-|
---------------12p-8--------------------11p-7-------|
----------------------------------------------------|
----------------------------------------------------|
----------------------------------------------------|


   T     T     T     T     T     T     T     T
   S  S  S  S  S  S  S  S  S  S  S  S  S  S  S  S
--13p-9-------------------13p-9-------------------|
--------11p-7-------11p-7-------11p-7-------11p-7-|
--------------10p-6-------------------10p-6-------|
--------------------------------------------------|
--------------------------------------------------|
--------------------------------------------------|


   T     T     T     T     T     T    T     T
   S  S  S  S  S  S  S  S  S  S  S  S S  S  S  S
--13p-9-------------------12p-8------------------|
--------11p-7-------11p-7-------10p-6------10p-6-|
--------------10p-6-------------------9p-5-------|
-------------------------------------------------|
-------------------------------------------------|
-------------------------------------------------|

0:54
     T    T    T    T     T    T    T    T
     S  S S  S S  S S  S  S  S S  S S  S S  S
|---11p-7----------------11p-7----------------|
|---------9p-5------9p-5-------9p-5------9p-5-|
|*-------------8p-4-----------------8p-4------|
|*--------------------------------------------|
|---------------------------------------------|
|---------------------------------------------|


   T    T    T    T     T    T    T    T
   S  S S  S S  S S  S  S  S S  S S  S S  S
--10p-7----------------10p-7-----------------||
--------8p-5------8p-5-------8p-5------8p-5--||
-------------7p-4-----------------7p-4------*||
--------------------------------------------*||
---------------------------------------------||
---------------------------------------------||

1:00
    T    T     T  T    T     T  T    T     T  T    T     T
    |--3-|  |-3|  |--3-|  |-3|  |--3-|  |-3|  |--3-|  |-3|
    S  S S  E  S  S  S S  E  S  S  S S  E  S  S  S S  E  S
---11p-7---------11p-7---------11p-7---------11p-7---------|
---------9p-5--9-------9p-5--9-------9p-5--9-------9p-5--8-|
*----------------------------------------------------------|
*----------------------------------------------------------|
-----------------------------------------------------------|
-----------------------------------------------------------|


   T    T     T  T    T     T  T    T     T  T    T     T
   |--3-|  |-3|  |--3-|  |-3|  |--3-|  |-3|  |--3-|  |-3|
   S  S S  E  S  S  S S  E  S  S  S S  E  S  S  S S  E  S
--10p-7---------10p-7---------10p-7---------10p-7----------||
--------8p-5--8-------8p-5--8-------8p-5--8-------8p-5--8--||
----------------------------------------------------------*||
----------------------------------------------------------*||
-----------------------------------------------------------||
-----------------------------------------------------------||

1:06
   T    T     T  T    T     T  T    T     T  T    T      T
   |--3-|  |-3|  |--3-|  |-3|  |--3-|  |-3|  |--3-|  |-3-|
   S  S S  E  S  S  S S  E  S  S  S S  E  S  S  S S  E   S
--11p-7---------11p-7---------11p-7---------11p-7----------|
--------9p-5--9-------9p-5--9-------9p-5--9-------9p-5--10-|
-----------------------------------------------------------|
-----------------------------------------------------------|
-----------------------------------------------------------|
-----------------------------------------------------------|


   T     T      T  T     T      T  T     T      T  T     T      T
   |--3--|  |-3-|  |--3--|  |-3-|  |--3--|  |-3-|  |--3--|  |-3-|
   S  S  S  E   S  S  S  S  E   S  S  S  S  E   S  S  S  S  E   S
--12p-8-----------12p-8-----------12p-8-----------12p-8-----------|
--------10p-6--10-------10p-6--10-------10p-6--10-------10p-6--11-|
------------------------------------------------------------------|
------------------------------------------------------------------|
------------------------------------------------------------------|
------------------------------------------------------------------|


   T     T      T  T     T      T  T     T      T  T     T      T
   |--3--|  |-3-|  |--3--|  |-3-|  |--3--|  |-3-|  |--3--|  |-3-|
   S  S  S  E   S  S  S  S  E   S  S  S  S  E   S  S  S  S  E   S
--13p-9-----------13p-9-----------13p-9-----------13p-9-----------|
--------11p-7--11-------11p-7--11-------11p-7--11-------11p-7--12-|
------------------------------------------------------------------|
------------------------------------------------------------------|
------------------------------------------------------------------|
------------------------------------------------------------------|


   T      T      T  T      T      T  T      T      T  T      T      T
   |---3--|  |-3-|  |---3--|  |-3-|  |---3--|  |-3-|  |---3--|  |-3-|
   S   S  S  E   S  S   S  S  E   S  S   S  S  E   S  S   S  S  E   S
--14p-10-----------14p-10-----------14p-10-----------14p-10-----------|
---------12p-8--12--------12p-8--12--------12p-8--12--------12p-8--13-|
----------------------------------------------------------------------|
----------------------------------------------------------------------|
----------------------------------------------------------------------|
----------------------------------------------------------------------|


   T      T      T  T      T      T  T      T       T  T      T       T
   |---3--|  |-3-|  |---3--|  |-3-|  |---3--|   |-3-|  |---3--|   |-3-|
   S   S  S  E   S  S   S  S  E   S  S   S  S   E   S  S   S  S   E   S
--15p-11-----------15p-11-----------16p-12------------16p-12------------|
---------13p-9--13--------13p-9--14--------14p-10--14--------14p-10--15-|
------------------------------------------------------------------------|
------------------------------------------------------------------------|
------------------------------------------------------------------------|
------------------------------------------------------------------------|


   T      T       T  T      T       T  T      T       T  T      T       T
   |---3--|   |-3-|  |---3--|   |-3-|  |---3--|   |-3-|  |---3--|   |-3-|
   S   S  S   E   S  S   S  S   E   S  S   S  S   E   S  S   S  S   E   S
--17p-13------------18p-14------------19p-15------------20p-16------------|
---------15p-11--16--------16p-12--17--------17p-13--18--------18p-14--19-|
--------------------------------------------------------------------------|
--------------------------------------------------------------------------|
--------------------------------------------------------------------------|
--------------------------------------------------------------------------|

1:15
   tap, bend up, pull off to lower note and release bend
   T
--22bp------------------17bp---------------15~-----------------|
---------------------------------------------------------------|
---------------------------------------------------------------|
---------------------------------------------------------------|
---------------------------------------------------------------|
---------------------------------------------------------------|


   and then pull off once more
   T
--20bp------------------15bp---------------13~-----------------|
---------------------------------------------------------------|
---------------------------------------------------------------|
---------------------------------------------------------------|
---------------------------------------------------------------|
---------------------------------------------------------------|

1:24
   tap slide, pull off to other hand, slide up and repeat
   T         T         T         T
   E    E    E    E    E    E    E    E
--15/p-12/--------------------------------|
------------15/p-13/----------------------|
----------------------14/p-12/------------|
--------------------------------14/p-12/--|
------------------------------------------|
------------------------------------------|
   T         T
   E    E    E    Q.
------------------------------------------|
------------------------------------------|
-------------------------2----------------|
-------------------------2----------------|
--15/p-12/---------------0----------------|
------------15/p-12\----------------------|



Duration Legend
---------------
Q - quarter
E - 8th
S - 16th
. - note dotted
|-n-|  - n-tuplets


Tablature Legend
----------------
h - hammer on
p - pull off
b - bend
/ -  slide out of upwards
\ -  slide out of downwards
~ - vibrato
T - tapping
comments
We did not receive enough feedback on this tab! Please rate:
print report bad tab
1 2 3 4 5
I want to post or [tab]
guest
You may want to rate the tab now too:
select rating
Please do not post tabs as comments. Select "correction" instead!