Oops, an error
Loading. Please wait.

Neverland Tab

ver1
ver1

Whole song

Interactive

More versions @911Tabs.com
1,692 views 6 this week
no commentswrite comment
1 2 3 4 5
please rate
Autoscroll
+/-
esc
set tempo
stop
Contributor
Difficulty
Tuning
novice
D# G# C# F# A# D#
Hey! There's an official Ultimate Guitar app which is ideal
for learning songs when you're away from computer. Get the app
WARNING: You are trying to view
                                    content from Ultimate-Guitar.com
                                    in an unauthorized application,
                                    which is prohibited.

                                    Please use an official Ultimate
                                    Guitar Tabs application for iPhone,
                                    iPad or Android to access legitimate
                                    chords, guitar, bass, and drum tabs
                                    from Ultimate-Guitar.com database.

                                    Type "ultimate guitar tabs" in Apple
                                    App Store's or Android Market's
                                    search to find the application.
I Didn't make this, dont know who made...

D#||------------------------------|-------------10---8---6-8-----|
A#||---10------8-10-10b---10---8--|--6--------6----6---6------10-|
F#||*-----------------------------|------------------------------|
C#||*-----------------------------|------------------------------|
G#||------------------------------|------------------------------|
D#||------------------------------|------------------------------|


   Q.      E  E.   E.   E      E.   T   T  Q    S S  S  S  S  S S S    
--------------8------------|-----------------------------------------||
---L------10------11---10--|--10---11p-10p-8-------------------------||
---------------------------|--------------------9-9-10-10-12-12-9-9-*||
---------------------------|----------------------------------------*||
---------------------------|-----------------------------------------||
---------------------------|-----------------------------------------||


   E.   E.   E   E.   E.   E      E.   E.   E  S E.   S S  S  S  
------------------------------|---------------------------------|
------------10--11---10-------|---------------------------------|
--10---12-----------------12--|--10---12---10--9-9---10-9-------|
------------------------------|---------------------------12-10-|
------------------------------|---------------------------------|
------------------------------|---------------------------------|


  W                   W                   W                   W                 
-------------------|-------------------|-------------------|-------------------|
-------------------|-------------------|-------------------|-------------------|
--7----------------|-------------------|-------------------|-------------------|
--7----------------|-------------------|-------------------|-------------------|
--5----------------|-------------------|-------------------|-------------------|
-------------------|-------------------|-------------------|-------------------|


  W                   W                   W                   W                 
-------------------|-------------------|-------------------|-------------------|
-------------------|-------------------|-------------------|-------------------|
-------------------|-------------------|-------------------|-------------------|
-------------------|-------------------|-------------------|-------------------|
-------------------|-------------------|-------------------|-------------------|
-------------------|-------------------|-------------------|-------------------|


  W                   H        H           W                 
-------------------|--------------------|-------------------|
-------------------|--------------------|-------------------|
--7----------------|-----------5--------|--7----------------|
--7----------------|--3--------5--------|--7----------------|
--5----------------|--3--------3--------|--5----------------|
-------------------|--1-----------------|-------------------|


  H        H           W                   H        H         
--------------------|-------------------|--------------------|
--------------------|-------------------|--------------------|
--3--------5--------|--7----------------|--------------------|
--3--------5--------|--7----------------|-----------5--------|
--1--------3--------|--5----------------|--3--------3--------|
--------------------|-------------------|--1-----------------|


  H        H           W                   S S S S H.            
--------------------|-------------------|-----------------------|
--------------------|-------------------|-----------------------|
--3-----------------|--5----------------|-----------------------|
--3--------3--------|--5----------------|-----------------------|
--1--------3--------|--3----------------|----------7------------|
-----------1--------|-------------------|--5-5-5-5-5------------|


  H        H           S S S S H.              H        H         
--------------------|-----------------------|--------------------|
--------------------|-----------------------|--------------------|
--------------------|-----------------------|--------------------|
--------------------|----------7------------|--L-----------------|
--L-----------------|--5-5-5-5-5------------|--L-----------------|
--L-----------------|-----------------------|--------------------|


  S S S S H.              H        H           S S S S S S S S S S S S S S S S  
-----------------------|--------------------|----------------------------------|
-----------------------|--------------------|----------------------------------|
-----------------------|--------------------|----------------------------------|
----------5------------|--L-----------------|----------------------------------|
--3-3---3-3------------|--L-----------------|--0-0-0-0-0-0-0-0-0-0-0-0-0-0-0-0-|
-----------------------|--------------------|----------------------------------|


  S S S S S S S S E  E  E  E     W                    H.           E  S S  
------------------------------|-------------------|-----------------------|
------------------------------|-------------------|-----------------------|
------------------5-----------|--7----------------|--10---------------L-5-|
--3---------------5-----------|--7----------------|--10---------------L-5-|
--1-1-1-1-1-1-1-1-3-----------|--5----------------|---8---------------L-3-|
------------------------------|-------------------|-----------------------|


  W                   H.           E.  S    W                 
-------------------|---------------------|-------------------|
-------------------|---------------------|-------------------|
--L----------------|--3------------5---7-|--L----------------|
--L----------------|--3------------5---7-|--L----------------|
--L----------------|--1------------3---5-|--L----------------|
-------------------|---------------------|-------------------|


   H.           E  S S    W                   H.           E.  S  
-----------------------|-------------------|---------------------|
-----------------------|-------------------|---------------------|
--10---------------L-5-|--L----------------|--3------------5---7-|
--10---------------L-5-|--L----------------|--3------------5---7-|
---8---------------L-3-|--L----------------|--1------------3---5-|
-----------------------|-------------------|---------------------|


   Q.     S  S  E.    E.  E     Q.     S S  S S S S S E   S  
-----------------------------|-------------10---8---6-8-----|
--10------8-10-10b---10---8--|--6--------6----6---6------10-|
-----------------------------|------------------------------|
-----------------------------|------------------------------|
-----------------------------|------------------------------|
-----------------------------|------------------------------|


   Q.      E   E.   E.   E      E.   T   T  Q    S S  S  S  S  S S S  
----------------------------|----------------------------------------|
---L------10--13---11---10--|--10---11p-10p-8------------------------|
----------------------------|--------------------9-9-10-10-12-12-9-9-|
----------------------------|----------------------------------------|
----------------------------|----------------------------------------|
----------------------------|----------------------------------------|


   Q.     S  S  E.    E.  E     Q.     S S  S S S S S E   S  
-----------------------------|-------------10---8---6-8-----|
--10------8-10-10b---10---8--|--6--------6----6---6------10-|
-----------------------------|------------------------------|
-----------------------------|------------------------------|
-----------------------------|------------------------------|
-----------------------------|------------------------------|


   Q.      E  E.   E.   E      E.   T   T  Q    S S  S  S  S  S S S  
--------------8------------|----------------------------------------|
---L------10------11---10--|--10---11p-10p-8------------------------|
---------------------------|--------------------9-9-10-10-12-12-9-9-|
---------------------------|----------------------------------------|
---------------------------|----------------------------------------|
---------------------------|----------------------------------------|


   E.   E.   E   E.   E.   E      E.   E.   E  S E.   S S  S  S  
------------------------------|---------------------------------|
------------10--11---10-------|---------------------------------|
--10---12-----------------12--|--10---12---10--9-9---10-9-------|
------------------------------|---------------------------12-10-|
------------------------------|---------------------------------|
------------------------------|---------------------------------|


  W                   H        H           W                 
-------------------|--------------------|-------------------|
-------------------|--------------------|-------------------|
--7----------------|-----------5--------|--7----------------|
--7----------------|--3--------5--------|--7----------------|
--5----------------|--3--------3--------|--5----------------|
-------------------|--1-----------------|-------------------|


  H        H           W                   H        H         
--------------------|-------------------|--------------------|
--------------------|-------------------|--------------------|
--3--------5--------|--7----------------|--------------------|
--3--------5--------|--7----------------|-----------5--------|
--1--------3--------|--5----------------|--3--------3--------|
--------------------|-------------------|--1-----------------|


  H        H           W                   S S S S H.            
--------------------|-------------------|-----------------------|
--------------------|-------------------|-----------------------|
--3-----------------|--5----------------|-----------------------|
--3--------3--------|--5----------------|-----------------------|
--1--------3--------|--3----------------|----------7------------|
-----------1--------|-------------------|--5-5-5-5-5------------|


  H        H           S S S S H.              H        H         
--------------------|-----------------------|--------------------|
--------------------|-----------------------|--------------------|
--------------------|-----------------------|--------------------|
--------------------|----------7------------|--L-----------------|
--L-----------------|--5-5-5-5-5------------|--L-----------------|
--L-----------------|-----------------------|--------------------|


  S S S S H.              H        H           S S S S S S S S S S S S S S S S  
-----------------------|--------------------|----------------------------------|
-----------------------|--------------------|----------------------------------|
-----------------------|--------------------|----------------------------------|
----------5------------|--L-----------------|----------------------------------|
--3-3---3-3------------|--L-----------------|--0-0-0-0-0-0-0-0-0-0-0-0-0-0-0-0-|
-----------------------|--------------------|----------------------------------|


  S S S S S S S S E  E  E  E     W                    H.           E  S S  
------------------------------|-------------------|-----------------------|
------------------------------|-------------------|-----------------------|
------------------5-----------|--7----------------|--10---------------L-5-|
--3---------------5-----------|--7----------------|--10---------------L-5-|
--1-1-1-1-1-1-1-1-3-----------|--5----------------|---8---------------L-3-|
------------------------------|-------------------|-----------------------|


  W                   H.           E.  S    W                 
-------------------|---------------------|-------------------|
-------------------|---------------------|-------------------|
--L----------------|--3------------5---7-|--L----------------|
--L----------------|--3------------5---7-|--L----------------|
--L----------------|--1------------3---5-|--L----------------|
-------------------|---------------------|-------------------|


   H.           E  S S    W                   H.           E.  S  
-----------------------|-------------------|---------------------|
-----------------------|-------------------|---------------------|
--10---------------L-5-|--L----------------|--3------------5---7-|
--10---------------L-5-|--L----------------|--3------------5---7-|
---8---------------L-3-|--L----------------|--1------------3---5-|
-----------------------|-------------------|---------------------|


  W                   W                   S S S S S S S S S S S S S S S S  
-------------------|-------------------|----------------------------------|
-------------------|-------------------|----------------------------------|
-------------------|-------------------|----------------------------------|
-------------------|-------------------|------4-----5-----7---5---4---5-4-|
-------------------|-------------------|--5-5---5-5---5-5---5---5---5-----|
-------------------|-------------------|----------------------------------|


  S S S S S S S S S S S S S S S S    S S S S S S S S S S S S S S S S  
----------------------------------|----------------------------------|
----------------------------------|----------------------------------|
----------------------------------|----------------------------------|
------4-----5-----7-5-4-5-4-------|----------------------------------|
--5-5---5-5---5-5-----------7-5-4-|------5-----6-----8---6---5---6-5-|
----------------------------------|--6-6---6-6---6-6---6---6---6-----|


  S S S S S S S S S S S S S S S S    S S S S S S S S  S S S S S S S S  
----------------------------------|-----------------------------------|
----------------------------------|-----------------------------------|
----------------------------------|-----------------------------------|
----------------------------------|------7-----8-----10---8---7---8-7-|
------5-----6-----8-6-5-6-5-------|--8-8---8-8---8-8----8---8---8-----|
--6-6---6-6---6-6-----------8-6-5-|-----------------------------------|


  S S S S S S S S  S S  S S  S S  S S    S S S S S S S S S S S S S S S S  
--------------------------------------|----------------------------------|
--------------------------------------|----------------------------------|
--------------------------9-10-9------|----------------------------------|
------7-----8-7------7-10--------10-7-|------3-----5-----7---5---3---5-3-|
--8-8---8-8-----8---------------------|--5-5---5-5---5-5---5---5---5-----|
------------------10------------------|----------------------------------|


  S S S S S S S S S S S S S S E     S S S S S S S S S S S S S S S S  
---------------------------------|----------------------------------|
---------------------------------|----------------------------------|
---------------------------------|----------------------------------|
------3-----5-----7---5---3---5--|----------------------------------|
--5-5---5-5---5-5---5---5---5----|------5-----6-----8---6---5---6-5-|
---------------------------------|--6-6---6-6---6-6---6---6---6-----|


  S S S S S S S S S S S S S S S S    S S S S S S S S S S S S S S S S  
----------------------------------|----------------------------------|
----------------------------------|----------------------------------|
----------------------------------|----------------------------------|
--------------------------5-------|----------------------------------|
------5-----6-----5---5-8---8-5---|------1-----3-----5---3---1---3-1-|
--6-6---6-6---6-6---6-----------6-|--3-3---3-3---3-3---3---3---3-----|


  S S S S S S S S S S S S S S E     S S S S S S S S S S S S S S S S  
---------------------------------|----------------------------------|
---------------------------------|----------------------------------|
---------------------------------|----------------------------------|
---------------------------------|------2-----3-----5-----3-----2---|
------1-----3-----5---3---1---3--|--3-3---3-3---3-3---3-3---3-3---3-|
--3-3---3-3---3-3---3---3---3----|----------------------------------|


  S S S S S S S S S S S S S S S S    H        H           H        H         
----------------------------------|--------------------|--------------------|
----------------------------------|--------------------|--------------------|
----------------------------------|--7--------5--------|--3--------5--------|
------2-----3-----5-2---2-3-2-----|--7--------5--------|--3--------5--------|
--3-3---3-3---3-3-----3-------5-3-|--5--------3--------|--1--------3--------|
----------------------------------|--------------------|--------------------|


  H        H           H        E  Q.         W                 
--------------------|---------------------|--------------------|
--------------------|---------------------|--------------------|
--7--------5--------|--3--------5---------|--10----------------|
--7--------5--------|--3--------5---------|--10----------------|
--5--------3--------|--1--------3---------|---8----------------|
--------------------|---------------------|--------------------|


   H.           E  S S    W                   H.           E.   S  
-----------------------|-------------------|----------------------|
-----------------------|-------------------|----------------------|
--13---------------L-8-|--L----------------|--6------------8---10-|
--13---------------L-8-|--L----------------|--6------------8---10-|
--11---------------L-6-|--L----------------|--4------------6----8-|
-----------------------|-------------------|----------------------|


  W                    H.           E  S S    W                 
-------------------|-----------------------|-------------------|
-------------------|-----------------------|-------------------|
--L----------------|--13---------------L-8-|--L----------------|
--L----------------|--13---------------L-8-|--L----------------|
--L----------------|--11---------------L-6-|--L----------------|
-------------------|-----------------------|-------------------|


  H.           E.   S     W                    H.           E  S S  
----------------------|--------------------|-----------------------|
----------------------|--------------------|-----------------------|
--6------------8---10-|---L----------------|--13---------------L-8-|
--6------------8---10-|---L----------------|--13---------------L-8-|
--4------------6----8-|---L----------------|--11---------------L-6-|
----------------------|--------------------|-----------------------|


  W                   H.           E.   S    W                 
-------------------|----------------------|-------------------|
-------------------|----------------------|-------------------|
--L----------------|--6------------8---10-|--L----------------|
--L----------------|--6------------8---10-|--L----------------|
--L----------------|--4------------6----8-|--L----------------|
-------------------|----------------------|-------------------|


   H.           E  S S    W                   H.           E.   S  
-----------------------|-------------------|----------------------|
-----------------------|-------------------|----------------------|
--13---------------L-8-|--L----------------|--6------------8---10-|
--13---------------L-8-|--L----------------|--6------------8---10-|
--11---------------L-6-|--L----------------|--4------------6----8-|
-----------------------|-------------------|----------------------|


   W                    H.           E  S S    W                 
--------------------|-----------------------|-------------------|
--------------------|-----------------------|-------------------|
---L----------------|--13---------------L-8-|--L----------------|
---L----------------|--13---------------L-8-|--L----------------|
---L----------------|--11---------------L-6-|--L----------------|
--------------------|-----------------------|-------------------|


  H.           E.   S    W                    H.           E  S S  
----------------------|-------------------|-----------------------|
----------------------|-------------------|-----------------------|
--6------------8---10-|--L----------------|--13---------------L-8-|
--6------------8---10-|--L----------------|--13---------------L-8-|
--4------------6----8-|--L----------------|--11---------------L-6-|
----------------------|-------------------|-----------------------|


  W                   H.           E.   S    W                  
-------------------|----------------------|-------------------||
-------------------|----------------------|-------------------||
--L----------------|--6------------8---10-|-------------------||
--L----------------|--6------------8---10-|-------------------||
--L----------------|--4------------6----8-|-------------------||
-------------------|----------------------|-------------------||




Duration Legend
---------------
W - whole
H - half
Q - quarter
E - 8th
S - 16th
T - 32nd
X - 64th
. - note dotted
|-n-|  - n-tuplets


Tablature Legend
----------------
L - tied note
x - dead note
g - grace note
(n) - ghost note
> - accentuded note
NH - natural harmonic
AH - artificial harmonic
TH - tapped harmonic
SH - semi harmonic
PH - pitch harmonic
h - hammer on
p - pull off
b - bend
br - bendRelease
pb - preBend
pbr - preBendRelease
brb - bendReleaseBend
\n/ - tremolo bar dip
\n - tremolo bar dive
-/n - tremolo bar Release up
/n\ - tremolo bar inverted dip
/n - tremolo bar return
-\n - tremolo bar Release down
S - shift slide
s - legato slide
/ -  slide into from below or out of upwards
\ -  slide into from above or out of downwards
~ - vibrato
W - wide vibrato
tr - trill
TP - tremolo picking
T - tapping
S - slap
P - pop
< - fade in
^ - brush up
v - brush down
comments
We did not receive enough feedback on this tab! Please rate:
print report bad tab
1 2 3 4 5
I want to post or [tab]
guest
You may want to rate the tab now too:
select rating
Please do not post tabs as comments. Select "correction" instead!