Oops, an error
Loading. Please wait.

The Seven Angels Bass Tab

965 views 3 this week
no commentswrite comment
1 2 3 4 5
please rate
Autoscroll
+/-
esc
set tempo
stop
Contributor
Tuning
C# G# C# F# A# D#
WARNING: You are trying to view
                                    content from Ultimate-Guitar.com
                                    in an unauthorized application,
                                    which is prohibited.

                                    Please use an official Ultimate
                                    Guitar Tabs application for iPhone,
                                    iPad or Android to access legitimate
                                    chords, guitar, bass, and drum tabs
                                    from Ultimate-Guitar.com database.

                                    Type "ultimate guitar tabs" in Apple
                                    App Store's or Android Market's
                                    search to find the application.
#----------------------------------PLEASE NOTE---------------------------------#
#This file is the author's own work and represents their interpretation of the #
#song. You may only use this file for private study, scholarship, or research. #
#------------------------------------------------------------------------------#

THE SEVEN ANGELS (Bassline)
As recorded by Avantasia
(From the 2001 Album THE METAL OPERA: PT 2)

Transcribed by Ivan - (peekaboo104@hotmail.com)
	

Words and Music by Tobias Sammet

Gtr I (Db Ab Db Gb) - 'Markus Grosskopf (Helloween)'

 Intro (Believers)
  Slowly Q=75
 4/4
  Gtr I
  Wx3          H     H       H     H        H     H
|------------|-------------|-------------|--------------|
|------------|-------------|-------------|--------------|
|------------|-------------|-------------|--------------|
|------------|-0----12\----|-0----12\----|-10----10\----|


       |-3-|       |-3-|
  H    S S S S. S. S S S +S    H     H       H     H        H     H
|----------------------------|-------------|-------------|--------------|
|------------3---------------|-------------|-------------|--------------|
|------0h3h5----5--0h3h5-(5)-|-------------|-------------|--------------|
|-0--------------------------|-0----12\----|-0----12\----|-10----10\----|


       |-3-|       |-3-|
  H    S S S S. S. S S S +S    H     H       H     H        H     H
|----------------------------|-------------|-------------|--------------||
|------------3---------------|-------------|-------------|--------------||
|------0h3h5----5--0h3h5-(5)-|-------------|-------------|--------------||
|-0--------------------------|-0----12\----|-0----12\----|-10----10\----||


 Verse (Gabriel)
  Moderately Q=110
  S S S E E E +Q   E S   +S  +E  E H    +E.   S S S E E E +Q   E S   +W
|----------------------|--------------------|----------------------|--------|
|----------------------|--------------------|----------------------|--------|
|---0-0-0-1-1-(1)--3-3-|-(3)-(3)-5-5----(5)-|---0-0-0-1-1-(1)--3-3-|-(3)----|
|----------------------|--------------------|----------------------|--------|


  E E E E E E E E   E E E E E E E E   E E E E E E E E   E E E E E E E E
|-----------------|-----------------|-----------------|-----------------|
|-----------------|-----------------|-----------------|-----------------|
|-----------------|-1-1-1-1-1-1-1-1-|-----------------|-1-1-1-1-1-1-1-1-|
|-0-0-0-0-0-0-0-0-|-----------------|-0-0-0-0-0-0-0-0-|-----------------|


  E E E E E E E E   E E E E E E E E   E E E E E E E E   W
|-----------------|-----------------|-----------------|------|
|-----------------|-----------------|-----------------|------|
|-----------------|-----------------|-0-0-0-0-0-0-0-2-|-3----|
|-0-0-0-0-0-0-0-0-|-0-0-0-0-0-0-0-0-|-----------------|------|


  E E E E E E E E   E E E E E E E E   E E E E E E E E   E E E E E E E E
|-----------------|-----------------|-----------------|-----------------|
|-----------------|-----------------|-----------------|-----------------|
|-----------------|-1-1-1-1-1-1-1-1-|-----------------|-1-1-1-1-1-1-1-1-|
|-0-0-0-0-0-0-0-0-|-----------------|-0-0-0-0-0-0-0-0-|-----------------|


  E E E E E E E E   E E E E E E E E   E E E E E E E E   W
|-----------------|-----------------|-----------------|------|
|-----------------|-----------------|-----------------|------|
|-----------------|-----------------|-0-0-0-0-0-0-0-2-|-3----|
|-0-0-0-0-0-0-0-0-|-0-0-0-0-0-0-0-0-|-----------------|------|


  W          W          W          W
|----------|----------|----------|------||
|----------|----------|----------|------||
|----------|----------|----------|------||
|-0--------|-0--------|-0--------|-0----||


   Verse (Pope)
    E E E E E E E E   E E E E E E E E   E E E E E E E E   E E E E E E E E
||------------------|-----------------|-----------------|------------------||
||o-----------------|-----------------|-----------------|------------------||
||o-0-0-0-0-0-0-0-0-|-0-0-0-0-0-0-0---|-0-0-0-0-0-0-0-0-|-0-0-0-0-0-0-0-0--||
||------------------|---------------5-|-----------------|------------------||


 Verse (Lugaid)
                                                        2/4
  E E E E E E E E   E E E E E E E E   E E E E E E E E    E E E E
|-----------------|-----------------|-----------------||----------||
|-----------------|-----------------|-----------------||----------||
|-----------------|-----------------|-0-0-0-0-0-0-0-0-||-0-0-3-3--||
|-5-5-5-5-5-5-5-5-|-5-5-5-5-5-5-5-5-|-----------------||----------||


 Verse (Bishop / Jakob)
 4/4
  E E E E E E E E   E E E E E E E E   E E E E E E E E   E E E E E E E E
|-----------------|-----------------|-----------------|-----------------|
|-----------------|-----------------|-----------------|-----------------|
|-0-0-0-0-0-0-0-0-|-0-0-0-0-0-0-0---|-0-0-0-0-0-0-0-0-|-0-0-0-0-0-0-0-0-|
|-----------------|---------------5-|-----------------|-----------------|


 Verse (Lugaid)
  E E E E E E E E   E E E E E E E E   E E E E E E E E   E E E E E E E E
|-----------------|-----------------|-----------------|-----------------||
|-----------------|-----------------|-----------------|-----------------||
|-----------------|-----------------|-0-0-0-0-0-0-0-0-|-0-0-0-0-0-0-0-0-||
|-5-5-5-5-5-5-5-5-|-5-5-5-5-5-5-5-5-|-----------------|-----------------||


 Verse (Gabriel)
  E E Q  H      E E Q  H      E E E E E E E E   E E E E E E E E
|-------------|-------------|-----------------|-----------------|
|-------------|-------------|-----------------|-----------------|
|-5-5----0----|-5-5----0----|-----0-1-3-1-0---|-----0-1-3-1-0---|
|-------------|-------------|-3-5-----------5-|-3-5-----------3-|


  E E E E E E E E   E E E E E E E E   E E E E E E E E   E E E E E E E E
|-----------------|-----------------|-----------------|-----------------||
|-----------------|-----------------|-----------------|-----------------||
|-----------------|---------1-1-1-1-|-0-0-0-0-0-0-0-0-|-0-0-0-0-1-1-3-3-||
|-0-0-0-0-2-2-2-2-|-3-3-3-3---------|-----------------|-----------------||


 Chorus (Gabriel)
  E E E E E E E E   E E E E E E E E   E E E E E E E E   E E E E E E E E
|-----------------|-----------------|-----------------|-----------------|
|-----------------|-----------------|-----------------|-----------------|
|-------------0-0-|-3-3-3-3-3-3-3-3-|---------1-1-1-1-|---------3-3-3-3-|
|-3-3-3-3-3-3-----|-----------------|-0-0-0-0---------|-3-3-3-3---------|


  E E E E E E E E   E E E E E E E E   E E E E E E E E   E E E E E E E E
|-----------------|-----------------|-----------------|-----------------|
|-----------------|-----------------|-----------------|-----------------|
|-------------0-0-|-3-3-3-3-3-3-3-3-|-1-1-1-1-3-3-3-3-|-------------3-3-|
|-0-0-0-0-0-0-----|-----------------|-----------------|-3-3-3-3-3-3-----|


  E E E E E E E E   E E E E E E E E   E E E E E E E E   E E E E E E E E
|-----------------|-----------------|-----------------|-----------------|
|-----------------|-----------------|-----------------|-----------------|
|-------------0-0-|-3-3-3-3-3-3-3-3-|---------1-1-1-1-|---------3-3-3-3-|
|-3-3-3-3-3-3-----|-----------------|-0-0-0-0---------|-3-3-3-3---------|


  E E E E E E E E   E E E E E E E E   E E E E E E E E   E E E E E E E E
|-----------------|-----------------|-----------------|-----------------|
|-----------------|-----------------|-----------------|-----------------|
|-------------0-0-|-3-3-3-3-3-3-3-3-|-1-1-1-1-3-3-3-3-|-----------------|
|-0-0-0-0-0-0-----|-----------------|-----------------|-3-3-3-3-3-3-3-3-|


                     Guitar Break
  E E E E E E E E     S S S S S S S S S S S S S S S S
|------------------||---------------------------------|
|-----------------o||-----7-----5-----4-----5-----4h5-|
|-----------------o||-0-0---0-0---0-0---0-0---0-0-----|
|-3-3-3-3-3-3-5-5--||---------------------------------|


  S S S S S S S S S S S S S S S S
|-----------------------------------|
|-----7-----5-----4-----5-----4p2---|
|-0-0---0-0---0-0---0-0---0-0-------|
|-----------------------------------|


  S S S S S S S S S S S S S S S S   E. E. E E. E. E
|---------------------------------|-----------------||
|-----7-----5-----4-----5-----4h5-|-7--5--3-2--0----||
|-0-0---0-0---0-0---0-0---0-0-----|---------------3-||
|---------------------------------|-----------------||


 Guitar Solo I (Henjo)
  E E E E E E E E   E E E E E E E E
|-----------------|-----------------|
|-----------------|-----------------|
|-----------------|-1-1-1-1-1-1-1-1-|
|-0-0-0-0-0-0-0-0-|-----------------|


  E E E E E E E E   W           S S S S S S S S S S S S S S S S
|-----------------|----------||---------------------------------|
|-----------------|----------||-----7-----5-----4-----5-----4h5-|
|-----------------|-3--------||-0-0---0-0---0-0---0-0---0-0-----|
|-3-3-3-3-3-3-3-3-|----------||---------------------------------|


  S S S S S S S S S S S S S S S S
|------------------------------------|
|-----7-----5-----4-----5-----4p2----|
|-0-0---0-0---0-0---0-0---0-0--------|
|------------------------------------|


  S S S S S S S S S S S S S S S S   E. E. E E. E. E
|---------------------------------|-----------------||
|-----7-----5-----4-----5-----4h5-|-7--5--3-2--0----||
|-0-0---0-0---0-0---0-0---0-0-----|---------------3-||
|---------------------------------|-----------------||


 Guitar Solo II (Henjo)
  E E E E E E E E   E E E E E E E E
|-----------------|-----------------|
|-----------------|-----------------|
|-----------------|-1-1-1-1-1-1-1-1-|
|-0-0-0-0-0-0-0-0-|-----------------|


  E E E E E E E E   W          W          +W
|-----------------|----------|----------|--------|
|-----------------|----------|----------|--------|
|-----------------|-3--------|----------|--------|
|-3-3-3-3-3-3-3-3-|----------|-0--------|-(0)----|


                          Synth Solo     Voice In The Tower (Timo)
                                       Moderate Rock Q=75
  W          +W            Wx22           E E Q  H
|----------|------------||-------------||-------------|
|----------|------------||-------------||-------------|
|----------|------------||-------------||--------1----|
|-0--------|-(0)--------||-------------||-0-----------|


  E E Q  Q  Q    E E Q  H      E E Q  Q  Q    H    H
|--------------|-------------|--------------|-----------|
|--------------|-------------|--------------|-----------|
|--------------|--------1----|--------------|------1----|
|-0------3--1--|-0-----------|-0------3--1--|-0---------|


  H    Q  Q    H    H      H    Q  Q    W
|------------|-----------|------------|------|
|------------|-----------|------------|------|
|------------|------1----|------------|------|
|-0----3--1--|-0---------|-0----3--1--|-0----|


  H    Q  Q    W          H    Q  Q    W
|------------|----------|------------|------|
|------------|----------|------------|------|
|-1----------|----------|-1----3--1--|------|
|------3--1--|-0--------|------------|-0----|


  H    Q  Q    W          H    Q  Q    E E H    E S S   E H    Q  E
|------------|----------|------------|----------------|---------------||
|------------|----------|------------|----------------|---------------||
|-1----------|----------|-1----3--1--|----------------|---------------||
|------3--1--|-0--------|------------|-0------------3-|-0-------------||


 Guitar Solo III (Timo)
  T T T T T T T T T T T T T T T T T T T T T T T T T T T T T T T T
|-----------------------------------------------------------------|
|-----------------------------------------------------------------|
|-----------------------------------------------------------------|
|-3-3-3-3-3-3-3-3-3-3-3-3-3-3-3-3-3-3-3-3-3-3-3-3-3-3-3-3-3-3-3-3-|


  T T T T T T T T T T T T T T T T T T T T T T T T T T T T T T T T
|--------------------------------------------------------------------|
|--------------------------------------------------------------------|
|--------------------------------------------------------------------|
|-2-2-2-2-2-2-2-2-2-2-2-2-2-2-2-2-2-2-2-2-2-2-2-2-2-2-2-2-2-2-2-2----|


  T T T T T T T T T T T T T T T T T T T T T T T T T T T T T T T T
|-----------------------------------------------------------------|
|-----------------------------------------------------------------|
|-----------------------------------------------------------------|
|-1-1-1-1-1-1-1-1-1-1-1-1-1-1-1-1-1-1-1-1-1-1-1-1-1-1-1-1-1-1-1-1-|


  T T T T T T T T T T T T T T T T T T T T T T T T T T T T T T T T
|--------------------------------------------------------------------|
|--------------------------------------------------------------------|
|-1-1-1-1-1-1-1-1-1-1-1-1-1-1-1-1-3-3-3-3-3-3-3-3-3-3-3-3-3-3-3-3----|
|--------------------------------------------------------------------|


  T T T T T T T T T T T T T T T T T T T T T T T T T T T T T T T T
|-----------------------------------------------------------------|
|-----------------------------------------------------------------|
|-----------------------------------------------------------------|
|-3-3-3-3-3-3-3-3-3-3-3-3-3-3-3-3-3-3-3-3-3-3-3-3-3-3-3-3-3-3-3-3-|


  T T T T T T T T T T T T T T T T T T T T T T T T T T T T T T T T
|--------------------------------------------------------------------|
|--------------------------------------------------------------------|
|--------------------------------------------------------------------|
|-2-2-2-2-2-2-2-2-2-2-2-2-2-2-2-2-2-2-2-2-2-2-2-2-2-2-2-2-2-2-2-2----|


  T T T T T T T T T T T T T T T T T T T T T T T T T T T T T T T T
|-----------------------------------------------------------------|
|-----------------------------------------------------------------|
|-----------------------------------------------------------------|
|-1-1-1-1-1-1-1-1-1-1-1-1-1-1-1-1-1-1-1-1-1-1-1-1-1-1-1-1-1-1-1-1-|


  H    H      W
|-----------|------|
|-----------|------|
|-1----3----|------|
|-----------|-0----|


  +W           +W           +W           +W
|------------|------------|------------|--------||
|------------|------------|------------|--------||
|------------|------------|------------|--------||
|-(0)--------|-(0)--------|-(0)--------|-(0)----||


 Verse (Gabriel)
                2/4     4/4
  Wx11           W       S H    Q  E S   H    S S S S S S S S
|-------------||------||---------------|----------------------|
|-------------||------||---------------|----------------------|
|-------------||------||---------------|----------------------|
|-------------||------||-3-------------|--------3-3-3-3-3-3-3-|


  S S S S S S S S S S S S S S S S
|---------------------------------|
|---------------------------------|
|---------------0-0-0-0-0-0-0-0-0-|
|-0-0-0-0-0-0-0-------------------|


  S S S S S S S S S S S S S S S S   S S S S S S S S S S S S S S S S
|---------------------------------|---------------------------------|
|---------------------------------|---------------------------------|
|-1-1-1-1-1-1-1-3-3-3-3-3-3-3-3-3-|---------------------------------|
|---------------------------------|-3-3-3-3-3-3-3-3-3-3-3-3-3-3-3-3-|


  S S S S S S S S S S S S S S S S   S S S S S S S S S S S S S S S S
|---------------------------------|---------------------------------|
|---------------------------------|---------------------------------|
|---------------------------------|---------------0-0-0-0-0-0-0-0-0-|
|-3-3-3-3-3-3-3-3-3-3-3-3-3-3-3-3-|-0-0-0-0-0-0-0-------------------|


  S S S S S S S S S S S S S S S S
|---------------------------------||
|---------------------------------||
|-1-1-1-1-1-1-1-3-3-3-3-3-3-3-3-3-||
|---------------------------------||


 Verse (Lugaid)
  S S S S E E E. E E S   +S  S S S E E E S S S S S S
|----------------------|-----------------------------|
|----------------------|-----------------------------|
|-3-3-3-3-1-3-1--------|-------------1-3-3-3-3-3-3-3-|
|----------------3-3-3-|-(3)-3-3-3-3-----------------|


  S S S S E E E. E E S   +S  S S S E E E S S S S S S
|----------------------|------------------------------|
|----------------------|------------------------------|
|-3-3-3-3-1-3-1--------|-------------1-3-3-3-3-3-3-3--|
|----------------3-3-3-|-(3)-3-3-3-3------------------|


  S S S S S S S S Q  +E. S   +H     Q  +E. S
|--------------------------|-----------------|
|--------------------------|-----------------|
|-3-3-3-3-3-3-3-3-1--(1)-3-|-(3)-----------1-|
|--------------------------|--------3--(3)---|


  +H     S S S S S S S S   S S S S S S S S H
|------------------------|----------------------||
|------------------------|----------------------||
|-(1)--------------------|-----------------3----||
|--------3-3-3-3-3-3-3-3-|-3-3-3-3-3-3-3-3------||


           Interlude
 2/4       4/4
  +H        S S S S S S S S S S S S S S S S   S S S S S S S S S S S S S S S S
|--------||---------------------------------|---------------------------------|
|--------||---------------------------------|---------------------------------|
|-(3)----||---------------------------------|---------------------------------|
|--------||-5-5-5-5-5-5-5-5-5-5-5-5-5-5-5-5-|-3-3-3-3-3-3-3-3-3-3-3-3-3-3-3-3-|


  S S S S S S S S S S S S S S S S
|---------------------------------|
|---------------------------------|
|-3-3-3-3-3-3-3-3-3-3-3-3-3-3-3-3-|
|---------------------------------|


  S S S S S S S S S S S S S S S S   S S S S S S S S S S S S S S S S
|---------------------------------|---------------------------------|
|---------------------------------|---------------------------------|
|---------------------------------|---------------------------------|
|-1-1-1-1-1-1-1-1-3-3-3-3-3-3-3-3-|-5-5-5-5-5-5-5-5-5-5-5-5-5-5-5-5-|


  S S S S S S S S S S S S S S S S   S S S S S S S S S S S S S S S S   W
|---------------------------------|---------------------------------|------||
|---------------------------------|---------------------------------|------||
|---------------------------------|-3-3-3-3-3-3-3-3-3-3-3-3-3-3-3-3-|------||
|-3-3-3-3-3-3-3-3-3-3-3-3-3-3-3-3-|---------------------------------|-0----||


  Q.   S S S S E +E  E   Q.   S S S S E +E  E
|----------------------|----------------------|
|----------------------|----------------------|
|----------------------|-0------0---0-0-(0)-0-|
|-2------2-2-2-2-(2)-2-|----------------------|


  Q.   S S S S E +E  E   Q.   S S S S E E E
|----------------------|---------------------|
|----------------------|---------------------|
|----------------------|-3------3---3-3-5-5--|
|-3------3-3-3-3-(3)-3-|---------------------|


  Q.   S S S S E +E  E   Q.   S S S S E +E  E
|----------------------|----------------------|
|----------------------|----------------------|
|----------------------|-0------0---0-0-(0)-0-|
|-2------2-2-2-2-(2)-2-|----------------------|


  Q.   S S S S E +E  E   Q.   S S S S E E E
|----------------------|---------------------||
|----------------------|---------------------||
|----------------------|-3------3---3-3-5-5--||
|-3------3-3-3-3-(3)-3-|---------------------||


 Verse (Gabriel)
  Q.   S S S S E +E  E   Q.   S S S S E +E  E
|----------------------|----------------------|
|----------------------|----------------------|
|----------------------|-0------0---0-0-(0)-0-|
|-2------2-2-2-2-(2)-2-|----------------------|


  Q.   S S S S E +E  E   Q.   S S S S E E E
|----------------------|---------------------|
|----------------------|---------------------|
|----------------------|-3------3---3-3-5-5--|
|-3------3-3-3-3-(3)-3-|---------------------|


  Q.   S S S S E +E  E   Q.   S S S S E +E  E
|----------------------|----------------------|
|----------------------|----------------------|
|----------------------|-0------0---0-0-(0)-0-|
|-2------2-2-2-2-(2)-2-|----------------------|


  Q.   S S S S E +E  E   Q  Q  Q  Q
|----------------------|-------------||
|----------------------|-------------||
|----------------------|-3--3--2--2--||
|-3------3-3-3-3-(3)-3-|-------------||


   Verse (Regrin)
    H    H      H    H      H    H      H    H
||------------|-----------|-----------|------------||
||o-----------|-----------|-----------|-----------o||
||o-----------|------2----|-3---------|-0---------o||
||--5----4----|-2---------|------5----|------0-----||


   Verse (Elderane)
    H    S S Q  S S   H    Q.   S S   Q.   S S Q.   S S   Q.   S S Q.   S S
||------------------|---------------|-------------------|---------------------||
||o-----------------|---------------|-------------------|--------------------o||
||o-----------------|------2----0-2-|-3------3----------|-0------0-----------o||
||--5----4---4--4-5-|-2-------------|----------5------5-|----------0------0---||


   Outro Choruses (Gabriel)
    H    S S Q  S S   H    Q.   S S   Q.   S S Q.   S S   Q.   S S Q.   S S   7x
||------------------|---------------|-------------------|---------------------||
||o-----------------|---------------|-------------------|--------------------o||
||o-----------------|------2----0-2-|-3------3----------|-0------0-----------o||
||--5----4---4--4-5-|-2-------------|----------5------5-|----------0------0---||



Duration Legend
---------------
W - whole; H - half; Q - quarter; E - 8th; S - 16th; T - 32nd; X - 64th; a - acciaccatura
+ - note tied to previous; . - note dotted; .. - note double dotted
Uncapitalized letters represent notes that are staccato (1/2 duration)
Irregular groupings are notated above the duration line
Duration letters will always appear directly above the note/fret number it represents the
duration for.  Duration letters with no fret number below them represent rests.  Multi-
bar rests are notated in the form Wxn, where n is the number of bars to rest for.  Low
melody durations appear below the staff

Tablature Legend
----------------
 h   - hammer-on
 p   - pull-off
 b   - bend
 pb  - pre-bend
 r   - bend release (if no number after the r, then release immediately)
 /\  - slide into or out of (from/to "nowhere")
 s   - legato slide
 S   - shift slide
 - natural harmonic
[n]  - artificial harmonic
n(n) - tapped harmonic
 ~   - vibrato
 tr  - trill
 T   - tap
 TP  - trem. picking
 PM  - palm muting
\n/  - tremolo bar dip; n = amount to dip
 \n  - tremolo bar down
 n/  - tremolo bar up
/n\  - tremolo bar inverted dip
 =   - hold bend; also acts as connecting device for hammers/pulls
 <> - volume swell (louder/softer)
 x   - on rhythm slash represents muted slash
 o   - on rhythm slash represents single note slash

Misc Legend
-----------
 |  - bar
||  - double bar
||o - repeat start
o|| - repeat end
*|  - double bar (ending)
 :  - bar (freetime)
 $  - Segno
 &  - Coda
Tempo markers -  = BPM(8/16=s8/s16), where s8 = swing 8ths, s16 = swing 16ths

comments
We did not receive enough feedback on this tab! Please rate:
print report bad tab
1 2 3 4 5
I want to post or [tab]
guest
You may want to rate the tab now too:
select rating
Please do not post tabs as comments. Select "correction" instead!