Oops, an error
Loading. Please wait.

The Seven Angels Tab

ver1
ver1

Whole song

Interactive

More versions @911Tabs.com
3,046 views 3 this week
no commentswrite comment
1 2 3 4 5
please rate
Autoscroll
+/-
esc
set tempo
stop
Contributor
Tuning
C# G# C# F# A# D#
Hey! There's an official Ultimate Guitar app which is ideal
for learning songs when you're away from computer. Get the app
WARNING: You are trying to view
                                    content from Ultimate-Guitar.com
                                    in an unauthorized application,
                                    which is prohibited.

                                    Please use an official Ultimate
                                    Guitar Tabs application for iPhone,
                                    iPad or Android to access legitimate
                                    chords, guitar, bass, and drum tabs
                                    from Ultimate-Guitar.com database.

                                    Type "ultimate guitar tabs" in Apple
                                    App Store's or Android Market's
                                    search to find the application.
#----------------------------------PLEASE NOTE---------------------------------#
#This file is the author's own work and represents their interpretation of the #
#song. You may only use this file for private study, scholarship, or research. #
#------------------------------------------------------------------------------#

THE SEVEN ANGELS
As recorded by Avantasia
(From the 2001 Album THE METAL OPERA: PT 2)

Transcribed by Ivan - (peekaboo104@hotmail.com)
	

Words and Music by Tobias Sammet

D5
x 5 7 7 x x
	
Bb5
x 1 3 3 x x
	
A5
x 0 2 2 x x
	
B5
x 2 4 4 x x

C5
x 3 5 x x x
	
D5(type 2)
x 5 7 x x x
	
Bb5(type 2)
x 1 3 x x x
	
A5(type 2)
x 0 2 x x x

B5(type 2)
x 2 4 x x x
	
F5
3 3 3 x x x
	
D5/A
x 0 0 x x x

Gtr I (Db Ab Db Gb Bb Eb) - 'Henjo Richter (Lead and Rhythm - Gamma Ray)'
Gtr II (Db Ab Db Gb Bb Eb) - 'Timo Tolkki (Lead - Stratovarius)'
Gtr III (Db Ab Db Gb Bb Eb) - 'Rhythm Guitar'
Gtr IV (Db Ab Db Gb Bb Eb) - 'Tobias Sammet (Synth - Edguy)'
Gtr V (Db Ab Db Gb Bb Eb) - 'Tobias Sammet (Piano - Edguy)'

 Intro (Believers)
  Slowly Q=75 Moderately Q=110
  N.C.             A5    Bb5      C5
 4/4
  Gtrs I, II
  Wx14           S S S E E E +Q   E S
|-------------||----------------------|
|-------------||----------------------|
|-------------||----------------------|
|-------------||---2-2-2-3-3-(3)--5-5-|
|-------------||---0-0-0-1-1-(1)--3-3-|
|-------------||----------------------|


      D5             A5    Bb5      C5
  +E. E H    +E.   S S S E E E +Q   E S
|----------------|------------------------|
|----------------|------------------------|
|----------------|------------------------|
|-(5)-7-7----(7)-|---2-2-2-3-3-(3)--5-5---|
|-(3)-5-5----(5)-|---0-0-0-1-1-(1)--3-3---|
|----------------|------------------------|


               Pre-Verse (Gabriel)
                D5         Bb5        D5
                Gtr II
   W            W          W          W
                |          |          |
                /          /          /

                ~~~~~~~~~~~~~~~~~~~~~~~~
  +W            W          W          W
|------------||-5--------|-6--------|-5----|
|------------||-6--------|-6--------|-6----|
|------------||----------|----------|------|
|-(5)--------||----------|----------|------|
|-(3)--------||----------|----------|------|
|------------||----------|----------|------|


  Bb5        D5                D5                A5             B5
  W          W                 W                 H.           E E
  |          |                 |                 |              |
  /          /                 /                 /              /

  ~
  W          E E E E E E E E   E E E E E E E E   E  E E E E E E E
|-6--------|-----------------|-----------------|------------------|
|-6--------|-----------------|-----------------|------------------|
|----------|-----------------|-----------------|------------------|
|----------|-7-7-7-7-7-7-7-7-|-7-7-7-7-7-7-7-7-|-2--2-2-2-2-2-2-4-|
|----------|-5-5-5-5-5-5-5-5-|-5-5-5-5-5-5-5-5-|-0--0-0-0-0-0-0-2-|
|----------|-----------------|-----------------|------------------|


  C5         D5(type 2) Bb5(type 2)D5(type 2)
  W          W          W          W
  |          |          |          |
  /          /          /          /

             ~~~~~~~~~~~~~~~~~~~~~~~~
  W          W          W          W
|----------|-5--------|-6--------|-5----|
|----------|-6--------|-6--------|-6----|
|-5--------|----------|----------|------|
|-5--------|----------|----------|------|
|-3--------|----------|----------|------|
|----------|----------|----------|------|


  Bb5(type 2)D5(type 2)                          A5(type 2)    B5(type 2)
  W          E E E E E E E E   E E E E E E E E   E E E E E E E E
  |          | | | | | | | |   | | | | | | | |   | | | | | | | |
  /          / / / / / / / /   / / / / / / / /   / / / / / / / /

  ~                                                PM|
  W          E E E E E E E E   E E E E E E E E   E E E E E E E E
|-6--------|-----------------|-----------------|-----------------|
|-6--------|-----------------|-----------------|-----------------|
|----------|-----------------|-----------------|-2-----2---------|
|----------|-7-7-7-7-7-7-7-7-|-7-7-7-7-7-7-7-7-|-2-----2-------4-|
|----------|-5-5-5-5-5-5-5-5-|-5-5-5-5-5-5-5-5-|-0-0-0-0-0-0-0-2-|
|----------|-----------------|-----------------|-----------------|


  C5         D5
  Gtrs I, II
  W           W
|----------|---------------------------------|
|----------|---------------------------------|
|----------|---------------------------------|
|-5--------|--7------------------------------|
|-3--------|--5------------------------------|
|----------|---------------------------------|
|
| Gtr IV
| W           E   E   E   E   E   E   E   E
|----------|-22------22------22------22------|
|----------|-15-(15)-15-(15)-15-(15)-15-(15)-|
|----------|---------------------------------|
|----------|---------------------------------|
|----------|---------------------------------|
|----------|---------------------------------|


  +H.                       Q         W
|----------------------------------|---------------------------------|
|----------------------------------|---------------------------------|
|----------------------------------|---------------------------------|
|-(7)------------------------------|--7------------------------------|
|-(5)------------------------------|--5------------------------------|
|----------------------------------|---------------------------------|
|
|  E    E   E   E   E   E   E   E     E   E   E   E   E   E   E   E
|-22-------22------22------22------|-25------25------25------25------|
|-17--(15)-17-(15)-17-(15)-17-(15)-|-18-(15)-18-(15)-18-(15)-18-(15)-|
|----------------------------------|-19------19------19------19------|
|----------------------------------|---------------------------------|
|----------------------------------|---------------------------------|
|----------------------------------|---------------------------------|


                          Verse (Pope)
                           A5
  +W                       W
|----------------------||----------------------------------------|
|----------------------||o---------------------------------------|
|----------------------||----------------------------------------|
|-(7)------------------||--7-------------------------------------|
|-(5)------------------||o-7-------------------------------------|
|----------------------||--7-------------------------------------|
|
|  E   E  E  E  E E Q      S S S  S  S S S  S S S  S S  S  S S S
|-25--27-29-27-25------||-----------10-8-7-----------7-12-10-8-7-|
|-18--20-22-20-18------||o---7-8-10--------10-6-8-10-------------|
|----------------------||--9-------------------------------------|
|----------------------||----------------------------------------|
|----------------------||o---------------------------------------|
|----------------------||----------------------------------------|


                                       G5    A5
  +H.                           +E     E     Q          Q        H
|------------------------------------------|----------------------------------------|
|------------------------------------------|----------------------------------------|
|------------------------------------------|----------------------------------------|
|-(7)---------------------------(7)----5---|-7\-------------------------------------|
|-(7)---------------------------(7)----5---|-7\-------------------------------------|
|-(7)---------------------------(7)----5---|-7\-------------------------------------|
|
|  S  S S  S  S S S  S S S  S S  S   S S S   S  S S  S  S S S  S S S  S S  S  S S S
|------------10-8-7-----------7-12--10-8-7-|-----------10-8-7-----------7-12-10-8-7-|
|-----7-8-10--------10-6-8-10--------------|----7-8-10--------10-6-8-10-------------|
|--9---------------------------------------|-9--------------------------------------|
|------------------------------------------|----------------------------------------|
|------------------------------------------|----------------------------------------|
|------------------------------------------|----------------------------------------|


                                          Verse (Lugaid)
                                           G5
  W                                        W
|---------------------------------------||----------------------------------|
|---------------------------------------||----------------------------------|
|---------------------------------------||----------------------------------|
|---------------------------------------||-5--------------------------------|
|---------------------------------------||-5--------------------------------|
|---------------------------------------||-5--------------------------------|
|
| S S S  S  S S S  S S S  S S  S  S S S    S S S S S S S S S S S S  S S S S
|----------10-8-7-----------7-12-10-8-7-||---------8-6-5---------5-10-8-6-5-|
|---7-8-10--------10-6-8-10-------------||---5-6-8-------8-4-6-8------------|
|-9-------------------------------------||-7--------------------------------|
|---------------------------------------||----------------------------------|
|---------------------------------------||----------------------------------|
|---------------------------------------||----------------------------------|


                                       A5
  +H                H                  W
|------------------------------------|------------------------------------------|
|------------------------------------|------------------------------------------|
|------------------------------------|------------------------------------------|
|-(5)---------------5----------------|-7----------------------------------------|
|-(5)---------------5----------------|-7----------------------------------------|
|-(5)---------------5----------------|-7----------------------------------------|
|
|  S  S S S S S S S S S S S  S S S S   S S S  S  S S S  S S S  S S  S  S S S
|-----------8-6-5---------5-10-8-6-5-|----------10-8-7-----------7-12-10-8-7----|
|-----5-6-8-------8-4-6-8------------|---7-8-10--------10-6-8-10----------------|
|--7---------------------------------|-9----------------------------------------|
|------------------------------------|------------------------------------------|
|------------------------------------|------------------------------------------|
|------------------------------------|------------------------------------------|


           Verse (Bishop / Jakob)
  A5 C5     A5
 2/4       4/4
  Q   Q     W
|--------||---------------------------------------|
|--------||---------------------------------------|
|--------||---------------------------------------|
|-7--10--||-7-------------------------------------|
|-7--10--||-7-------------------------------------|
|-7--10--||-7-------------------------------------|
|
| W         S S S  S  S S S  S S S  S S  S  S S S
|--------||----------10-8-7-----------7-12-10-8-7-|
|--------||---7-8-10--------10-6-8-10-------------|
|--------||-9-------------------------------------|
|--------||---------------------------------------|
|--------||---------------------------------------|
|--------||---------------------------------------|


              G5  A5
  H.      +E  E   Q          Q        H
|---------------|----------------------------------------|
|---------------|----------------------------------------|
|---------------|----------------------------------------|
|-7-------(7)-5-|-7\-------------------------------------|
|-7-------(7)-5-|-7\-------------------------------------|
|-7-------(7)-5-|-7\-------------------------------------|
|
| W               S  S S  S  S S S  S S S  S S  S  S S S
|---------------|-----------10-8-7-----------7-12-10-8-7-|
|---------------|----7-8-10--------10-6-8-10-------------|
|---------------|-9--------------------------------------|
|---------------|----------------------------------------|
|---------------|----------------------------------------|
|---------------|----------------------------------------|


                                          Verse (Lugaid)
                                           G5
  W                                        W
|---------------------------------------||----------------------------------|
|---------------------------------------||----------------------------------|
|---------------------------------------||----------------------------------|
|---------------------------------------||-5--------------------------------|
|---------------------------------------||-5--------------------------------|
|---------------------------------------||-5--------------------------------|
|
| S S S  S  S S S  S S S  S S  S  S S S    S S S S S S S S S S S S  S S S S
|----------10-8-7-----------7-12-10-8-7-||---------8-6-5---------5-10-8-6-5-|
|---7-8-10--------10-6-8-10-------------||---5-6-8-------8-4-6-8------------|
|-9-------------------------------------||-7--------------------------------|
|---------------------------------------||----------------------------------|
|---------------------------------------||----------------------------------|
|---------------------------------------||----------------------------------|


                                       A5
  +H                H                  W
|------------------------------------|------------------------------------|
|------------------------------------|------------------------------------|
|------------------------------------|------------------------------------|
|-(5)---------------5----------------|-7----------------------------------|
|-(5)---------------5----------------|-7----------------------------------|
|-(5)---------------5----------------|-7----------------------------------|
|
|  S  S S S S S S S S S S S  S S S S   S S S S S S S S S S S S S S S S
|-----------8-6-5---------5-10-8-6-5-|------------------------------------|
|-----5-6-8-------8-4-6-8------------|------------------------------------|
|--7---------------------------------|---------7-5-4---------4-9-7-6-5----|
|------------------------------------|---4-5-7-------7-3-5-7--------------|
|------------------------------------|-7----------------------------------|
|------------------------------------|------------------------------------|


                                      Pre-Chorus (Gabriel)
                                       D5     A5     D5     A5     F5   C5
  +W                                   E E Q  H      E E Q  H      H    H
|-----------------------------------||-------------|-------------|-----------|
|-----------------------------------||-------------|-------------|-----------|
|-----------------------------------||-7-7----2----|-7-7----2----|------5----|
|-(7)-------------------------------||-7-7----2----|-7-7----2----|-3----5----|
|-(7)-------------------------------||-5-5----0----|-5-5----0----|-3----3----|
|-(7)-------------------------------||-------------|-------------|-3---------|
|
|  S  S S S S S S S S S S S S S S S    W             W             W
|-----------------------------------||-------------|-------------|-----------|
|-----------------------------------||-------------|-------------|-----------|
|-----------7-5-4---------4-9-7-6-5-||-------------|-------------|-----------|
|-----4-5-7-------7-3-5-7-----------||-------------|-------------|-----------|
|--7--------------------------------||-------------|-------------|-----------|
|-----------------------------------||-------------|-------------|-----------|


  F5   C5     D5   E5     F5   Bb5    A5
  H    H      H    H      H    H      W
|-----------|-----------|-----------|------|
|-----------|-----------|-----------|------|
|------5----|-7----9----|------3----|-2----|
|-3----5----|-7----9----|-3----3----|-2----|
|-3----3----|-5----7----|-3----1----|-0----|
|-3---------|-----------|-3---------|------|


                 Chorus (Gabriel)
         Bb5C5    F5      A5   C5         D5   Bb5
  +H     Q  Q     H.      Q    W          H    H
|--------------||------------|----------|-----------|
|--------------||------------|----------|-----------|
|-(2)----3--5--||---------2--|-5--------|-7----3----|
|-(2)----3--5--||-3-------2--|-5--------|-7----3----|
|-(0)----1--3--||-3-------0--|-3--------|-5----1----|
|--------------||-3----------|----------|-----------|


  F5   C5     D5      A5   C5         Bb5  C5
  H    H      H.      Q    W          H    H
|-----------|------------|----------|-----------|
|-----------|------------|----------|-----------|
|------5----|-7-------2--|-5--------|-3----5----|
|-3----5----|-7-------2--|-5--------|-3----5----|
|-3----3----|-5-------0--|-3--------|-1----3----|
|-3---------|------------|----------|-----------|


  F5   C5     F5      A5   C5         D5   Bb5
  H    H      H.      Q    W          H    H
|-----------|------------|----------|-----------|
|-----------|------------|----------|-----------|
|------5----|---------2--|-5--------|-7----3----|
|-3----5----|-3-------2--|-5--------|-7----3----|
|-3----3----|-3-------0--|-3--------|-5----1----|
|-3---------|-3----------|----------|-----------|


  F5   C5     D5      A5   C5         Bb5  C5
  H    H      H.      Q    W          H    H
|-----------|------------|----------|-----------|
|-----------|------------|----------|-----------|
|------5----|-7-------2--|-5--------|-3----5----|
|-3----5----|-7-------2--|-5--------|-3----5----|
|-3----3----|-5-------0--|-3--------|-1----3----|
|-3---------|------------|----------|-----------|


  1.                         2.
  F5                   G5     F5
                              Gtr II
  W           W               W          +W
                              |           |
                              /           /

                                                   ~~~
  W          +H     Q  Q      W          +H.       Q
|----------|---------------||----------|---------------||
|----------|--------------o||----------|---------------||
|----------|---------------||----------|---------------||
|-3--------|-(3)----3--5---||-3--------|-(3)-----------||
|-3--------|-(3)----3--5--o||-3--------|-(3)-----------||
|-3--------|-(3)----3--5---||-3--------|-(3)------[5]--||


 Guitar Break
  N.C.
  Gtrs I, II
  PM|   PM|   PM|   PM|   PM|
  S S S S S S S S S S S S S S S S
|---------------------------------|
|---------------------------------|
|---------------------------------|
|-----7-----5-----4-----5-----4h5-|
|-0-0---0-0---0-0---0-0---0-0-----|
|---------------------------------|


  PM|   PM|   PM|   PM|   PM|       PM|   PM|   PM|   PM|   PM|
  S S S S S S S S S S S S S S S S   S S S S S S S S S S S S S S S S
|---------------------------------|---------------------------------|
|---------------------------------|---------------------------------|
|---------------------------------|---------------------------------|
|-----7-----5-----4-----5-----4p2-|-----7-----5-----4-----5-----4h5-|
|-0-0---0-0---0-0---0-0---0-0-----|-0-0---0-0---0-0---0-0---0-0-----|
|---------------------------------|---------------------------------|


                            Guitar Solo I (Henjo)
                             D5
                             Gtr III
  W                           W
                              |
                              /

        ~~~~~~   ~~~~~~
  E. E. S +S  E. S +S  E.     H     E      +E   +E   E
|-------------------------||-13----15b17==(15)r(15)-12-|
|-------------------------||-15----17b18==(17)r(17)-13-|
|-------------------------||---------------------------|
|-7--5--3-(3)-------------||---------------------------|
|-------------7--5-(5)-3--||---------------------------|
|-------------------------||---------------------------|
                              H     E      +E   +E   E


  Bb5                            F5
   W                              W
   |                              |
   /                              /

   Q.    E  E      +E   +E   E    Q   Q   Q   a      +E   +E
|-13-------15b17==(15)r(15)-13-|-13------13--15b17==(15)r(15)-|
|-15----15-17b18==(17)r(17)-13-|-13--13--13--17b18==(17)r(17)-|
|-------17---------------------|-----14-----------------------|
|------------------------------|------------------------------|
|------------------------------|------------------------------|
|------------------------------|------------------------------|
   Q.    E  E      +E   +E   E    Q   Q   Q   a      +E   +E


  C5           N.C.
   W           W
   |
   /

   ~~          PMPM  PM|   PM|   PM|   PM|
   W           S S S S S S S S S S S S S S S S
|-15--------||---------------------------------|
|-17--------||---------------------------------|
|-----------||---------------------------------|
|-----------||-----7-----5-----4-----5-----4h5-|
|-----------||-0-0---0-0---0-0---0-0---0-0-----|
|-----------||---------------------------------|
   W           W


  W
  PMPM  PM|   PM|   PM|   PM|
  S S S S S S S S S S S S S S S S
|-----------------------------------|
|-----------------------------------|
|-----------------------------------|
|-----7-----5-----4-----5-----4p2---|
|-0-0---0-0---0-0---0-0---0-0-------|
|-----------------------------------|
  W


  W                                 W
  PMPM  PM|   PM|   PM|   PM|             ~~~~~~   ~~~~~~
  S S S S S S S S S S S S S S S S   E. E. S +S  E. S +S  E.
|---------------------------------|-------------------------||
|---------------------------------|-------------------------||
|---------------------------------|-------------------------||
|-----7-----5-----4-----5-----4h5-|-7--5--3-(3)-------------||
|-0-0---0-0---0-0---0-0---0-0-----|-------------7--5-(5)-3--||
|---------------------------------|-------------------------||
  W


 Guitar Solo II (Henjo)
     D5                                   Bb5
      W                                    W
      |                                    |
      /                                    /

   a  E.  E.  S  +S   E.  E.  S  +S     a  E.  E.  S  +S   E.  E.  S  +S
|-15h17--15--13-(13)-13--12--10-(10)-|-17h18--17--15-(15)-15--13--12-(12)---|
|----18--17--15-(15)-15--17--15-(15)-|----18--17--15-(15)-15--13------------|
|------------------------------------|----------------------------14-(14)---|
|------------------------------------|--------------------------------------|
|------------------------------------|--------------------------------------|
|------------------------------------|--------------------------------------|
      E.  E.  S  +S   E.  E.  S  +S        E.  E.  S  +S   E.  E.  S  +S


  F5                                   C5            D5
      W                                 W             W            +W
      |                                 |             |             |
      /                                 /             /             /

                                        ~~            ~~            ~~
   a  E.  E.  S  +S   E.  E.  S  +S     W             W             W
|-18h20--18--17-(17)-17--18--17-(17)-|-15--------|---13--------|---17----|
|-20h22--20--18-(18)-18--20--18-(18)-|-17--------|-xh15--------|-xh18----|
|------------------------------------|-----------|-------------|---------|
|------------------------------------|-----------|-------------|---------|
|------------------------------------|-----------|-------------|---------|
|------------------------------------|-----------|-------------|---------|
   a  E.  E.  S  +S   E.  E.  S  +S     W          a  W          a  W


                                 Synth Solo (Tobias)
                                  Slower Q=65
  D5/A                            N.C.
   W               +W              W              W
   |                |
   /                /

  Gtrs I, II, IV                  Gtr IV
   <
   W               +W              H     Q  Q     H     Q  Q
|-20b22=========|=(20)r--------||--------------|--6-----5-----|
|-20b22=========|=(20)r--------||--------5--6--|-----------6--|
|---------------|--------------||--7-----------|--------5--7--|
|--0------------|--(0)---------||-(0)----------|-(0)----------|
|--0------------|--(0)---------||-(0)----------|-(0)----3--5--|
|---------------|--------------||--------------|--------------|
   W               +W             +W             +H     Q  Q


  H    Q  Q    W           H     Q  Q     H     Q  Q
|------------|----------|--------------|--6-----5--8--|
|-5----------|----------|--------5--6--|--------------|
|-5----5-----|-7--------|--7-----------|--------------|
|---------7--|-0--------|-(0)----------|-(0)----------|
|------------|-0--------|-(0)----------|-(0)----------|
|-5----------|----------|--------------|--------------|
  W            W          +W             +W


                                <
  H     Q  Q    H.      +E  E   W           S   S  S  S  S  S  S  S  H
|-3-----------|---------------|----------|--------------20----20-24-25----|
|-------5-----|-3-------(3)---|-6--------|-17-----17-20----20-------------|
|-5--------5--|---------------|----------|-----17-------------------10----|
|----------7--|-0-------(0)---|-0--------|-(0)----------------------------|
|-3--------3--|---------------|-0--------|-(0)-----------------------8----|
|-------------|---------------|----------|--------------------------------|
  H.       Q                    W          +H                        H


   +H       H       H     H
|-(25)-----22----|-20----15----|
|----------------|--1-----1----|
|-------5---7----|--0-----0----|
|---7------------|--------2----|
|-----------5----|--3-----3----|
|----------------|-------------|
    Q   Q   H       H     H


   S  S  S  S  S  S  S  S  H       Q    Q   H
|-------------20----20-24-22----|-29---24--18----|
|-17----17-20----20-------------|----------11----|
|--9-17--------------------7----|-----------7----|
|--------------------------0----|-(0)-------0----|
|--7----------------------------|----------------|
|--2-----------------------0----|-(0)------------|
   H                       H      +H        H


   +H      H       +W             W            +W
|-(18)----20----|--12---------|--15---------|-(15)----|
|-(11)----13----|-(13)--------|-(13)--------|---------|
|--(7)-----9----|--(9)--------|--(9)--------|---7-----|
|--(0)-----0----|--(0)--------|--(0)--------|---0-----|
|---------------|-------------|-------------|---------|
|---------------|-------------|-------------|---------|
   +H      H        W            +W             W


  +W           H    H       H      H      +W
|------------|-----------|--5-----10----|--------||
|------------|-3----6----|--------------|--------||
|-(7)--------|-7---------|-(7)----------|--------||
|-(0)--------|-----------|---------0----|-(0)----||
|------------|-----------|--------------|--------||
|------------|-----------|--------------|--------||
               W           +H      H


 Voice In The Tower (Timo)
  Moderate Rock Q=75
  D5       Bb5       D5       F5   Eb5
  Gtr I
   E E Q    H         E E Q    Q    Q
|------------------|---------------------|
|------------------|---------------------|
|--7--------3------|--7-------10----8----|
|--7--------3------|--7-------10----8----|
|--5--------1------|--5--------8----6----|
|------------------|---------------------|
|
| Gtr II
|  E E Q    H         E E Q    Q    Q
|------------------|---------------------|
|------------------|---------------------|
|--7--------3------|--7------------------|
|--7--------3------|--7--------3----1----|
|--5--------1------|--5--------3----1----|
|------------------|-----------3----1----|
|
| Gtr IV
|  E E Q    H         E E Q    Q    Q
|-13--------9------|-13-------13---11----|
|------------------|---------------------|
|--------7---------|--------7------------|
|------7---10-7-8--|------7---10-7--8----|
|----8-------------|----8-------------10-|
|------------------|---------------------|
   E E E E  E E Q     E E E E  E E  E  E


  D5       Bb5       D5       F5   Eb5
   E E Q    H         E E Q    Q    Q
|------------------|---------------------|
|------------------|---------------------|
|--7--------3------|--7-------10----8----|
|--7--------3------|--7-------10----8----|
|--5--------1------|--5--------8----6----|
|------------------|---------------------|
|
|  E E Q    H         E E Q    Q    Q
|------------------|---------------------|
|------------------|---------------------|
|-----------3------|---------------------|
|--0--------3------|--0--------3----1----|
|--0--------1------|--0--------3----1----|
|--0---------------|--0--------3----1----|
|
|  E E Q    H         E E Q    Q    Q
|-13--------9------|-13-------13---11----|
|------------------|---------------------|
|--------7---------|--------7------------|
|------7---10-7-8--|------7---10-7--8----|
|----8-------------|----8-------------10-|
|------------------|---------------------|
   E E E E  E E Q     E E E E  E E  E  E


  D5      Bb5       D5      F5   Eb5    D5      Bb5       D5      F5   Eb5
  H        H        H        Q   Q      H        H        H        Q   Q
|-----------------|-------------------|-----------------|-------------------|
|-----------------|-------------------|-----------------|-------------------|
|-7--------3------|-7-------10---8----|-7--------3------|-7-------10---8----|
|-7--------3------|-7-------10---8----|-7--------3------|-7-------10---8----|
|-5--------1------|-5--------8---6----|-5--------1------|-5--------8---6----|
|-----------------|-------------------|-----------------|-------------------|
|
| H        H        H        Q   Q      H        H        H        Q   Q
|-----------------|-------------------|-----------------|-------------------|
|-----------------|-------------------|-----------------|-------------------|
|----------3------|-------------------|----------3------|-------------------|
|-0--------3------|-0--------3---1----|-0--------3------|-0--------3---1----|
|-0--------1------|-0--------3---1----|-0--------1------|-0--------3---1----|
|-0---------------|-0--------3---1----|-0---------------|-0--------3---1----|
|
| E E E E  E E Q    E E E E  E E E  E   E E E E  E E Q    E E E E  E E E  E
|-----------------|-------------------|-----------------|-------------------|
|-----------------|-------------------|-----------------|-------------------|
|-------7---------|-------7-----------|-------7---------|-------7-----------|
|-----7---10-7----|-----7---10-7-8----|-----7---10-7----|-----7---10-7-8----|
|-5-8----------8--|-5-8------------10-|-5-8----------8--|-5-8------------10-|
|-----------------|-------------------|-----------------|-------------------|


  D5         Bb5  F5  Eb5  D5                       Bb5  C5 Bb5  D5
  W          H     Q  Q    W                        H    Q  Q    W
|----------|-------------|------------------------|------------|------|
|----------|-------------|------------------------|------------|------|
|-7--------|-3----10--8--|-7----------------------|-3----5--3--|-7----|
|-7--------|-3----10--8--|-7----------------------|-3----5--3--|-7----|
|-5--------|-1-----8--6--|-5----------------------|-1----3--1--|-5----|
|----------|-------------|------------------------|------------|------|
|
| W          H     Q  Q    W                        H    Q  Q    W
|----------|-------------|------------------------|------------|------|
|----------|-------------|------------------------|------------|------|
|----------|-3-----------|------------------------|-3----5--3--|------|
|-0--------|-3-----3--1--|-0----------------------|-3----5--3--|-0----|
|-0--------|-1-----3--1--|-0----------------------|-1----3--1--|-0----|
|-0--------|-------3--1--|-0----------------------|------------|-0----|
|
| W          W             H     S  S  S  S  E  E   W            W
|----------|-------------|------25-30-25-24-25-22-|------------|------|
|----------|-------------|------------------------|------------|------|
|----------|-------------|------------------------|------------|------|
|----------|-------------|------------------------|------------|------|
|----------|-------------|------------------------|------------|------|
|----------|-------------|------------------------|------------|------|


  Bb5  C5 Bb5  D5         Bb5  F5  Eb5  D5           C5  D5
  H    Q  Q    W          H     Q  Q    E E H    E S S   E E H    Q
|------------|----------|-------------|----------------|---------------||
|------------|----------|-------------|----------------|---------------||
|-3----5--3--|-7--------|-3----10--8--|-7------------5-|-7-------------||
|-3----5--3--|-7--------|-3----10--8--|-7------------5-|-7-------------||
|-1----3--1--|-5--------|-1-----8--6--|-5------------3-|-5-------------||
|------------|----------|-------------|----------------|---------------||
|
| H    Q  Q    W          H     Q  Q    E E H    E S S   E E H    Q
|------------|----------|-------------|----------------|---------------||
|------------|----------|-------------|----------------|---------------||
|-3----5--3--|----------|-3-----------|--------------5-|---------------||
|-3----5--3--|-0--------|-3-----3--1--|-0------------5-|-0-------------||
|-1----3--1--|-0--------|-1-----3--1--|-0------------3-|-0-------------||
|------------|-0--------|-------3--1--|-0--------------|-0-------------||


 Guitar Solo III (Timo)
  N.C.(F)
  S    S    S    S    S    S    S    S    S    S    E            +E         +E
|-----------------------------------13---13--------13b15========(13)r======(13)-------|
|---------------13---13---------------------------------------------------------------|
|-----10---10-------------10---10-------------10--------------------------------------|
|-------------------------------------------------------------------------------------|
|-------------------------------------------------------------------------------------|
|-------------------------------------------------------------------------------------|
|
| PM-----------------------------------------------------------------------------------
| T T  T T  T T  T T  T T  T T  T T  T T  T T  T T  T     T T T   T  T T T   T  T T T
|-------------------------------------------------------------------------------------|
|-------------------------------------------------------------------------------------|
|-------------------------------------------------------------------------------------|
|-------------------------------------------------------------------------------------|
|-8-8--8-8--8-8--8-8--8-8--8-8--8-8--8-8--8-8--8-8--8-----8-8-8---8--8-8-8---8--8-8-8-|
|-------------------------------------------------------------------------------------|


  N.C.(E)
  S    S    S    S    S    S    S    S    S    S    E            +E         +E
|---------------15---15-------------17---17--------17b18========(17)r======(17)----------|
|-----13---13-------------13---13-------------13-----------------------------------------|
|----------------------------------------------------------------------------------------|
|----------------------------------------------------------------------------------------|
|----------------------------------------------------------------------------------------|
|----------------------------------------------------------------------------------------|
|
|-----------------------------------------------------------------------------------|
| T T  T T  T T  T T  T T  T T  T T  T T  T T  T T  T     T T T   T  T T T   T  T T T
|----------------------------------------------------------------------------------------|
|----------------------------------------------------------------------------------------|
|----------------------------------------------------------------------------------------|
|----------------------------------------------------------------------------------------|
|-7-7--7-7--7-7--7-7--7-7--7-7--7-7--7-7--7-7--7-7--7-----7-7-7---7--7-7-7---7--7-7-7----|
|----------------------------------------------------------------------------------------|


  N.C.(Eb)
  S    T  T  T  T  T  T  T  T  T  T  T  E            +E         S.      E        +S     S
|-----------15-17----15-17-18-15-17-18-18b20========(18)-------18------18r======(18)---18---|
|-----16-18-------18------------------------------------------------------------------------|
|-------------------------------------------------------------------------------------------|
|-------------------------------------------------------------------------------------------|
|-------------------------------------------------------------------------------------------|
|-------------------------------------------------------------------------------------------|
|
| PM-----------------------------------------------------------------------------------------
| T T  T  T  T  T  T  T  T  T  T  T  T  T     T T T   T  T T T  T  T T  T T T T   T  T  T T
|-------------------------------------------------------------------------------------------|
|-------------------------------------------------------------------------------------------|
|-------------------------------------------------------------------------------------------|
|-------------------------------------------------------------------------------------------|
|-6-6--6--6--6--6--6--6--6--6--6--6--6--6-----6-6-6---6--6-6-6--6--6-6--6-6-6-6---6--6--6-6-|
|-------------------------------------------------------------------------------------------|


  N.C.(Bb)                            N.C.(C)
   Q.                        S    S    S        +S     +S     S    Q
|-18------------------------18---20---20b22====(20)r==(20)---20---20------------------|
|-------------------------------------------------------------------------------------|
|-------------------------------------------------------------------------------------|
|-------------------------------------------------------------------------------------|
|-------------------------------------------------------------------------------------|
|-------------------------------------------------------------------------------------|
|
|--------------------------------------------------------------------------------|
|  T  T T T T T T T T T T T  T T  T T  T     T   T  T   T  T  T T  T T T T T T T T
|-------------------------------------------------------------------------------------|
|-------------------------------------------------------------------------------------|
|-------------------------------------------------------------------------------------|
|-------------------------------------------------------------------------------------|
|--1--1-1-1-1-1-1-1-1-1-1-1--1-1--1-1--3-----3---3--3---3--3--3-3--3-3-3-3-3-3-3-3----|
|-------------------------------------------------------------------------------------|


  N.C.(F)
       |----3----|    |----3----|    |----3----|
  S    S    S    S    S    S    S    S    S    S    E           +E         S    S    S    S    S
|----------13--------15--------17--------18--------18b20r======(18)-------18---18---17---17---15---|
|-----13--------13--------13--------13--------13---------------------------------------------------|
|--------------------------------------------------------------------------------------------------|
|--------------------------------------------------------------------------------------------------|
|--------------------------------------------------------------------------------------------------|
|--------------------------------------------------------------------------------------------------|
|
| PM------------------------------------------------------------------------------------------------
| T T  T T    T    T  T T    T    T  T T    T    T  T    T T T   T  T T T  T T  T T  T T  T T  T T
|--------------------------------------------------------------------------------------------------|
|--------------------------------------------------------------------------------------------------|
|--------------------------------------------------------------------------------------------------|
|--------------------------------------------------------------------------------------------------|
|-8-8--8-8----8----8--8-8----8----8--8-8----8----8--8----8-8-8---8--8-8-8--8-8--8-8--8-8--8-8--8-8-|
|--------------------------------------------------------------------------------------------------|


  N.C.(E)
   ~~~~~~~~~~~~~~~~~~~~~~~~~~~~                ~~~                ~~
   S    +S     +S     S    +E.            S    E.            S    E       S   S
|-15---(15)---(15)---13---(13)-----------12---12------------10---10-------8---8---|
|---------------------------------------------------------------------------------|
|---------------------------------------------------------------------------------|
|---------------------------------------------------------------------------------|
|---------------------------------------------------------------------------------|
|---------------------------------------------------------------------------------|
|
|-------------------------------------------------------------------------------|
|  T T   T  T   T  T  T T   T  T T T T T  T T  T  T T T T T  T T  T T T T T T T T
|---------------------------------------------------------------------------------|
|---------------------------------------------------------------------------------|
|---------------------------------------------------------------------------------|
|---------------------------------------------------------------------------------|
|--7-7---7--7---7--7--7-7---7--7-7-7-7-7--7-7--7--7-7-7-7-7--7-7--7-7-7-7-7-7-7-7-|
|---------------------------------------------------------------------------------|


  N.C.(Eb)
  +S     T  T  T  T  T  T  T  T  T  T  T  T  T  T  T  T  T  T  T  T  T  T  T  T  T  T  T  T  T  T
|-(8)---------------------------------------------------------13-15-16-15-13----13-15-15-16-15-13-|
|-------------------------------13-13-15-16-15-13----13-15-16----------------16-------------------|
|-------------12-12-13-12-13-15-------------------15----------------------------------------------|
|-------13-15-------------------------------------------------------------------------------------|
|-------------------------------------------------------------------------------------------------|
|-------------------------------------------------------------------------------------------------|
|
|  PM------------------------------------------------------------------------------------------|
|  T  T  T  T  T  T  T  T  T  T  T  T  T  T  T  T  T  T  T  T  T  T  T  T  T  T  T  T  T  T  T  T
|-------------------------------------------------------------------------------------------------|
|-------------------------------------------------------------------------------------------------|
|-------------------------------------------------------------------------------------------------|
|-------------------------------------------------------------------------------------------------|
|--6--6--6--6--6--6--6--6--6--6--6--6--6--6--6--6--6--6--6--6--6--6--6--6--6--6--6--6--6--6--6--6-|
|-------------------------------------------------------------------------------------------------|


  Bb5                                                 C5
   T  T  T  T  T  T  T  T  T  T  T  T  T  T  T  T      +E   S  S  E  +E
|-18-16-15----------------------------13-18-18-18b20==(18)-18-18-18-(18)-|
|----------16-13-15-16-15-13-13-13-16------------------------------------|
|------------------------------------------------------------------------|
|------------------------------------------------------------------------|
|------------------------------------------------------------------------|
|------------------------------------------------------------------------|
|
|  H                                                    H
|------------------------------------------------------------------------|
|------------------------------------------------------------------------|
|--3----------------------------------------------------5----------------|
|--3----------------------------------------------------5----------------|
|--1----------------------------------------------------3----------------|
|------------------------------------------------------------------------|


  D5
           ~~~~~~~~~~~~
   E  +E   H       +E   T  T  T  T    H.           a      +E   +E
|-18r(18)-17------(17)-15h17p15----|-------------------------------|
|-------------------------------18p|=17-----------17b18==(17)r(17)-|
|----------------------------------|-------------------------------|
|----------------------------------|-------------------------------|
|----------------------------------|-------------------------------|
|----------------------------------|-------------------------------|
|
|  W                                 +W
|----------------------------------|-------------------------------|
|----------------------------------|-------------------------------|
|----------------------------------|-------------------------------|
|--0-------------------------------|-(0)---------------------------|
|--0-------------------------------|-(0)---------------------------|
|--0-------------------------------|-(0)---------------------------|
|
| Gtr V
|  Q       Q   Q    Q                 Q    Q   Q           Q
|---------20-----------------------|------20-----------------------|
|--6------18--13----6--------------|------18--13-------------------|
|--7------19--14----7--------------|--7---19--14-----------7-------|
|--7------19--15----7--------------|--7---19--15-----------7-------|
|----------------------------------|--5--------------------5-------|
|----------------------------------|-------------------------------|


                                            Verse (Gabriel)
                                             F
   ~~~~~~~~~~~~~~~~~~~~~~~~~
   W                    +W                   W
|--------------------|--------------------||-----------------|
|-15-----------------|-(15)---------------||-----------------|
|--------------------|--------------------||-----------------|
|--------------------|--------------------||-----------------|
|--------------------|--------------------||-----------------|
|--------------------|--------------------||-----------------|
|
| +W                    +W                   W
|--------------------|--------------------||-----------------|
|--------------------|--------------------||-----------------|
|--------------------|--------------------||-----------------|
|-(0)----------------|--(0)---------------||-----------------|
|-(0)----------------|--(0)---------------||-----------------|
|-(0)----------------|--(0)---------------||-----------------|
|
|  E  E  E E E E E E     E  E  E E E E Q     E S S Q  Q  Q
|--------------------|--------------------||-1-----1--1--1---|
|--------------------|--------------------||-1-----1--1--1---|
|--9----10---9---9---|--10----10---9---7--||-2-----2--2--2---|
|-----7----7-7-7-7-7-|------7--7-7---7-7--||-----------------|
|--------------------|--------------------||-----------------|
|--------------------|--------------------||-3-3-3-3--3--3---|


                Dm    C5      Bb5   C5      F
  Gtr V
  Q  Q  Q  Q    Q  Q  Q  Q    Q  Q  Q  Q    Q  Q  Q  Q    Q  Q  Q  Q
|-1--1--1--0--|-------------|-------------|-------------|-------------|
|-1--1--1-----|-6--6--------|-------------|-------------|-------------|
|-2--2--2-----|-7--7--5--5--|-3--3--5--5--|-------------|-------------|
|-------------|-7--7--5--5--|-3--3--5--5--|-------------|-------------|
|-------------|-------3--3--|-1--1--3--3--|-------------|-------------|
|-3--3--3--2--|-0--0--------|-------------|-3--3--3--3--|-3--3--3--2--|


  Dm    C5      Bb5   C5      G
  Q  Q  Q  Q    Q  Q  Q  Q    S E. Q  S E. Q    S E. Q  S E. Q    Q  Q  Q   Q
|-------------|-------------|-----------------|-----------------|--------------|
|-6--6--------|-------------|-----------------|-----------------|--------------|
|-7--7--5--5--|-3--3--5--5--|-----------------|-----------------|--------------|
|-7--7--5--5--|-3--3--5--5--|-5-------5-------|-5-------5-------|--------------|
|-------3--3--|-1--1--3--3--|-----------------|-----------------|--------------|
|-0--0--------|-------------|-5-5--5--5-5--5--|-5-5--5--5-5--5--|-5--7--8--10--|


                                                    2/4
   W                                                  H
|-------------------------------------------------||-------||
|-------------------------------------------------||-------||
|-------------------------------------------------||-------||
|-------------------------------------------------||-------||
|-------------------------------------------------||-------||
|-------------------------------------------------||-------||
|
|  W                                                  H
|-------------------------------------------------||-------||
|-------------------------------------------------||-------||
|-------------------------------------------------||-------||
|-------------------------------------------------||-------||
|-------------------------------------------------||-------||
|-------------------------------------------------||-------||
|
| Gtr V
|  S  S  S  S  S  S  S  S  S  S  S  S  S  S  S  S     H
|-16-------16-16----------17----------17----------||-------||
|----16-18-------16-18-16----16-18-16----16-18-16-||-16----||
|-------------------------------------------------||-------||
|-------------------------------------------------||-------||
|-------------------------------------------------||-------||
|-11----------------------------------------------||-------||


  F5
 4/4
                                                               PM----------|
   S H               Q             E      S    H             S S S S S S S S
|--------------------------------------------|--------------------------------|
|--------------------------------------------|--------------------------------|
|--------------------------------------------|--------------------------------|
|--3-----------------------------------------|-----------------------8-7-5-3--|
|--3-----------------------------------------|-----------------3-5-3----------|
|--3-----------------------------------------|--------------------------------|
|
| Gtr III
|                                                              PM----------|
|  S H               Q             E      S    H             S S S S S S S S
|--------------------------------------------|--------------------------------|
|--------------------------------------------|--------------------------------|
|-10-----------------------------------------|--------------------------------|
|-10-----------------------------------------|--------------------------------|
|--8-----------------------------------------|-----------------------1-0------|
|--------------------------------------------|-----------------3-5-3-----5-3--|
|
|  E   S S S S S S E    S   S   E     S   S    E S S S S S S S S S S S S S S
|----------------5-5---(5)-(5)-(5)---(5)-(5)-|--------------------------------|
|----------------3-3---(3)-(3)-(3)---(3)-(3)-|--------------------------------|
|----------------3-3---(3)-(3)-(3)---(3)-(3)-|--------------------------------|
|----------------3-3---(3)-(3)-(3)---(3)-(3)-|--------------------------------|
|----------------1-1----1---1---1-----1---1--|--------------------------------|
|--3---3-3-3-3-3-----------------------------|-3-3-3-3-3-3-3-3-3-3-3-3-3-3-3--|


  D5          A5               Bb5         C5
    PM------|    PM--------|     PM------|    PM--------|
  E S S S S S E. S S S S S S   E S S S S S E. S S S S S S
|----------------------------|----------------------------|
|----------------------------|----------------------------|
|-7-----------2--------------|-3-----------5--------------|
|-7-7-7-7-7-7-2--2-2-2-2-2-2-|-3-3-3-3-3-3-5--5-5-5-5-5-5-|
|-5-5-5-5-5-5-0--0-0-0-0-0-0-|-1-1-1-1-1-1-3--3-3-3-3-3-3-|
|----------------------------|----------------------------|
|
|   PM------|    PM--------|     PM------|    PM--------|
| E S S S S S E. S S S S S S   E S S S S S E. S S S S S S
|----------------------------|----------------------------|
|----------------------------|----------------------------|
|-7-----------2--------------|-3-----------5--------------|
|-7-7-7-7-7-7-2--2-2-2-2-2-2-|-3-3-3-3-3-3-5--5-5-5-5-5-5-|
|-5-5-5-5-5-5-0--0-0-0-0-0-0-|-1-1-1-1-1-1-3--3-3-3-3-3-3-|
|----------------------------|----------------------------|


  F5
      PM---------|       PM------------|
   E  S  S  S  S  S  E.  S  S  S  S  S  S
|-----------------------------------------|
|-----------------------------------------|
|-----------------------------------------|
|--3--3--3--3--3--3--3---3--3--3--3--3--3-|
|--3--3--3--3--3--3--3---3--3--3--3--3--3-|
|--3--3--3--3--3--3--3---3--3--3--3--3--3-|
|
|     PM---------|       PM------------|
|  E  S  S  S  S  S  E.  S  S  S  S  S  S
|-----------------------------------------|
|-----------------------------------------|
|-10-10-10-10-10-10-10--10-10-10-10-10-10-|
|-10-10-10-10-10-10-10--10-10-10-10-10-10-|
|--8--8--8--8--8--8--8---8--8--8--8--8--8-|
|-----------------------------------------|


      PM---------|     PM----------|
   E  S  S  S  S  S  E S S S S S S S
|------------------------------------|
|------------------------------------|
|------------------------------------|
|--3--3--3--3--3--3--3-------8-7-5-3-|
|--3--3--3--3--3--3--3-3-5-3---------|
|--3--3--3--3--3--3--3---------------|
|
|     PM---------|     PM----------|
|  E  S  S  S  S  S  E S S S S S S S
|------------------------------------|
|------------------------------------|
|-10-10-10-10-10-10-10---------------|
|-10-10-10-10-10-10-10---------------|
|--8--8--8--8--8--8--8-------1-0-----|
|----------------------3-5-3-----5-3-|


  D5          A5               Bb5           C5
    PM------|    PM--------|     PM--------|   PM--------|
  E S S S S S E. S S S S S S   E S S S S S S E S S S S S S
|----------------------------|------------------------------||
|----------------------------|------------------------------||
|-7-----------2--------------|-3-------------5--------------||
|-7-7-7-7-7-7-2--2-2-2-2-2-2-|-3-3-3-3-3-3-3-5-5-5-5-5-5-5--||
|-5-5-5-5-5-5-0--0-0-0-0-0-0-|-1-1-1-1-1-1-1-3-3-3-3-3-3-3--||
|----------------------------|------------------------------||
|
|   PM------|    PM--------|     PM--------|   PM--------|
| E S S S S S E. S S S S S S   E S S S S S S E S S S S S S
|----------------------------|------------------------------||
|----------------------------|------------------------------||
|-7-----------2--------------|-3-------------5--------------||
|-7-7-7-7-7-7-2--2-2-2-2-2-2-|-3-3-3-3-3-3-3-5-5-5-5-5-5-5--||
|-5-5-5-5-5-5-0--0-0-0-0-0-0-|-1-1-1-1-1-1-1-3-3-3-3-3-3-3--||
|----------------------------|------------------------------||


 Verse (Lugaid)
          BbC5Bb5   F5                          BbC5
  PM----|                                           PM-----------
  S S S S E E S +E   E  E  S    +S   S  S  S  E E E S S S S S S
|----------------------------|----------------------------------|
|----------------------------|----------------------------------|
|---------3-5-3-(3)----------|------------------3-5-------------|
|-5-5-5-5-3-5-3-(3)--3--3--3-|--(3)--3--3--3--3-3-5-5-5-5-5-5-5-|
|-3-3-3-3-1-3-1-(1)--3--3--3-|--(3)--3--3--3--3-1-3-3-3-3-3-3-3-|
|--------------------3--3--3-|--(3)--3--3--3--3-----------------|
|
| PM----|                                           PM-----------
| S S S S E E S +E   E  E  S    +S   S  S  S  E E E S S S S S S
|----------------------------|----------------------------------|
|----------------------------|----------------------------------|
|---------3-5-3-(3)----------|------------------3-5-------------|
|-5-5-5-5-3-5-3-(3)-10-10-10-|-(10)-10-10-10-10-3-5-5-5-5-5-5-5-|
|-3-3-3-3-1-3-1-(1)--8--8--8-|--(8)--8--8--8--8-1-3-3-3-3-3-3-3-|
|----------------------------|----------------------------------|


          BbC5Bb5   F5
 -------|
  S S S S E E S +E   E  E  S
|------------------------------|
|------------------------------|
|---------3-5-3-(3)------------|
|-5-5-5-5-3-5-3-(3)--3--3--3---|
|-3-3-3-3-1-3-1-(1)--3--3--3---|
|--------------------3--3--3---|
|
|-------|
| S S S S E E S +E   E  E  S
|------------------------------|
|------------------------------|
|---------3-5-3-(3)------------|
|-5-5-5-5-3-5-3-(3)-10-10-10---|
|-3-3-3-3-1-3-1-(1)--8--8--8---|
|------------------------------|


                   BbC5
                       PM-----------
   +S   S  S  S  E E E S S S S S S
|----------------------------------|
|----------------------------------|
|------------------3-5-------------|
|--(3)--3--3--3--3-3-5-5-5-5-5-5-5-|
|--(3)--3--3--3--3-1-3-3-3-3-3-3-3-|
|--(3)--3--3--3--3-----------------|
|
|                      PM-----------
|  +S   S  S  S  E E E S S S S S S
|----------------------------------|
|----------------------------------|
|------------------3-5-------------|
|-(10)-10-10-10-10-3-5-5-5-5-5-5-5-|
|--(8)--8--8--8--8-1-3-3-3-3-3-3-3-|
|----------------------------------|


                  Bb5    C5         F5       Bb5
 ---------------|
  S S S S S S S S Q  +E. S   +H      Q   +E. S
|--------------------------|-------------------|
|--------------------------|-------------------|
|-----------------3--(3)-5-|-(5)-------------3-|
|-5-5-5-5-5-5-5-5-3--(3)-5-|-(5)-----3---(3)-3-|
|-3-3-3-3-3-3-3-3-1--(1)-3-|-(3)-----3---(3)-1-|
|--------------------------|---------3---(3)---|
|
|---------------|
| S S S S S S S S Q  +E. S   +H      Q   +E. S
|--------------------------|-------------------|
|--------------------------|-------------------|
|-----------------3--(3)-5-|-(5)----10--(10)-3-|
|-5-5-5-5-5-5-5-5-3--(3)-5-|-(5)----10--(10)-3-|
|-3-3-3-3-3-3-3-3-1--(1)-3-|-(3)-----8---(8)-1-|
|--------------------------|-------------------|


                                           C5
         PM|   PM  PM  PM    PM  PM  PM  PM
  +H     S S S S S S S S   S S S S S S S S H
|------------------------|----------------------||
|------------------------|----------------------||
|-(3)--------------------|-2---3---5-------5----||
|-(3)--------2---3---5---|-------------3---5----||
|-(1)----3-3---3---3---3-|---3---3---3---3-3----||
|------------------------|----------------------||
|
|        PM|   PM  PM  PM    PM  PM  PM  PM
| +H     S S S S S S S S   S S S S S S S S H
|------------------------|----------------------||
|------------------------|----------------------||
|-(3)--------------------|-----------------5----||
|-(3)--------------------|-2---3---5-------5----||
|-(1)--------1---3---5---|-------------3---3----||
|--------3-3---3---3---3-|---3---3---3---3------||
|
|  W                       W
|------------------------|----------------------||
|------------------------|----------------------||
|------------------------|----------------------||
|------------------------|----------------------||
|------------------------|----------------------||
|------------------------|----------------------||


           Interlude
            G5
 2/4       4/4
  +H         H              Q   +E   E
|--------||-----------------------------|
|--------||-----------------------------|
|-(5)----||-----------------------------|
|-(5)----||--5--------------5---(5)--5--|
|-(3)----||--5--------------5---(5)--5--|
|--------||--5--------------5---(5)--5--|
|
| +H         H              Q   +E   E
|--------||-----------------------------|
|--------||-----------------------------|
|-(5)----||-12-------------12--(12)-12S=|
|-(5)----||-12-------------12--(12)-12S=|
|-(3)----||-10-------------10--(10)-10S=|
|--------||-----------------------------|
|
|           Gtr V
|  W         S  S S S +H.
|--------||--7--------------------------|
|--------||----10-8---------------------|
|--------||---------7-(7)---------------|
|--------||-----------------------------|
|--------||-----------------------------|
|--------||-----------------------------|


  F5                          C5
   H             Q   +E   E    H                Q  +E  E
|---------------------------|----------------------------|
|---------------------------|----------------------------|
|---------------------------|--5----------------5--(5)-5\|
|--3-------------3---(3)--3-|--5----------------5--(5)-5S|
|--3-------------3---(3)--3-|--3----------------3--(3)-3S|
|--3-------------3---(3)--3-|----------------------------|
|
|  H             Q   +E   E    H                Q  +E  E
|---------------------------|----------------------------|
|---------------------------|----------------------------|
|-10------------10--(10)-10S|==5----------------5--(5)-5S|
|-10------------10--(10)-10S|==5----------------5--(5)-5S|
|--8-------------8---(8)--8S|==3----------------3--(3)-3S|
|---------------------------|----------------------------|
|
|  S S S S +H.                 S  S  S  S  +H.
|--5------------------------|-12-------------------------|
|----8-6--------------------|----15-13-------------------|
|--------5-(5)--------------|----------12-(12)-----------|
|---------------------------|----------------------------|
|---------------------------|----------------------------|
|---------------------------|----------------------------|


  Eb5               F5                  G5
   H                 H                   H              Q   +E   E
|-------------------------------------|-------------------------------|
|-------------------------------------|-------------------------------|
|-------------------------------------|-------------------------------|
|--1-----------------3----------------|--5--------------5---(5)--5----|
|--1-----------------3----------------|--5--------------5---(5)--5----|
|--1-----------------3----------------|--5--------------5---(5)--5----|
|
|  H                 H                   H              Q   +E   E
|-------------------------------------|-------------------------------|
|-------------------------------------|-------------------------------|
|--8----------------10----------------|-12-------------12--(12)-12S===|
|--8----------------10----------------|-12-------------12--(12)-12S===|
|--6-----------------8----------------|-10-------------10--(10)-10S===|
|-------------------------------------|-------------------------------|
|
|  S  S  S  S  +Q    S  S  S  S  +Q      S  S S S +H.
|-15----------------17----------------|--7----------------------------|
|----18-16-------------20-18----------|----10-8-----------------------|
|----------15-(15)-----------17-(17)--|---------7-(7)-----------------|
|-------------------------------------|-------------------------------|
|-------------------------------------|-------------------------------|
|-------------------------------------|-------------------------------|


  F5                          C5
   H             Q   +E   E    H                Q  +E  E
|---------------------------|----------------------------|
|---------------------------|----------------------------|
|---------------------------|--5----------------5--(5)-5\|
|--3-------------3---(3)--3-|--5----------------5--(5)-5\|
|--3-------------3---(3)--3-|--3----------------3--(3)-3\|
|--3-------------3---(3)--3-|----------------------------|
|
|  H             Q   +E   E    H                Q  +E  E
|---------------------------|----------------------------|
|---------------------------|----------------------------|
|-10------------10--(10)-10S|==5----------------5--(5)-5S|
|-10------------10--(10)-10S|==5----------------5--(5)-5S|
|--8-------------8---(8)--8S|==3----------------3--(3)-3S|
|---------------------------|----------------------------|
|
|  S S S S +H.                 S  S  S  S  +H.
|--5------------------------|-12-------------------------|
|----8-6--------------------|----15-13-------------------|
|--------5-(5)--------------|----------12-(12)-----------|
|---------------------------|----------------------------|
|---------------------------|----------------------------|
|---------------------------|----------------------------|


  D5                      E
                          Gtr IV
                           <
   W                       W
|-----------------------|-12----------------------|
|-----------------------|-------------------------|
|-----------------------|--9----------------------|
|--0--------------------|-------------------------|
|--0--------------------|-------------------------|
|--0--------------------|-------------------------|
|
|  W                       W
|-----------------------|-------------------------|
|-----------------------|-------------------------|
|--7--------------------|-------------------------|
|--7--------------------|-------------------------|
|--5--------------------|-------------------------|
|-----------------------|-------------------------|
|
|  S  S  S  S  +H.         E  E  E  E  E  E  E  E
|-14--------------------|-15----------15----17-19-|
|----17-15--------------|-------17----------------|
|----------14-(14)------|----16----16----16-------|
|-----------------------|-------------------------|
|-----------------------|-------------------------|
|-----------------------|-------------------------|


                              F
   +W                          W
|-(12)----------------------|-13----------------------|
|---------------------------|-------------------------|
|--(9)----------------------|-10----------------------|
|---------------------------|-------------------------|
|---------------------------|-------------------------|
|---------------------------|-------------------------|
|
| Gtr V
|   E   E  E  E  E  E  E  E    E  E  E  E  E  E  E  E
|--17-----------17----------|-17----------17----------|
|---------17----------17----|-------18----------18----|
|------17----17----17----17-|----17----17----17----17-|
|---------------------------|-------------------------|
|---------------------------|-------------------------|
|---------------------------|-------------------------|


  E                  F#      G                         E
   H.                 Q       W                         W
|-12-----------------14----|-15----------------------|-12----------------------|
|--------------------------|-------------------------|-------------------------|
|--9-----------------11----|-12----------------------|--9----------------------|
|--------------------------|-------------------------|-------------------------|
|--------------------------|-------------------------|-------------------------|
|--------------------------|-------------------------|-------------------------|
|
|  E   E  E  E  E  E  E  E    E  E  E  E  E  E  E  E    E  E  E  E  E  E  E  E
|-15-----------15----17----|-19----------19----------|-17----------17----------|
|--------17-------17----19-|-------20----------20----|-------17----------17----|
|-----17----17-------------|----21----21----21----21-|----17----17----17----17-|
|--------------------------|-------------------------|-------------------------|
|--------------------------|-------------------------|-------------------------|
|--------------------------|-------------------------|-------------------------|


  A                         G                  D
   W                         H.                 Q
|-------------------------|--------------------10----||
|-10----------------------|--8-----------------------||
|-------------------------|---------------------7----||
|--7----------------------|--5-----------------------||
|-------------------------|--------------------------||
|-------------------------|--------------------------||
|
|  E  E  E  E  E  E  E  E    E   E  E  E  E  E  E  E
|-17----------17----------|-15-----------15----17----||
|-------18----------18----|--------17-------17----19-||
|----17----17----17----17-|-----17----17-------------||
|-------------------------|--------------------------||
|-------------------------|--------------------------||
|-------------------------|--------------------------||


 Verse (Gabriel)
  E                         A                  C       C
   W                         H.                 Q       W
|-12----------------------|-17-----------------20----|-20----------------------|
|-------------------------|--------------------------|-------------------------|
|--9----------------------|-14-----------------17----|-17----------------------|
|-------------------------|--------------------------|-------------------------|
|-------------------------|--------------------------|-------------------------|
|-------------------------|--------------------------|-------------------------|
|
|  E  E  E  E  E  E  E  E    E   E  E  E  E  E  E  E    E  E  E  E  E  E  E  E
|-15----------15----------|-17-----------17----------|-17----------17----------|
|-------17----------17----|--------17----------17----|-------18----------18----|
|----16----16----16----16-|-----17----17----17----17-|----17----17----17----17-|
|-------------------------|--------------------------|-------------------------|
|-------------------------|--------------------------|-------------------------|
|-------------------------|--------------------------|-------------------------|


  E                  F#      E                         A
   H.                 Q       W                         W
|-12-----------------14----|-12----------------------|-17----------------------|
|--------------------------|-------------------------|-------------------------|
|--9-----------------11----|--9----------------------|-14----------------------|
|--------------------------|-------------------------|-------------------------|
|--------------------------|-------------------------|-------------------------|
|--------------------------|-------------------------|-------------------------|
|
|  E   E  E  E  E  E  E  E    E  E  E  E  E  E  E  E    E  E  E  E  E  E  E  E
|-15-----------15----17----|-19----------19----------|-17----------17----------|
|--------17-------17----19-|-------20----------20----|-------17----------17----|
|-----17----17-------------|----21----21----21----21-|----17----17----17----17-|
|--------------------------|-------------------------|-------------------------|
|--------------------------|-------------------------|-------------------------|
|--------------------------|-------------------------|-------------------------|


                              G           F#
   +W                          H           H
|-(17)----------------------|-15----------14----------||
|---------------------------|-------------------------||
|-(14)----------------------|-12----------11----------||
|---------------------------|-------------------------||
|---------------------------|-------------------------||
|---------------------------|-------------------------||
|
|   E   E  E  E  E  E  E  E    E  E  E  E  E  E  E  E
|--17-----------17----------|-15----------14----------||
|---------18----------18----|-------17----------17----||
|------17----17----17----17-|----17----17----16----16-||
|---------------------------|-------------------------||
|---------------------------|-------------------------||
|---------------------------|-------------------------||


   Verse (Regrin)
    G5    G5/F#   E5    B5      C5    G5      A5    D5
    Gtr I
     H     H       H     H       H     H       H     H
||--------------|-------------|-------------|--------------||
||o-------------|-------------|-------------|-------------o||
||--------------|--------4----|--5----------|--2-----7-----||
||---5-----5----|--2-----4----|--5-----5----|--2-----7-----||
||o--5-----5----|--2-----2----|--3-----5----|--0-----5----o||
||---5-----4----|--2----------|--------5----|--------------||
|
|   Gtr II
|    H     H       H     H       H     H       H     H
||--------------|-------------|-------------|--------------||
||o-------------|-------------|-------------|-------------o||
||--------------|-------------|-------------|--2-----------||
||--12----11----|--9-----4----|--5----12----|--2-----0-----||
||o-10-----9----|--7-----2----|--3----10----|--0-----0----o||
||--------------|-------------|-------------|--------0-----||
|
|   Gtr IV
|    H     H       H     H       H     H       H     H
||--15----14----|-12----10----|-12----15----|-17----14-----||
||o-------------|-------------|-------------|-------------o||
||--12----11----|--9-----7----|--9----12----|-14----11-----||
||--------------|-------------|-------------|--------------||
||o-------------|-------------|-------------|-------------o||
||--------------|-------------|-------------|--------------||


   Verse (Elderane)
    G5    G5/F#   E5    B5      C5    G5      A5    D5
     H     H       H     H       H     H       H     H     3x
||--------------|-------------|-------------|--------------||
||o-------------|-------------|-------------|-------------o||
||--------------|--------4----|--5----------|--2-----7-----||
||---5-----5----|--2-----4----|--5-----5----|--2-----7-----||
||o--5-----5----|--2-----2----|--3-----5----|--0-----5----o||
||---5-----4----|--2----------|--------5----|--------------||
|
|    H     H       H     H       H     H       H     H     3x
||--------------|-------------|-------------|--------------||
||o-------------|-------------|-------------|-------------o||
||--------------|-------------|-------------|--2-----------||
||--12----11----|--9-----4----|--5----12----|--2-----0-----||
||o-10-----9----|--7-----2----|--3----10----|--0-----0----o||
||--------------|-------------|-------------|--------0-----||
|
|    H     H       H     H       H     H       H     H     3x
||--15----14----|-12----10----|-12----15----|-17----14-----||
||o-------------|-------------|-------------|-------------o||
||--12----11----|--9-----7----|--9----12----|-14----11-----||
||--------------|-------------|-------------|--------------||
||o-------------|-------------|-------------|-------------o||
||--------------|-------------|-------------|--------------||


   Outro Choruses (Gabriel)
    G5    G5/F#   E5    B5      C5    G5      A5    D5
     H     H       H     H       H     H       H     H     7x
||--------------|-------------|-------------|--------------||
||o-------------|-------------|-------------|-------------o||
||--------------|--------4----|--5----------|--2-----7-----||
||---5-----5----|--2-----4----|--5-----5----|--2-----7-----||
||o--5-----5----|--2-----2----|--3-----5----|--0-----5----o||
||---5-----4----|--2----------|--------5----|--------------||
|
|    H     H       H     H       H     H       H     H     7x
||--------------|-------------|-------------|--------------||
||o-------------|-------------|-------------|-------------o||
||--------------|-------------|-------------|--2-----------||
||--12----11----|--9-----4----|--5----12----|--2-----0-----||
||o-10-----9----|--7-----2----|--3----10----|--0-----0----o||
||--------------|-------------|-------------|--------0-----||
|
|    H     H       H     H       H     H       H     H     7x
||--15----14----|-12----10----|-12----15----|-17----14-----||
||o-------------|-------------|-------------|-------------o||
||--12----11----|--9-----7----|--9----12----|-14----11-----||
||--------------|-------------|-------------|--------------||
||o-------------|-------------|-------------|-------------o||
||--------------|-------------|-------------|--------------||



Duration Legend
---------------
W - whole; H - half; Q - quarter; E - 8th; S - 16th; T - 32nd; X - 64th; a - acciaccatura
+ - note tied to previous; . - note dotted; .. - note double dotted
Uncapitalized letters represent notes that are staccato (1/2 duration)
Irregular groupings are notated above the duration line
Duration letters will always appear directly above the note/fret number it represents the
duration for.  Duration letters with no fret number below them represent rests.  Multi-
bar rests are notated in the form Wxn, where n is the number of bars to rest for.  Low
melody durations appear below the staff

Tablature Legend
----------------
 h   - hammer-on
 p   - pull-off
 b   - bend
 pb  - pre-bend
 r   - bend release (if no number after the r, then release immediately)
 /\  - slide into or out of (from/to "nowhere")
 s   - legato slide
 S   - shift slide
 - natural harmonic
[n]  - artificial harmonic
n(n) - tapped harmonic
 ~   - vibrato
 tr  - trill
 T   - tap
 TP  - trem. picking
 PM  - palm muting
\n/  - tremolo bar dip; n = amount to dip
 \n  - tremolo bar down
 n/  - tremolo bar up
/n\  - tremolo bar inverted dip
 =   - hold bend; also acts as connecting device for hammers/pulls
 <> - volume swell (louder/softer)
 x   - on rhythm slash represents muted slash
 o   - on rhythm slash represents single note slash

Misc Legend
-----------
 |  - bar
||  - double bar
||o - repeat start
o|| - repeat end
*|  - double bar (ending)
 :  - bar (freetime)
 $  - Segno
 &  - Coda
Tempo markers -  = BPM(8/16=s8/s16), where s8 = swing 8ths, s16 = swing 16ths

comments
We did not receive enough feedback on this tab! Please rate:
print report bad tab
1 2 3 4 5
I want to post or [tab]
guest
You may want to rate the tab now too:
select rating
Please do not post tabs as comments. Select "correction" instead!