Oops, an error
Loading. Please wait.

4 00 Am Tab

ver2
ver2

Whole song

More versions @911Tabs.com
9,646 views 1 this week
no commentswrite comment
1 2 3 4 5
accurate
x 7
add to favorites launch autoscroll
font size
0
reset
Autoscroll
+/-
esc
set tempo
stop
Contributor
Difficulty
Tuning
intermediate
D A D G B E
WARNING: You are trying to view
                                    content from Ultimate-Guitar.com
                                    in an unauthorized application,
                                    which is prohibited.

                                    Please use an official Ultimate
                                    Guitar Tabs application for iPhone,
                                    iPad or Android to access legitimate
                                    chords, guitar, bass, and drum tabs
                                    from Ultimate-Guitar.com database.

                                    Type "ultimate guitar tabs" in Apple
                                    App Store's or Android Market's
                                    search to find the application.
AVENGED SEVENFOLD - 4:00AM
WELCOME TO THE FAMILY - EP
(21Dec 2010)
First full tab of 4:00 AM :D
This is my first tab, hope you all like it!

E |--1s8----------10----------8-----6-----|--1s8----------10~---------------------|
B |---------------------------------------|---------------------------------------|
G |---------------------------------------|---------------------------------------|
D |---------------------------------------|---------------------------------------|
A |---------------------------------------|---------------------------------------|
D |---------------------------------------|---------------------------------------|

E |---------------------------------------|---------------------------------------|
B |--6~----5~----4~-----------------------|---------------------------------------|
G |---------------------------------------|---------------------------------------|
D |---------------------------------------|------7--------------7-----------------|
A |---------------------------------------|--5-0---8--------5-0---8---------------|
D |---------------------------------------|----------0-0-0----------0-0-0---------|
                                                     . . .          . . .
E |---------------------------------------|---------------------------------------|
B |---------------------------------------|---------------------------------------|
G |------3--------------3-----------------|---------------------------------------|
D |--5-0---5--------5-0---5---------------|------7-------------------5------------|
A |---------------------------------------|--5-0---8---5-0-5-4-0-4-7---7-4-7------|
D |----------0-0-0----------0-0-0---------|---------------------------------------|
                     . . .          . . . 
E |---------------------------------------|---------------------------------------|
B |---------------------------------------|---------------------------------------|
G |---------------------------------------|---------------------------------------|
D |--0-----0----------0-----0-------------|--5-----5------5-6-5-----5------5-6----|
A |--0-----0----------0-----0-------------|--5-----5------5-6-5-----5------5-6----|
D |--0-0-0-0-0-0-0-0--0-0-0-0-0-0-0-0-----|--5-5-5-5-5-5--5-6-5-5-5-5-5-5--5-6----|
       . .   . . . .    . .   . . . .          . .   . .        . .   . .
E |---------------------------------------|
B |---------------------------------------|
G |---------------------------------------|
D |--0-----0----------2-----2-------------|
A |--0-----0----------2-----2-------------|
D |--0-0-0-0-0-0-0-0--2-2-2-2-2-2-2-2-----|
       . .   . . . .    . .   . . . .
E |---------------------------------------|---------------------------------------|
B |---------------------------------------|---------------------------------------|
G |---------------------------------------|---------------------------------------|
D |--0-----0----------0-----0-------------|--5-----5------5-6-5-----5------5-6----|
A |--0-----0----------0-----0-------------|--5-----5------5-6-5-----5------5-6----|
D |--0-0-0-0-0-0-0-0--0-0-0-0-0-0-0-0-----|--5-5-5-5-5-5--5-6-5-5-5-5-5-5--5-6----|
       . .   . . . .    . .   . . . .          . .   . .        . .   . .
E |---------------------------------------|
B |---------------------------------------|
G |---------------------------------------|
D |--0-----0----------2-----2-------------|
A |--0-----0----------2-----2-------------|
D |--0-0-0-0-0-0-0-0--2-2-2-2-2-2-2-2-----|
       . .   . . . .    . .   . . . .
E |---------------------------------------|---------------------------------------|
B |---------------------------------------|---------------------------------------|
G |---------------------------------------|---------------------------------------|
D |---------------------------------------|---------------------------------------|
A |--------------5----------------5-------|---------------------8-7-6~------------|
D |--0-0-s6-0-s6---0----0-s6-0-s6---------|--0----0-s6-0-s6-7-8~----------3-2-----|

CHORUS: Add in strumming pattern
E |---------------------------------------|---------------------------------------|
B |---------------------------------------|---------------------------------------|
G |---------------------------------------|---------------------------------------|
D |--0------10------9------8---7----------|--0------10------9------8---7----------|
A |--0------10------9------8---7----------|--0------10------9------8---7----------|
D |--0------10------9------8---7----------|--0------10------9------8---7----------|

E |---------------------------------------|---------------------------------------|
B |---------------------------------------|---------------------------------------|
G |---------------------------------------|---------------------------------------|
D |--3-----3s7-----8----------------------|--3-----3s7-----8----------------------|
A |--3-----3s7-----8----------------------|--3-----3s7-----8----------------------|
D |--3-----3s7-----8----------------------|--3-----3s7-----8----------------------|

E |---------------------------------------|---------------------------------------|
B |---------------------------------------|---------------------------------------|
G |---------------------------------------|---------------------------------------|
D |--3--------2--------1------------------|------7--------------7-----------------|
A |--3--------2--------1------------------|--5-0---8--------5-0---8---------------|
D |--3--------2--------1------------------|----------0-0-0----------0-0-0---------|
                                                     . . .          . . .
E |---------------------------------------|---------------------------------------|
B |---------------------------------------|---------------------------------------|
G |------3--------------3-----------------|---------------------------------------|
D |--5-0---5--------5-0---5---------------|------7-------------------5------------|
A |---------------------------------------|--5-0---8---5-0-5-4-0-4-7---7-4-7------|
D |----------0-0-0----------0-0-0---------|---------------------------------------|
             . . .          . . .
E |---------------------------------------|---------------------------------------|
B |---------------------------------------|---------------------------------------|
G |---------------------------------------|---------------------------------------|
D |--0-----0----------0-----0-------------|--5-----5------5-6-5-----5------5-6----|
A |--0-----0----------0-----0-------------|--5-----5------5-6-5-----5------5-6----|
D |--0-0-0-0-0-0-0-0--0-0-0-0-0-0-0-0-----|--5-5-5-5-5-5--5-6-5-5-5-5-5-5--5-6----|
       . .   . . . .    . .   . . . .          . .   . .        . .   . .
E |---------------------------------------|
B |---------------------------------------|
G |---------------------------------------|
D |--0-----0----------2-----2-------------|
A |--0-----0----------2-----2-------------|
D |--0-0-0-0-0-0-0-0--2-2-2-2-2-2-2-2-----|
       . .   . . . .    . .   . . . .
E |---------------------------------------|---------------------------------------|
B |---------------------------------------|---------------------------------------|
G |---------------------------------------|---------------------------------------|
D |--0-----0----------0-----0-------------|--5-----5------5-6-5-----5------5-6----|
A |--0-----0----------0-----0-------------|--5-----5------5-6-5-----5------5-6----|
D |--0-0-0-0-0-0-0-0--0-0-0-0-0-0-0-0-----|--5-5-5-5-5-5--5-6-5-5-5-5-5-5--5-6----|
       . .   . . . .    . .   . . . .          . .   . .        . .   . .
E |---------------------------------------|
B |---------------------------------------|
G |---------------------------------------|
D |--0-----0----------2-----2-------------|
A |--0-----0----------2-----2-------------|
D |--0-0-0-0-0-0-0-0--2-2-2-2-2-2-2-2-----|
       . .   . . . .    . .   . . . .
E |---------------------------------------|---------------------------------------|
B |---------------------------------------|---------------------------------------|
G |---------------------------------------|---------------------------------------|
D |---------------------------------------|---------------------------------------|
A |--------------5----------------5-------|---------------------8-7-6~------------|
D |--0-0-s6-0-s6---0----0-s6-0-s6---------|--0----0-s6-0-s6-7-8~----------3-2-----|

CHORUS: Add in strumming pattern
E |---------------------------------------|---------------------------------------|
B |---------------------------------------|---------------------------------------|
G |---------------------------------------|---------------------------------------|
D |--0------10------9------8---7----------|--0------10------9------8---7----------|
A |--0------10------9------8---7----------|--0------10------9------8---7----------|
D |--0------10------9------8---7----------|--0------10------9------8---7----------|

E |---------------------------------------|---------------------------------------|
B |---------------------------------------|---------------------------------------|
G |---------------------------------------|---------------------------------------|
D |--3-----3s7-----8----------------------|--3-----3s7-----8----------------------|
A |--3-----3s7-----8----------------------|--3-----3s7-----8----------------------|
D |--3-----3s7-----8----------------------|--3-----3s7-----8----------------------|

E |---------------------------------------|
B |---------------------------------------|
G |---------------------------------------|
D |--3--------2--------1------------------|
A |--3--------2--------1------------------|
D |--3--------2--------1------------------|

E |---------------------------------------|---------------------------------------|
B |---------------------------------------|---------------------------------------|
G |---------------------------------------|---------------------------------------|
D |---------------------------------------|---------------------------------------|
A |---------------------------------------|---------------------------------------|
D |--0-s12-11-10-0-10-9-8-7-7-3-3-6-6-2-2-|--0-s12-11-10-0-10-9-8-7-7-3-3-6-6-2-2-|
                          . . . . . . . .                         . . . . . . . .   
E |---------------------------------------|---------------------------------------|
B |---------------------------------------|---------------------------------------|
G |---------------------------------------|---------------------------------------|
D |---------------------------------------|---------------------------------------|
A |---------------------------------------|---------------------------------------|
D |--0-s12-11-10-0-10-9-8-7-7-3-3-6-6-2-2-|--0-s12-11-10-0-10-9-8-7-7-3-3-6-6-2-2-|
                          . . . . . . . .                         . . . . . . . .   
E |--6s10---5s10---3s10---5s8-------------|--6s10---5s10---3s10---5s8-------------|
B |---------------------------------------|---------------------------------------|
G |---------------------------------------|---------------------------------------|
D |---------------------------------------|---------------------------------------|
A |---------------------------------------|---------------------------------------|
D |---------------------------------------|---------------------------------------|

E |--5s10-10-12-13-12---12-13-15-13-------|--13---13-15-16-15---15-16-18----------|
B |---------------------------------------|---------------------------------------|
G |---------------------------------------|---------------------------------------|
D |---------------------------------------|---------------------------------------|
A |---------------------------------------|---------------------------------------|
D |---------------------------------------|---------------------------------------|

E |--16-13----------13-16-13----------13--|--15-12----------12-15-12----------12--|
B |-------13------13--------13------13----|-------13------13--------13------13----|
G |---------13--13------------13--13------|---------12--12------------12--12------|
D |-----------15----------------15--------|-----------14----------------14--------|
A |---------------------------------------|---------------------------------------|
D |---------------------------------------|---------------------------------------|

E |--16-13----------13-16-13----------13--|--15-12----------12-15-12----------12--|
B |-------13------13--------13------13----|-------13------13--------13------13----|
G |---------13--13------------13--13------|---------12--12------------12--12------|
D |-----------15----------------15--------|-----------14----------------14--------|
A |---------------------------------------|---------------------------------------|
D |---------------------------------------|---------------------------------------|

E |--15-11----------11-12~----------------|---------------------------------------|
B |-------11------11----------------------|---------------------------------------|
G |---------12--12------------------------|---------------------------------------|
D |-----------13--------------------------|---------------------------------------|
A |---------------------------------------|---------------------------------------|
D |---------------------------------------|--12~---12-10~---10-9~----9-8~---7~----|

==SOLO==
E |----------10-12-13b15-13~--------------|-----------8-10-12b15-12~--------------|
B |--------10-----------------------------|---------8-----------------------------|
G |------10-------------------------------|-------9-------------------------------|
D |----12---------------------------------|----10---------------------------------|
A |--12-----------------------------------|--10-----------------------------------|
D |---------------------------------------|---------------------------------------|

E |--------------14-15b17-15~-------------|--13-10------10-13-10-12-13-12-10-12---|
B |--------12-15--------------------------|-------11--11--------------------------|
G |------12-------------------------------|---------10----------------------------|
D |----12---------------------------------|---------------------------------------|
A |--14-----------------------------------|---------------------------------------|
D |---------------------------------------|---------------------------------------|

E |----------10-12-13b15-13~--------------|-----------8-10-12b15-12~--------------|
B |--------10-----------------------------|---------8-----------------------------|
G |------10-------------------------------|-------9-------------------------------|
D |----12---------------------------------|----10---------------------------------|
A |--12-----------------------------------|--10-----------------------------------|
D |---------------------------------------|---------------------------------------|

E |--------------14-15b17-15~-------------|--13-10------10-13-10-12-13-12-10-12-13-12-10-12b13~--|
B |--------12-15--------------------------|-------11--11-----------------------------------------|
G |------12-------------------------------|---------10-------------------------------------------|
D |----12---------------------------------|------------------------------------------------------|
A |--14-----------------------------------|------------------------------------------------------|
D |---------------------------------------|------------------------------------------------------|

E |--1s8-8s5s8\-----/8-10-12-12-----------|--13-10-8--8-10------------------------|
B |---------------------------------------|----------------10s6-8-s10-------------|
G |---------------------------------------|---------------------------------------|
D |---------------------------------------|---------------------------------------|
A |---------------------------------------|---------------------------------------|
D |---------------------------------------|---------------------------------------|

E |---------------------12-12-13----------|--15b17~-----17r15-13-15-17-17b18------|
B |--s13-10-s13/-\13-15----------15-13----|---------------------------------------|
G |---------------------------------------|---------------------------------------|
D |---------------------------------------|---------------------------------------|
A |---------------------------------------|---------------------------------------|
D |---------------------------------------|---------------------------------------|

E |--17-15-13-----------------------------|--13-12-11-10-11-12-13-12-11-10-11-12--|
B |-----------17-15-13--------------------|---------------TREMOLO-----------------|
G |--------------------15-14-12-----------|---------------------------------------|
D |-----------------------------15-13~----|---------------------------------------|
A |---------------------------------------|---------------------------------------|
D |---------------------------------------|---------------------------------------|

E |--13-12-11-10-11-12-13-12-11-10--------|--12-11-10-9-10-11-12-11-10-9-s10-8-10-10b13r10~--|
B |-------------TREMOLO-------------------|---------------------TREMOLO----------------------|
G |---------------------------------------|--------------------------------------------------|
D |---------------------------------------|--------------------------------------------------|
A |---------------------------------------|--------------------------------------------------|
D |---------------------------------------|--------------------------------------------------|

CHORUS: Add in strumming pattern
E |---------------------------------------|---------------------------------------|
B |---------------------------------------|---------------------------------------|
G |---------------------------------------|---------------------------------------|
D |--0------10------9------8---7----------|--0------10------9------8---7----------|
A |--0------10------9------8---7----------|--0------10------9------8---7----------|
D |--0------10------9------8---7----------|--0------10------9------8---7----------|

E |---------------------------------------|---------------------------------------|
B |---------------------------------------|---------------------------------------|
G |---------------------------------------|---------------------------------------|
D |--3-----3s7-----8----------------------|--3-----3s7-----8----------------------|
A |--3-----3s7-----8----------------------|--3-----3s7-----8----------------------|
D |--3-----3s7-----8----------------------|--3-----3s7-----8----------------------|

E |---------------------------------------|---------------------------------------|
B |---------------------------------------|---------------------------------------|
G |---------------------------------------|---------------------------------------|
D |--3--------2--------1------------------|--3--------2--------1------------------|
A |--3--------2--------1------------------|--3--------2--------1------------------|
D |--3--------2--------1------------------|--3--------2--------1------------------|

E |---------------------------------------|
B |---------------------------------------|
G |---------------------------------------|
D |------7-------------------5------------|
A |--5-0---8---5-0-5-4-0-4-7---7-4-7------|
D |---------------------------------------|
I want to post or [tab]
guest
You may want to rate the tab now too:
select rating
Please do not post tabs as comments. Select "correction" instead!