Oops, an error
Loading. Please wait.

4 00 Am Tab

ver3
ver3
More versions @911Tabs.com
8,098 views 21 this week
no commentswrite comment
1 2 3 4 5
accurate
x 4
Autoscroll
+/-
esc
set tempo
stop
Contributor
Difficulty
Tuning
intermediate
D A D G B E
Hey! There's an official Ultimate Guitar app which is ideal
for learning songs when you're away from computer. Get the app
WARNING: You are trying to view
                                    content from Ultimate-Guitar.com
                                    in an unauthorized application,
                                    which is prohibited.

                                    Please use an official Ultimate
                                    Guitar Tabs application for iPhone,
                                    iPad or Android to access legitimate
                                    chords, guitar, bass, and drum tabs
                                    from Ultimate-Guitar.com database.

                                    Type "ultimate guitar tabs" in Apple
                                    App Store's or Android Market's
                                    search to find the application.
                  Avenged Sevenfold
                    4:00 A.M. TAB
                    Drop-D tuning

I'm pretty confident that I got most of this right. Let me know for any corrections. Thanks.

E |--1s8----------10----------8-----6-----|--1s8----------10~---------------------|
B |---------------------------------------|---------------------------------------|
G |---------------------------------------|---------------------------------------|
D |---------------------------------------|---------------------------------------|
A |---------------------------------------|---------------------------------------|
D |---------------------------------------|---------------------------------------|

E |---------------------------------------|---------------------------------------|
B |--6~----5~----4~-----------------------|---------------------------------------|
G |---------------------------------------|---------------------------------------|
D |---------------------------------------|------7--------------7-----------------|
A |---------------------------------------|--5-0---8--------5-0---8---------------|
D |---------------------------------------|----------0-0-0----------0-0-0---------|
						              
E |---------------------------------------|---------------------------------------|
B |---------------------------------------|---------------------------------------|
G |------3--------------3-----------------|---------------------------------------|
D |--5-0---5--------5-0---5---------------|------7-------------------5------------|
A |---------------------------------------|--5-0---8---5-0-5-4-0-4-7---7-4-7------|
D |----------0-0-0----------0-0-0---------|---------------------------------------|
	     
E |---------------------------------------|---------------------------------------|
B |---------------------------------------|---------------------------------------|
G |---------------------------------------|---------------------------------------|
D |--0-----0----------0-----0-------------|--5-----5------5-6-5-----5------5-6----|
A |--0-----0----------0-----0-------------|--5-----5------5-6-5-----5------5-6----|
D |--0-0-0-0-0-0-0-0--0-0-0-0-0-0-0-0-----|--5-5-5-5-5-5--5-6-5-5-5-5-5-5--5-6----|
       . .   . . . .    . .   . . . .          . .   . .        . .   . .
E |---------------------------------------|
B |---------------------------------------|
G |---------------------------------------|
D |--0-----0----------5-----5-------------|
A |--0-----0----------3-----3-------------|
D |--0-0-0-0-0-0-0-0--2-2-2-2-2-2-2-2-----|
       . .   . . . .    . .   . . . .
E |---------------------------------------|---------------------------------------|
B |---------------------------------------|---------------------------------------|
G |---------------------------------------|---------------------------------------|
D |--0-----0----------0-----0-------------|--5-----5------5-6-5-----5------5-6----|
A |--0-----0----------0-----0-------------|--5-----5------5-6-5-----5------5-6----|
D |--0-0-0-0-0-0-0-0--0-0-0-0-0-0-0-0-----|--5-5-5-5-5-5--5-6-5-5-5-5-5-5--5-6----|
       . .   . . . .    . .   . . . .          . .   . .        . .   . .
E |---------------------------------------|
B |---------------------------------------|
G |---------------------------------------|
D |--0-----0----------5-----5-------------|
A |--0-----0----------3-----3-------------|
D |--0-0-0-0-0-0-0-0--2-2-2-2-2-2-2-2-----|
       . .   . . . .    . .   . . . .
E |---------------------------------------|---------------------------------------|
B |---------------------------------------|---------------------------------------|
G |---------------------------------------|---------------------------------------|
D |---------------------------------------|---------------------------------------|
A |--------------5----------------5-------|---------------------8-7-6~------------|
D |--0-0-s6-0-s6---0----0-s6-0-s6---------|--0----0-s6-0-s6-7-8~----------3-2-----|

CHORUS: Add in strumming pattern
E |---------------------------------------|---------------------------------------|
B |---------------------------------------|---------------------------------------|
G |----------5------4-------3------2------|----------5------4------3-----2--------|
D |--0-------5------5-------3------2------|--0-------5------5------3-----2--------|
A |--0-------3------2-------1------0------|--0-------3------2------1-----0--------|
D |--0------------------------------------|--0------------------------------------|

E |---------------------------------------|---------------------------------------|
B |---------------------------------------|---------------------------------------|
G |---------------------------------------|---------------------------------------|
D |--3-----3s7-----8----------------------|--3-----3s7-----8----------------------|
A |--3-----3s7-----8----------------------|--3-----3s7-----8----------------------|
D |--3-----3s7-----8----------------------|--3-----3s7-----8----------------------|

E |---------------------------------------|---------------------------------------|
B |---------------------------------------|---------------------------------------|
G |--5--------5--------3------------------|---------------------------------------|
D |--3--------2--------1------------------|------7--------------7-----------------|
A |--3--------3--------1------------------|--5-0---8--------5-0---8---------------|
D |--3--------2--------1------------------|----------0-0-0----------0-0-0---------|
						     
E |---------------------------------------|---------------------------------------|
B |---------------------------------------|---------------------------------------|
G |------3--------------3-----------------|---------------------------------------|
D |--5-0---5--------5-0---5---------------|------7-------------------5------------|
A |---------------------------------------|--5-0---8---5-0-5-4-0-4-7---7-4-7-----|
D |----------0-0-0----------0-0-0---------|---------------------------------------|
             
E |---------------------------------------|---------------------------------------|
B |---------------------------------------|---------------------------------------|
G |---------------------------------------|---------------------------------------|
D |--0-----0----------0-----0-------------|--5-----5------5-6-5-----5------5-6----|
A |--0-----0----------0-----0-------------|--5-----5------5-6-5-----5------5-6----|
D |--0-0-0-0-0-0-0-0--0-0-0-0-0-0-0-0-----|--5-5-5-5-5-5--5-6-5-5-5-5-5-5--5-6----|
       . .   . . . .    . .   . . . .          . .   . .        . .   . .
E |---------------------------------------|
B |---------------------------------------|
G |---------------------------------------|
D |--0-----0----------5-----5-------------|
A |--0-----0----------3-----3-------------|
D |--0-0-0-0-0-0-0-0--2-2-2-2-2-2-2-2-----|
       . .   . . . .    . .   . . . .
E |---------------------------------------|---------------------------------------|
B |---------------------------------------|---------------------------------------|
G |---------------------------------------|---------------------------------------|
D |--0-----0----------0-----0-------------|--5-----5------5-6-5-----5------5-6----|
A |--0-----0----------0-----0-------------|--5-----5------5-6-5-----5------5-6----|
D |--0-0-0-0-0-0-0-0--0-0-0-0-0-0-0-0-----|--5-5-5-5-5-5--5-6-5-5-5-5-5-5--5-6----|
       . .   . . . .    . .   . . . .          . .   . .        . .   . .
E |---------------------------------------|
B |---------------------------------------|
G |---------------------------------------|
D |--0-----0----------5-----5-------------|
A |--0-----0----------3-----3-------------|
D |--0-0-0-0-0-0-0-0--2-2-2-2-2-2-2-2-----|
       . .   . . . .    . .   . . . .
E |---------------------------------------|---------------------------------------|
B |---------------------------------------|---------------------------------------|
G |---------------------------------------|---------------------------------------|
D |---------------------------------------|---------------------------------------|
A |--------------5----------------5-------|---------------------8-7-6~------------|
D |--0-0-s6-0-s6---0----0-s6-0-s6---------|--0----0-s6-0-s6-7-8~----------3-2-----|

CHORUS: Add in strumming pattern
E |---------------------------------------|---------------------------------------|
B |---------------------------------------|---------------------------------------|
G |---------5-------4------3------2-------|----------5-------4------3-----2-------|
D |--0------5-------5------3------2-------|--0-------5-------5------3-----2-------|
A |--0------3-------2------1------0-------|--0-------3-------2------1-----0-------|
D |--0------------------------------------|--0------------------------------------|

E |---------------------------------------|---------------------------------------|
B |---------------------------------------|---------------------------------------|
G |---------------------------------------|---------------------------------------|
D |--3-----3s7-----8----------------------|--3-----3s7-----8----------------------|
A |--3-----3s7-----8----------------------|--3-----3s7-----8----------------------|
D |--3-----3s7-----8----------------------|--3-----3s7-----8----------------------|

E |---------------------------------------|
B |---------------------------------------|
G |--5--------5--------3------------------|
D |--3--------2--------1------------------|
A |--3--------3--------1------------------|
D |--3--------2--------1------------------|

E |---------------------------------------|---------------------------------------|
B |---------------------------------------|---------------------------------------|
G |---------------------------------------|---------------------------------------|
D |---------------------------------------|---------------------------------------|
A |---------------------------------------|---------------------------------------|
D |--0-s12-11-10-0-10-9-8-7-7-3-3-6-6-2-2-|--0-s12-11-10-0-10-9-8-7-7-3-3-6-6-2-2-|
                          . . . . . . . .                         . . . . . . . .   
E |---------------------------------------|---------------------------------------|
B |---------------------------------------|---------------------------------------|
G |---------------------------------------|---------------------------------------|
D |---------------------------------------|---------------------------------------|
A |---------------------------------------|---------------------------------------|
D |--0-s12-11-10-0-10-9-8-7-7-3-3-6-6-2-2-|--0-s12-11-10-0-10-9-8-7-7-3-3-6-6-2-2-|
                          . . . . . . . .                         . . . . . . . .   

(2:59)
E|-------/10-|----/10-|----/10-|--------|                                   
B|--/11------|-/10----|-/8-----|-10/13--|
G|-----------|--------|--------|--------|
D|-----------|--------|--------|--------|   x2
A|-----------|--------|--------|--------|
D|-----------|--------|--------|--------|

(3:13)
E|-10--10--12-13-|-12--12--13-15-|-13--13--15-16-|-15--15--16-18|
B|---------------|---------------|---------------|--------------|
G|---------------|---------------|---------------|--------------|
D|---------------|---------------|---------------|--------------|
A|---------------|---------------|---------------|--------------|
D|---------------|---------------|---------------|--------------|

(3:19)
E|16-13----------13|16-13----------13|15-12----------12|15-12----------12|
B|-----13------13--|-----13------13--|-----13------13--|-----13------13--|
G|-------13--13----|-------13--13----|-------12--12----|-------12--12----|x2
D|---------15------|---------15------|---------14------|---------14------|
A|-----------------|-----------------|-----------------|-----------------|
D|-----------------|-----------------|-----------------|-----------------|

E|-----------------|12-------------|
B|16-13----------13|---------------|
G|-----13------13--|---------------|
D|-------13--13----|---------------|
A|---------15------|---------------|
D|-----------------|---------------|

(3:36)
E|----------|---------|---------|-----------|
B|----------|---------|---------|-----------|
G|----------|---------|---------|-----------|
D|----------|---------|---------|-----------|
A|5--------5|3-------3|2-------2|1-----0----|
D|----------|---------|---------|-----------|

(3:42)
E|-----------13-15b17r15-|--------12-13-15b17r15-|--------10-12-17b18r17-|
B|------15-17------------|------13---------------|------12---------------|
G|----14-----------------|----12-----------------|----10-----------------|
D|--15-------------------|--14-------------------|--12-------------------|
A|17---------------------|15---------------------|14---------------------|
D|-----------------------|-----------------------|-----------------------|

E|13-10--------13-10-12-13-12-10-12-|    |13-12-10-12-|
B|-----11---------------------------|    |------------|
G|-------10--10---------------------| x2 |------------| 
D|---------12-----------------------|    |------------|  
A|----------------------------------|    |------------|
D|----------------------------------|    |------------|

(3:56)
E|------------|--------------|--------------|------------|
B|13---13--/10|/13---13-15-17|17-18-15-13-13|/15-------10|
G|------------|--------------|--------------|----10-12---|
D|------------|--------------|--------------|------------|
A|------------|--------------|--------------|------------|
D|------------|--------------|--------------|------------|

E|------------|----------|------------|17--------|
B|13-13\10/13-|-13-15-17-|17-18-15-13-|----------|
G|------------|----------|------------|----------|
D|------------|----------|------------|----------|
A|------------|----------|------------|----------|
D|------------|----------|------------|----------|

                             |---3---||---3---||---3---||---3---|
E|15b17r15-13-|15--17-17b18-|17-15-13----------------------------------|
B|------------|-------------|---------17-15-13-18-17-15----------------|
G|------------|-------------|---------------------------15-14-12-------|
D|------------|-------------|------------------------------------15-13-|
A|------------|-------------|------------------------------------------|
D|------------|-------------|------------------------------------------|

 |--------6-------||-------6-------||-------6-------||-------6-------|
E|13-12-10-9-10-12-13-12-10-9-10-12-13-12-10-9-10-12-13-12-10-9-10-12-|
B|--------------------------------------------------------------------|
G|--------------------------------------------------------------------|
D|--------------------------------------------------------------------|
A|--------------------------------------------------------------------|
D|--------------------------------------------------------------------|


  |------6------||------6------|
E|12-10-9-8-9-10-12-10-9-8-9-10--10--8--10-|-10/13--\10-|
B|-----------------------------------------|------------|
G|-----------------------------------------|------------|
D|-----------------------------------------|------------|
A|-----------------------------------------|------------|
D|-----------------------------------------|------------|

CHORUS: Add in strumming pattern
E |---------------------------------------|---------------------------------------|
B |---------------------------------------|---------------------------------------|
G |--------5------4------3------2---------|--------5-----4-----3---2--------------|
D |--0-----5------5------3------2---------|--0-----5-----5-----3---2--------------|
A |--0-----3------2------1------0---------|--0-----3-----2-----1---0--------------|
D |--0------------------------------------|--0------------------------------------|

E |---------------------------------------|---------------------------------------|
B |---------------------------------------|---------------------------------------|
G |---------------------------------------|---------------------------------------|
D |--3-----3s7-----8----------------------|--3-----3s7-----8----------------------|
A |--3-----3s7-----8----------------------|--3-----3s7-----8----------------------|
D |--3-----3s7-----8----------------------|--3-----3s7-----8----------------------|

E |---------------------------------------|---------------------------------------|
B |---------------------------------------|---------------------------------------|
G |--5--------5--------3------------------|--5--------5--------3------------------|
D |--3--------2--------1------------------|--3--------2--------1------------------|
A |--3--------3--------1------------------|--3--------3--------1------------------|
D |--3--------2--------1------------------|--3--------2--------1------------------|

E |---------------------------------------|
B |---------------------------------------|
G |---------------------------------------|
D |------7-------------------5------------|
A |--5-0---8---5-0-5-4-0-4-7---7-4-7------|
D |---------------------------------------|
comments
print report bad tab
I want to post or [tab]
guest
You may want to rate the tab now too:
select rating
Please do not post tabs as comments. Select "correction" instead!