Oops, an error
Loading. Please wait.

4 00 Am Tab

ver4
ver4

Whole song

More versions @911Tabs.com
12,243 views 42 this week
4 commentsread comments
1 2 3 4 5
excellent!
x 11
add to favorites launch autoscroll
font size
0
reset
Autoscroll
+/-
esc
set tempo
stop
Contributor
Tuning
D A D G B E
WARNING: You are trying to view
                                    content from Ultimate-Guitar.com
                                    in an unauthorized application,
                                    which is prohibited.

                                    Please use an official Ultimate
                                    Guitar Tabs application for iPhone,
                                    iPad or Android to access legitimate
                                    chords, guitar, bass, and drum tabs
                                    from Ultimate-Guitar.com database.

                                    Type "ultimate guitar tabs" in Apple
                                    App Store's or Android Market's
                                    search to find the application.
Here's my tab for 4:00 am. The other versions lack the harmonies and a few other parts.
I hope you enjoy this tab and please rate and/or comment!




Legend:  /    = slide from lower frets
         \    = slide from higher frets
         ~    = virbato
         .    = palm mute
        [ ]   = natural harmonic
         b    = bend string
         r    = release bend
        sb    = slow bend
         w\   = drop the pitch of the note using the whammy bar
        ===   = tremelo pick
      |--3--| = all notes with this symbol are triplets
        X2    = play multiple times
        ( )   = ghost note (does not need to be picked)
        { }   = just to group up the notes
        '''   = hold note (usually only applied if something changes
                in the note after being held for a little while)




All guitars are tuned to Drop D.

Guitar 1 - Lead and left ear parts.
Guitar 2 - Rythym and right ear parts.
Guitar 3 - Overdubbed rythym when required for harmonized parts.





INTRO




For the harmonics that happen here, I honestly don't know how they vibrato
into the harmonic. I can't find any videos on how u do that. The only thing I
can suggest is that u tap the harmonic somewhere along the string that is
close the pick ups. Thats the best way that I have done it.



Guitar 1
E|----1~/8~''''''h10~----8~'''\[6]~---------1~''/8~''''''/10~'''''''[15]~---|
B|--------------------------------------------------------------------------|
G|--------------------------------------------------------------------------|
D|--------------------------------------------------------------------------|
A|--------------------------------------------------------------------------|
D|--------------------------------------------------------------------------|



Guitar 1
E|-------------------------------------------------------------|
B|-----/6~----5~'''''\4~'''''''[4]~----------------------------|
G|-------------------------------------------------------------|
D|-------------------------------------------------------------|
A|-------------------------------------------------------------|
D|-------------------------------------------------------------|


Guitar 2
E|-------------------------------------------------------------|
B|----/10~----8~------8~'''''''[8]~----------------------------|
G|-------------------------------------------------------------|
D|-------------------------------------------------------------|
A|-------------------------------------------------------------|
D|-------------------------------------------------------------|




LEAD RIFF


Guitars 1 & 2
E|---------------------------------------------------------------------------------------------|
B|---------------------------------------------------------------------------------------------|
G|---------------------------------------------------------------------------------------------|
D|-------7----------------------7----------------5--0--8--5~------------5--0--8--5~------------|
A|-5--0-----8~---0--0--0--5--0-----8~---0--0--0----------------0--0--0----------------0--0--0--|
D|---------------0--0--0----------------0--0--0----------------0--0--0----------------0--0--0--|
                 .  .  .                .  .  .                .  .  .                .  .  .


E|------------------------------------------------|
B|------------------------------------------------|
G|------------------------------------------------|
D|-------7----------------------------5-----------|
A|-5--0-----8----5--0--5--4--0--4--7-----7--4--7--|
D|------------------------------------------------|




VERSE


Guitars 1 & 2
E|-------------------------------------------------|
B|-------------------------------------------------|
G|-------------------------------------------------|
D|-0--------0--------------0--------0--------------|
A|-0--0--0--0--0--0--0--0--0--0--0--0--0--0--0--0--|
D|-0--0--0--0--0--0--0--0--0--0--0--0--0--0--0--0--|
      .  .     .  .  .  .     .  .     .  .  .  .


E|-------------------------------------------------|
B|-------------------------------------------------|
G|-------------------------------------------------|
D|-8--------8--------------8--------8--------------|
A|-5--5--5--5--5--5--------5--5--5--5--5--5--------|
D|-5--5--5--5--5--5--5--6--5--5--5--5--5--5--5--6--|
      .  .     .  .           .  .     .  .


E|-------------------------------------------------|
B|-------------------------------------------------|
G|-------------------------------------------------|
D|-0--------0--------------2--------2--------------|
A|-0--0--0--0--0--0--0--0--3--3--3--3--3--3--3--3--|
D|-0--0--0--0--0--0--0--0--2--2--2--2--2--2--2--2--|
      .  .     .  .  .  .     .  .     .  .  .  .


E|-------------------------------------------------|
B|-------------------------------------------------|
G|-------------------------------------------------|
D|-0--------0--------------0--------0--------------|
A|-0--0--0--0--0--0--0--0--0--0--0--0--0--0--0--0--|
D|-0--0--0--0--0--0--0--0--0--0--0--0--0--0--0--0--|
      .  .     .  .  .  .     .  .     .  .  .  .


E|-------------------------------------------------|
B|-------------------------------------------------|
G|-------------------------------------------------|
D|-8--------8--------------8--------8--------------|
A|-5--5--5--5--5--5--------5--5--5--5--5--5--------|
D|-5--5--5--5--5--5--5--6--5--5--5--5--5--5--5--6--|
      .  .     .  .           .  .     .  .


E|-------------------------------------------------|
B|-------------------------------------------------|
G|-------------------------------------------------|
D|-0--------0--------------2--------2--------------|
A|-0--0--0--0--0--0--0--0--3--3--3--3--3--3--3--3--|
D|-0--0--0--0--0--0--0--0--2--2--2--2--2--2--2--2--|
      .  .     .  .  .  .     .  .     .  .  .  .



PRE-CHORUS RIFF


Guitars 1 & 2
E|----------------------------------------------------|
B|----------------------------------------------------|
G|----------------------------------------------------|
D|----------------------------------------------------|
A|----------------------------------------------------|
D|-0--0-/7--0--0--7-/12--0----0-/7--0--0--7-/12--0----|



E|--------------------------------------------|
B|--------------------------------------------|
G|--------------------------------------------|
D|--------------------------------------------|
A|------------------------8--7--6~---6--------|
D|-0-/7--0--0--5--7--8~-----------------3--2--|




CHORUS


Guitar 1
E|-----------------------------------------------------------------|
B|-----------------------------------------------------------------|
G|-7-------9-------12------10--9---7-------9-------12------10--9---|
D|-----------------------------------------------------------------|
A|-5-------7-------10------8---7---5-------7-------10------8---7---|
D|-----------------------------------------------------------------|


Guitar 2 
E|--------------------------------------------------------------|
B|--------------------------------------------------------------|
G|--------------------------------------------------------------|
D|----------------5-5-5-5---5-5--5-5-5-5---5-5--3-3-3-3-2-2-2-2-|  X2
A|-0-0-0-0---0-0--3-3-3-3---3-3--2-2-2-2---2-2--1-1-1-1-0-0-0-0-|
D|-0-0-0-0---0-0------------------------------------------------|




Guitar 1
E|-------------------------------------------------------------------|
B|-------------------------------------------------------------------|
G|-10--10--10-10-10-10-9--9--9-9-9-9-7--7--7-7-7-7-7---7--7--7-7-7-7-|
D|-------------------------------------------------------------------|
A|-8---8---8--8--8--8--7--7--7-7-7-7-5--5--5-5-5-5-5---5--5--5-5-5-5-|
D|-------------------------------------------------------------------|
                                   X2

Guitar 2
E|-----------------------------------------------------------------|
B|-----------------------------------------------------------------|
G|-----------------------------------------------------------------|
D|-3-3-3-3-3-3-3/7-7-7-7-7-7-7-7-7-8-8-8-8-8-8-8-8-8-8-8-8-8-8-8-8-|
A|-3-3-3-3-3-3-3/7-7-7-7-7-7-7-7-7-8-8-8-8-8-8-8-8-8-8-8-8-8-8-8-8-|
D|-3-3-3-3-3-3-3/7-7-7-7-7-7-7-7-7-8-8-8-8-8-8-8-8-8-8-8-8-8-8-8-8-|
                                X2


Guitar 1
E|-------------------------------------------------|
B|-------------------------------------------------|
G|-10--10--10-10-10-10-9--9--9-9-9-9-8-------------|
D|-------------------------------------------------|
A|-8---8---8--8--8--8--7--7--7-7-7-7-6-------------|
D|-------------------------------------------------|


Guitar 2
E|-----------------------------------------------|
B|-----------------------------------------------|
G|-----------------------------------------------|
D|-3-3-3-3-3-3-3-3-2-2-2-2-2-2-2-2-1-------------|
A|-3-3-3-3-3-3-3-3-3-3-3-3-3-3-3-3-1-------------|
D|-3-3-3-3-3-3-3-3-2-2-2-2-2-2-2-2-1-------------|




LEAD RIFF


Guitars 1 & 2
E|---------------------------------------------------------------------------------------------|
B|---------------------------------------------------------------------------------------------|
G|---------------------------------------------------------------------------------------------|
D|-------7----------------------7----------------5--0--8--5~------------5--0--8--5~------------|
A|-5--0-----8~---0--0--0--5--0-----8~---0--0--0----------------0--0--0----------------0--0--0--|
D|---------------0--0--0----------------0--0--0----------------0--0--0----------------0--0--0--|
                 .  .  .                .  .  .                .  .  .                .  .  .


E|------------------------------------------------|
B|------------------------------------------------|
G|------------------------------------------------|
D|-------7----------------------------5-----------|
A|-5--0-----8----5--0--5--4--0--4--7-----7--4--7--|
D|------------------------------------------------|




VERSE


Guitars 1 & 2
E|-------------------------------------------------|
B|-------------------------------------------------|
G|-------------------------------------------------|
D|-0--------0--------------0--------0--------------|
A|-0--0--0--0--0--0--0--0--0--0--0--0--0--0--0--0--|
D|-0--0--0--0--0--0--0--0--0--0--0--0--0--0--0--0--|
      .  .     .  .  .  .     .  .     .  .  .  .


E|-------------------------------------------------|
B|-------------------------------------------------|
G|-------------------------------------------------|
D|-8--------8--------------8--------8--------------|
A|-5--5--5--5--5--5--------5--5--5--5--5--5--------|
D|-5--5--5--5--5--5--5--6--5--5--5--5--5--5--5--6--|
      .  .     .  .           .  .     .  .


E|-------------------------------------------------|
B|-------------------------------------------------|
G|-------------------------------------------------|
D|-0--------0--------------2--------2--------------|
A|-0--0--0--0--0--0--0--0--3--3--3--3--3--3--3--3--|
D|-0--0--0--0--0--0--0--0--2--2--2--2--2--2--2--2--|
      .  .     .  .  .  .     .  .     .  .  .  .


E|-------------------------------------------------|
B|-------------------------------------------------|
G|-------------------------------------------------|
D|-0--------0--------------0--------0--------------|
A|-0--0--0--0--0--0--0--0--0--0--0--0--0--0--0--0--|
D|-0--0--0--0--0--0--0--0--0--0--0--0--0--0--0--0--|
      .  .     .  .  .  .     .  .     .  .  .  .


E|-------------------------------------------------|
B|-------------------------------------------------|
G|-------------------------------------------------|
D|-8--------8--------------8--------8--------------|
A|-5--5--5--5--5--5--------5--5--5--5--5--5--------|
D|-5--5--5--5--5--5--5--6--5--5--5--5--5--5--5--6--|
      .  .     .  .           .  .     .  .


E|-------------------------------------------------|
B|-------------------------------------------------|
G|-------------------------------------------------|
D|-0--------0--------------2--------2--------------|
A|-0--0--0--0--0--0--0--0--3--3--3--3--3--3--3--3--|
D|-0--0--0--0--0--0--0--0--2--2--2--2--2--2--2--2--|
      .  .     .  .  .  .     .  .     .  .  .  .



PRE-CHORUS RIFF


Guitars 1 & 2
E|----------------------------------------------------|
B|----------------------------------------------------|
G|----------------------------------------------------|
D|----------------------------------------------------|
A|----------------------------------------------------|
D|-0--0-/7--0--0--7-/12--0----0-/7--0--0--7-/12--0----|



E|--------------------------------------------|
B|--------------------------------------------|
G|--------------------------------------------|
D|--------------------------------------------|
A|------------------------8--7--6~---6--------|
D|-0-/7--0--0--5--7--8~-----------------3--2--|




CHORUS


Guitar 1
E|-----------------------------------------------------------------|
B|-----------------------------------------------------------------|
G|-7-------9-------12------10--9---7-------9-------12------10--9---|
D|-----------------------------------------------------------------|
A|-5-------7-------10------8---7---5-------7-------10------8---7---|
D|-----------------------------------------------------------------|


Guitar 2 
E|--------------------------------------------------------------|
B|--------------------------------------------------------------|
G|--------------------------------------------------------------|
D|----------------5-5-5-5---5-5--5-5-5-5---5-5--3-3-3-3-2-2-2-2-|  X2
A|-0-0-0-0---0-0--3-3-3-3---3-3--2-2-2-2---2-2--1-1-1-1-0-0-0-0-|
D|-0-0-0-0---0-0------------------------------------------------|




Guitar 1
E|------------------------------------------------------------------------|
B|------------------------------------------------------------------------|
G|-10-10-10-10---10-10-10-9-9-9-9---9-9-9-7-7-7-7---7-7-7---7-7-7---7-7-7-|
D|------------------------------------------------------------------------|
A|-8--8--8--8----8--8--8--7-7-7-7---7-7-7-5-5-5-5---5-5-5---5-5-5---5-5-5-|
D|------------------------------------------------------------------------|
                                   X2

Guitar 2
E|-----------------------------------------------------------------|
B|-----------------------------------------------------------------|
G|-----------------------------------------------------------------|
D|-3-3-3-3-3-3-3/7-7-7-7-7-7-7-7-7-8-8-8-8-8-8-8-8-8-8-8-8-8-8-8-8-|
A|-3-3-3-3-3-3-3/7-7-7-7-7-7-7-7-7-8-8-8-8-8-8-8-8-8-8-8-8-8-8-8-8-|
D|-3-3-3-3-3-3-3/7-7-7-7-7-7-7-7-7-8-8-8-8-8-8-8-8-8-8-8-8-8-8-8-8-|
                                X2


Guitars 1 & 2
E|-----------------------------------------------|
B|-----------------------------------------------|
G|-----------------------------------------------|
D|-3-3-3-3-3-3-3-3-2-2-2-2-2-2-2-2-1-------------|
A|-3-3-3-3-3-3-3-3-3-3-3-3-3-3-3-3-1-------------|
D|-3-3-3-3-3-3-3-3-2-2-2-2-2-2-2-2-1-------------|




BREAKDOWN


Guitar 1
E|------------------------------------------------------|-----|
B|-3------7-----6-----5-----3-----5-----4-----3\--------|     |
G|-5b7----9b11--8b10--7b9---5b7---7b9---6b8---5b7\------|     |
D|------------------------------------------------------|     |
A|------------------------------------------------------|     |
D|------------------------------------------------------|     |
                                                              |
                                                             X2
Guitar 2                                                      |
E|---------------------------------------------------|        |
B|---------------------------------------------------|        |
G|---------------------------------------------------|        |
D|-0---/12--11--10---0---10---9---8\-----------------|        |
A|-0---/12--11--10---0---10---9---8\-----------------|        |
D|-0---/12--11--10---0---10---9---8\-6-7-3-3-5-6-2-2-|--------|
                                     . . . . . . . .



Guitar 1
E|------------------------------------------------------|-------------|
B|-3------7-----6-----5-----3-----5-----4-----3\--------|             |
G|-5b7----9b11--8b10--7b9---5b7---7b9---6b8---5b7\------|             |
D|------------------------------------------------------|             |
A|------------------------------------------------------|             |
D|------------------------------------------------------|             |
                                                                      |
                                                                      |
Guitar 2                                                              |
E|--------------------------------------------------------------|     |
B|-6-------10-----9------8-------6------8-------7------6\-------|     |
G|-8b10----12b11--11b13--10b12---8b10---10b12---9b11---8b10\----|    X2
D|--------------------------------------------------------------|     |
A|--------------------------------------------------------------|     |
D|--------------------------------------------------------------|     |
                                                                      |
                                                                      |
Guitar 3                                                              |
E|---------------------------------------------------|                |
B|---------------------------------------------------|                |
G|---------------------------------------------------|                |
D|-0---/12--11--10---0---10---9---8\-----------------|                |
A|-0---/12--11--10---0---10---9---8\-----------------|                |
D|-0---/12--11--10---0---10---9---8\-6-7-3-3-5-6-2-2-|----------------|
                                     . . . . . . . .



BRIDGE


Guitar 1
E|-6~'''/10~\---5~'''/10~\---3~'''/10~\---5~'''/8~\---|--------|
B|----------------------------------------------------|        |
G|----------------------------------------------------|        |
D|----------------------------------------------------|        |
A|----------------------------------------------------|        |
D|----------------------------------------------------|        |
                                                               |
                                                               |
Guitar 2                                                       |
E|-10~'''/13~\---8~'''/13~\---6~'''/13~\---8~'''/12~\---|      |
B|------------------------------------------------------|      |
G|------------------------------------------------------|     X2
D|------------------------------------------------------|      |
A|------------------------------------------------------|      |
D|------------------------------------------------------|      |
                                                               |
                                                               |
Guitar 3                                                       |
E|--------------------------------------------------------|    |
B|--------------------------------------------------------|    |
G|--------------------------------------------------------|    |
D|---------------5-----5--5----3-----3--3-----------------|    |
A|-5-----5--5----3-----3--3----1-----1--1----5---\3--3----|    |
D|-5-----5--5--------------------------------5---\3--3----|----|



Guitar 1
E|-10---10--12-13---12---12--13-15---13---13--15-17---15---15--17-18\--|
B|---------------------------------------------------------------------|
G|---------------------------------------------------------------------|
D|---------------------------------------------------------------------|
A|---------------------------------------------------------------------|
D|---------------------------------------------------------------------|

Guitar 2
E|-13---13--15-17---15---15--17-18---17---17--18-20---18---18--20-22\--|
B|---------------------------------------------------------------------|
G|---------------------------------------------------------------------|
D|---------------------------------------------------------------------|
A|---------------------------------------------------------------------|
D|---------------------------------------------------------------------|

Guitar 3
E|-----------------------------------------------------------|
B|-----------------------------------------------------------|
G|-----------------------------------------------------------|
D|-7----------7----------7------7----------7----------7------|
A|-5--5-5-5-5-5--5-5-5-5-5--5-5-4--4-4-4-4-4--4-4-4-4-4--4-4-|
D|-----------------------------------------------------------|
      . . . .    . . . .    . .    . . . .    . . . .    . .

E|-----------------------------------------------------------|
B|-----------------------------------------------------------|
G|-----------------------------------------------------------|
D|-----------------------------------------------------------|
A|-3----------3----------3------3----------3----------3------|
D|-3--3-3-3-3-3--3-3-3-3-3--3-3-2--2-2-2-2-2--2-2-2-2-2--2-2-|
      . . . .    . . . .    . .    . . . .    . . . .    . .



Guitar 1
E|-16--13----------------------13--16--13----------------------13--|
B|---------13--------------13--------------13--------------13------|
G|-------------13------13----------------------13------13----------|
D|-----------------15------------------------------15--------------|
A|-----------------------------------------------------------------|
D|-----------------------------------------------------------------|


Guitar 2
E|-20--16----------------------16--20--16----------------------16--|
B|---------18--------------18--------------18--------------18------|
G|-------------17------17----------------------17------17----------|
D|-----------------18------------------------------18--------------|
A|-----------------------------------------------------------------|
D|-----------------------------------------------------------------|


Guitar 3
E|-------------------------------------------------|
B|-------------------------------------------------|
G|-------------------------------------------------|
D|-------3-----------3-----------3-----------3-----|
A|-------3-----------3-----------3-----------3-----|
D|-3--3--3-----3--3--3-----3--3--3-----3--3--3-----|
   .  .        .  .        .  .        .  .



Guitar 1
E|-15--12----------------------12--15--12----------------------12--|
B|---------13--------------13--------------13--------------13------|
G|-------------12------12----------------------12------12----------|
D|-----------------14------------------------------14--------------|
A|-----------------------------------------------------------------|
D|-----------------------------------------------------------------|


Guitar 2
E|-20--15----------------------15--20--15----------------------15--|
B|---------17--------------17--------------17--------------17------|
G|-------------17------17----------------------17------17----------|
D|-----------------17------------------------------17--------------|
A|-----------------------------------------------------------------|
D|-----------------------------------------------------------------|


Guitar 3
E|-------------------------------------------------|
B|-------------------------------------------------|
G|-------------------------------------------------|
D|-------2-----------2-----------2-----------2-----|
A|-------3-----------3-----------3-----------3-----|
D|-2--2--2-----2--2--2-----2--2--2-----2--2--2-----|
   .  .        .  .        .  .        .  .



Guitar 1
E|-16--13----------------------13--16--13----------------------13--|
B|---------13--------------13--------------13--------------13------|
G|-------------13------13----------------------13------13----------|
D|-----------------15------------------------------15--------------|
A|-----------------------------------------------------------------|
D|-----------------------------------------------------------------|


Guitar 2
E|-20--16----------------------16--20--16----------------------16--|
B|---------18--------------18--------------18--------------18------|
G|-------------17------17----------------------17------17----------|
D|-----------------18------------------------------18--------------|
A|-----------------------------------------------------------------|
D|-----------------------------------------------------------------|


Guitar 3
E|------------------------------------------------------|
B|------------------------------------------------------|
G|------------------------------------------------------|
D|---------3------------3------------3------------3-----|
A|---------3------------3------------3------------3-----|
D|-3-3-3-3-3----3-3-3-3-3----3-3-3-3-3----3-3-3-3-3-----|
   . . . .      . . . .      . . . .      . . . .



Guitar 1
E|-15--12----------------------12--15--12----------------------12--|
B|---------13--------------13--------------13--------------13------|
G|-------------12------12----------------------12------12----------|
D|-----------------14------------------------------14--------------|
A|-----------------------------------------------------------------|
D|-----------------------------------------------------------------|


Guitar 2
E|-20--15----------------------15--20--15----------------------15--|
B|---------17--------------17--------------17--------------17------|
G|-------------17------17----------------------17------17----------|
D|-----------------17------------------------------17--------------|
A|-----------------------------------------------------------------|
D|-----------------------------------------------------------------|


Guitar 3
E|------------------------------------------------------|
B|------------------------------------------------------|
G|------------------------------------------------------|
D|---------2------------2------------2------------2-----|
A|---------3------------3------------3------------3-----|
D|-2-2-2-2-2----2-2-2-2-2----2-2-2-2-2----2-2-2-2-2-----|
   . . . .      . . . .      . . . .      . . . .



Guitar 1
E|-15--11----------------------11--12~--------|
B|---------11--------------11-----------------|
G|-------------12------12---------------------|
D|-----------------13-------------------------|
A|--------------------------------------------|
D|--------------------------------------------|


Guitar 2
E|-18------15----------------------15b~-------|
B|-----16----------16----------16-------------|
G|-------------15------15---------------------|
D|-------------------------17-----------------|
A|--------------------------------------------|
D|--------------------------------------------|


Guitar 3
E|-----------------------------|
B|-----------------------------|
G|-----------------------------|
D|-1---1---1--2----------------|
A|-1---1---1--2----------------|
D|-1---1---1--2----------------|




INTERLUDE


Guitar 1
E|----------------------------------------------------------|
B|----------------------------------------------------------|
G|----------------------------------------------------------|
D|----------------------------------------------------------|
A|----------------------------------------------------------|
D|-/12--12~-----12--10--10~-----10--9--9~----9--8-8-8-/7~---|


Guitar 2
E|-------------------------------------------------------|
B|-------------------------------------------------------|
G|-------------------------------------------------------|
D|-------------------------------------------------------|
A|-/8--8~-----8--7--7~-----7-/10--10~-----10\-5-5-5-4~---|
D|-------------------------------------------------------|


Guitar 3
E|----------------------------------------------------|
B|----------------------------------------------------|
G|----------------------------------------------------|
D|-00000-------55555-------55555-------33333--22222---|
A|-00000-------33333-------22222-------11111--00000---|
D|-00000----------------------------------------------|




SOLO


Guitar 1
E|-------------10-12-13b15---13------------8-11-12b15---12--------------10-14-15b17---15--|
B|----------10---------------------------8---------------------------12-------------------|
G|-------10----------------------------9--------------------------12----------------------|
D|----12----------------------------10-------------------------12-------------------------|
A|-12----------------------------10-------------------------14----------------------------|
D|----------------------------------------------------------------------------------------|


E|-13-10----------10-13-10-12-13-12-10-12~-----|
B|-------11----11------------------------------|
G|----------10---------------------------------|
D|---------------------------------------------|
A|---------------------------------------------|
D|---------------------------------------------|


E|-------------10-12-13b15---13------------8-11-12b15---12--------------10-14-15b17---15--|
B|----------10---------------------------8---------------------------12-------------------|
G|-------10----------------------------9--------------------------12----------------------|
D|----12----------------------------10-------------------------12-------------------------|
A|-12----------------------------10-------------------------14----------------------------|
D|----------------------------------------------------------------------------------------|


E|-13-10----------10-13-10-12-13-12-10-12-13-12-10-12~---|
B|-------11----11----------------------------------------|
G|----------10-------------------------------------------|
D|-------------------------------------------------------|
A|-------------------------------------------------------|
D|-------------------------------------------------------|


Guitar 2 
E|--------------------------------------------------------------|
B|--------------------------------------------------------------|
G|--------------------------------------------------------------|
D|----------------5-5-5-5---5-5--5-5-5-5---5-5--3-3-3-3-2-2-2-2-|  X4
A|-0-0-0-0---0-0--3-3-3-3---3-3--2-2-2-2---2-2--1-1-1-1-0-0-0-0-|
D|-0-0-0-0---0-0------------------------------------------------|



Guitar 1
E|--------------------------------------------------------------------------|
B|-/13~----13~\10-/13~----13--15--17-17---18-15---13---13---15-\6--8-/10~---|
G|--------------------------------------------------------------------------|
D|--------------------------------------------------------------------------|
A|--------------------------------------------------------------------------|
D|--------------------------------------------------------------------------|


Guitar 2
E|-------------------------------------------------------------------------|
B|-/10~----10~\6-/10~----10--11--13-13---15-11---10---10---11--------------|
G|------------------------------------------------------------\7--9-/10~---|
D|-------------------------------------------------------------------------|
A|-------------------------------------------------------------------------|
D|-------------------------------------------------------------------------|



Guitar 1
E|-------------------------------------------------/17~-----|
B|-(10~)/13--10-/13~----13--15--17-17---18-15---13----------|
G|----------------------------------------------------------|
D|----------------------------------------------------------|
A|----------------------------------------------------------|
D|----------------------------------------------------------|


Guitar 2
E|-----------------------------------------------------------|
B|-/10~----10~\6-/10~----10--11--13-13---15-11---10-/18~-----|
G|-----------------------------------------------------------|
D|-----------------------------------------------------------|
A|-----------------------------------------------------------|
D|-----------------------------------------------------------|


 
Guitar 1
E|-17b18"""r17--13~---15~---17~---17b18-----17-15-------------------------------|
B|------------------------------------------------18-17-15----------------------|
G|---------------------------------------------------------17-15-14-------------|
D|------------------------------------------------------------------17-15-13~---|
A|------------------------------------------------------------------------------|
D|------------------------------------------------------------------------------|


Guitar 2
E|-20b21"""r20--17~---18~---20~-------------------------------------------------|
B|-------------------------------/18b20-----18-17-15-13-------------------------|
G|------------------------------------------------------15-14-12----------12~---|
D|---------------------------------------------------------------15-14-12-------|
A|------------------------------------------------------------------------------|
D|------------------------------------------------------------------------------|



Guitar 3
E|-----------------------------------------------------------------|
B|-----------------------------------------------------------------|
G|-----------------------------------------------------------------|
D|-3-3-3-3-3-3-3/7-7-7-7-7-7-7-7-7-8-8-8-8-8-8-8-8-8-8-8-8-8-8-8-8-|
A|-3-3-3-3-3-3-3/7-7-7-7-7-7-7-7-7-8-8-8-8-8-8-8-8-8-8-8-8-8-8-8-8-|
D|-3-3-3-3-3-3-3/7-7-7-7-7-7-7-7-7-8-8-8-8-8-8-8-8-8-8-8-8-8-8-8-8-|
                                X2

Guitar 3
E|-----------------------------------------------|
B|-----------------------------------------------|
G|-----------------------------------------------|
D|-3-3-3-3-3-3-3-3-2-2-2-2-2-2-2-2-1-------------|
A|-3-3-3-3-3-3-3-3-3-3-3-3-3-3-3-3-1-------------|
D|-3-3-3-3-3-3-3-3-2-2-2-2-2-2-2-2-1-------------|



Guitar 1
E|-{13-12-11-10-11-12}X4-13-12-11-9-10-11-12-11-10-9-10-11-/10---8---10--10b13r10---|
B|----------------------------------------------------------------------------------|
G|----------------------------------------------------------------------------------|
D|----------------------------------------------------------------------------------|
A|----------------------------------------------------------------------------------|
D|----------------------------------------------------------------------------------|

Guitar 2
E|-{17-16-15-13-15-16}X4-17-16-15-12-13-14-15-14-13-12-13-14-/13---12---13--15b17r13---|
B|-------------------------------------------------------------------------------------|
G|-------------------------------------------------------------------------------------|
D|-------------------------------------------------------------------------------------|
A|-------------------------------------------------------------------------------------|
D|-------------------------------------------------------------------------------------|

Guitar 3
E|---------------------------------------------------|
B|---------------------------------------------------|
G|---------------------------------------------------|
D|-7-7-7-7-7----------3-3-3-3-3----------------------|
A|-5-5-5-5-5----------1-1-1-1-1------/7----5----3----|
D|-----------------------------------/7----5----3----|




FINAL CHORUS


Guitar 1
E|-----------------------------------------------------------------|
B|-----------------------------------------------------------------|
G|-7-------9-------12------10--9---7-------9-------12------10--9---|
D|-----------------------------------------------------------------|
A|-5-------7-------10------8---7---5-------7-------10------8---7---|
D|-----------------------------------------------------------------|


Guitar 2 
E|--------------------------------------------------------------|
B|--------------------------------------------------------------|
G|--------------------------------------------------------------|
D|----------------5-5-5-5---5-5--5-5-5-5---5-5--3-3-3-3-2-2-2-2-|  X2
A|-0-0-0-0---0-0--3-3-3-3---3-3--2-2-2-2---2-2--1-1-1-1-0-0-0-0-|
D|-0-0-0-0---0-0------------------------------------------------|




Guitar 1
E|-------------------------------------------------------------------|
B|-------------------------------------------------------------------|
G|-10--10--10-10-10-10-9--9--9-9-9-9-7--7--7-7-7-7-7---7--7--7-7-7-7-|
D|-------------------------------------------------------------------|
A|-8---8---8--8--8--8--7--7--7-7-7-7-5--5--5-5-5-5-5---5--5--5-5-5-5-|
D|-------------------------------------------------------------------|
                                   X2

Guitar 2
E|-----------------------------------------------------------------|
B|-----------------------------------------------------------------|
G|-----------------------------------------------------------------|
D|-3-3-3-3-3-3-3/7-7-7-7-7-7-7-7-7-8-8-8-8-8-8-8-8-8-8-8-8-8-8-8-8-|
A|-3-3-3-3-3-3-3/7-7-7-7-7-7-7-7-7-8-8-8-8-8-8-8-8-8-8-8-8-8-8-8-8-|
D|-3-3-3-3-3-3-3/7-7-7-7-7-7-7-7-7-8-8-8-8-8-8-8-8-8-8-8-8-8-8-8-8-|
                                X2


Guitar 1
E|-------------------------------------------------|
B|-------------------------------------------------|
G|-10--10--10-10-10-10-9--9--9-9-9-9-8-------------|
D|-------------------------------------------------|
A|-8---8---8--8--8--8--7--7--7-7-7-7-6-------------|
D|-------------------------------------------------|


Guitar 2
E|-----------------------------------------------|
B|-----------------------------------------------|
G|-----------------------------------------------|
D|-3-3-3-3-3-3-3-3-2-2-2-2-2-2-2-2-1-------------|
A|-3-3-3-3-3-3-3-3-3-3-3-3-3-3-3-3-1-------------|
D|-3-3-3-3-3-3-3-3-2-2-2-2-2-2-2-2-1-------------|



Guitar 1
E|-------------------------------------------------|
B|-------------------------------------------------|
G|-10--10--10-10-10-10-9--9--9-9-9-9-8-------------|
D|-------------------------------------------------|
A|-8---8---8--8--8--8--7--7--7-7-7-7-6-------------|
D|-------------------------------------------------|


Guitar 2
E|-----------------------------------------------|
B|-----------------------------------------------|
G|-----------------------------------------------|
D|-3-3-3-3-3-3-3-3-2-2-2-2-2-2-2-2-1-------------|
A|-3-3-3-3-3-3-3-3-3-3-3-3-3-3-3-3-1-------------|
D|-3-3-3-3-3-3-3-3-2-2-2-2-2-2-2-2-1-------------|



Guitars 1 & 2
E|------------------------------------------------|
B|------------------------------------------------|
G|------------------------------------------------|
D|-------7----------------------------5-----------|
A|-5--0-----8----5--0--5--4--0--4--7-----7--4--7--|
D|------------------------------------------------|
comments
print report bad tab
4 comments total. Showing first comments.
+2 reply
avsHRSHES wrote on April 6 2011, 08:58 pm

Great tab man you and slashrocks have the best A7X tabs out there. I'm new to tabbing but not new guitar and I posted my first tab for so far away on ultimate guitar. If youd rate and comment thatd be great. Tell me if you think theres any corrections to be made :)

0 reply
Jon_09 wrote on April 12 2011, 10:23 pm

hey thanks man. and ill try and check it out. i just havent been on ultimate guitar lately

+2 reply
Tjet612 wrote on August 18 2011, 05:05 pm

The Vibrato/harmonic is from Syns neck pickup its a sustanic pickup when he flip a switch on his guitar it makes the pickup turn vibratos into harmonics.

I want to post or [tab]
guest
You may want to rate the tab now too:
select rating
Please do not post tabs as comments. Select "correction" instead!